ISO-10303-21;
HEADER;
FILE_DESCRIPTION (( 'STEP AP203' ),
    '1' );
FILE_NAME ('77c5.STEP',
    '2022-06-20T09:29:36',
    ( '' ),
    ( '' ),
    'SwSTEP 2.0',
    'SolidWorks 2019',
    '' );
FILE_SCHEMA (( 'CONFIG_CONTROL_DESIGN' ));
ENDSEC;

DATA;
#1 = PRODUCT ( '77c5', '77c5', '', ( #50 ) ) ;
#2 = CARTESIAN_POINT ( 'NONE',  ( 0.000000000000000000, 0.000000000000000000, 0.000000000000000000 ) ) ;
#3 = DIRECTION ( 'NONE',  ( 1.000000000000000000, 0.000000000000000000, 0.000000000000000000 ) ) ;
#4 = EDGE_CURVE ( 'NONE', #276, #114, #93, .T. ) ;
#5 =( NAMED_UNIT ( * ) SI_UNIT ( $, .STERADIAN. ) SOLID_ANGLE_UNIT ( ) );
#6 = CALENDAR_DATE ( 2022, 20, 6 ) ;
#7 = SECURITY_CLASSIFICATION_LEVEL ( 'unclassified' ) ;
#8 = ORIENTED_EDGE ( 'NONE', *, *, #74, .T. ) ;
#9 = CALENDAR_DATE ( 2022, 20, 6 ) ;
#10 = AXIS2_PLACEMENT_3D ( 'NONE', #208, #22, #239 ) ;
#11 = ORIENTED_EDGE ( 'NONE', *, *, #149, .F. ) ;
#12 = EDGE_LOOP ( 'NONE', ( #170, #126 ) ) ;
#13 = EDGE_CURVE ( 'NONE', #306, #40, #75, .T. ) ;
#14 = CIRCLE ( 'NONE', #216, 9.000000000000000000 ) ;
#15 = CARTESIAN_POINT ( 'NONE',  ( 0.000000000000000000, 0.000000000000000000, 7.000000000000000000 ) ) ;
#16 = DIRECTION ( 'NONE',  ( -0.000000000000000000, -0.000000000000000000, -1.000000000000000000 ) ) ;
#17 = EDGE_CURVE ( 'NONE', #279, #293, #91, .T. ) ;
#18 = FACE_OUTER_BOUND ( 'NONE', #219, .T. ) ;
#19 = AXIS2_PLACEMENT_3D ( 'NONE', #179, #176, #175 ) ;
#20 = APPROVAL ( #220, 'NEURÈENÝ' ) ;
#21 = ORIENTED_EDGE ( 'NONE', *, *, #31, .F. ) ;
#22 = DIRECTION ( 'NONE',  ( -0.000000000000000000, -0.000000000000000000, -1.000000000000000000 ) ) ;
#23 = CARTESIAN_POINT ( 'NONE',  ( -9.000000000000000000, 0.000000000000000000, 7.000000000000000000 ) ) ;
#24 = MANIFOLD_SOLID_BREP ( 'Zaoblit1', #119 ) ;
#25 = CARTESIAN_POINT ( 'NONE',  ( 0.000000000000000000, 0.000000000000000000, 7.000000000000000000 ) ) ;
#26 = DIRECTION ( 'NONE',  ( 0.000000000000000000, 0.000000000000000000, 1.000000000000000000 ) ) ;
#27 = SECURITY_CLASSIFICATION ( '', '', #7 ) ;
#28 = FACE_OUTER_BOUND ( 'NONE', #221, .T. ) ;
#29 = CYLINDRICAL_SURFACE ( 'NONE', #76, 6.099999999999999645 ) ;
#30 = DIRECTION ( 'NONE',  ( -0.000000000000000000, -0.000000000000000000, -1.000000000000000000 ) ) ;
#31 = EDGE_CURVE ( 'NONE', #200, #86, #34, .T. ) ;
#32 = DIRECTION ( 'NONE',  ( 0.000000000000000000, 0.000000000000000000, 1.000000000000000000 ) ) ;
#33 = CC_DESIGN_DATE_AND_TIME_ASSIGNMENT ( #128, #144, ( #27 ) ) ;
#34 = CIRCLE ( 'NONE', #19, 6.099999999999999645 ) ;
#35 = COORDINATED_UNIVERSAL_TIME_OFFSET ( 1, 0, .AHEAD. ) ;
#36 = EDGE_LOOP ( 'NONE', ( #233, #21, #171, #224 ) ) ;
#37 = APPROVAL_ROLE ( '' ) ;
#38 = ORIENTED_EDGE ( 'NONE', *, *, #173, .F. ) ;
#39 = AXIS2_PLACEMENT_3D ( 'NONE', #137, #131, #47 ) ;
#40 = VERTEX_POINT ( 'NONE', #257 ) ;
#41 = PERSON_AND_ORGANIZATION ( #252, #44 ) ;
#42 = ORIENTED_EDGE ( 'NONE', *, *, #4, .T. ) ;
#43 = DIRECTION ( 'NONE',  ( 1.000000000000000000, 0.000000000000000000, 0.000000000000000000 ) ) ;
#44 = ORGANIZATION ( 'NEURÈENÝ', 'NEURÈENÝ', '' ) ;
#45 = ADVANCED_FACE ( 'NONE', ( #256 ), #186, .F. ) ;
#46 = DIRECTION ( 'NONE',  ( -0.000000000000000000, -0.000000000000000000, -1.000000000000000000 ) ) ;
#47 = DIRECTION ( 'NONE',  ( 1.000000000000000000, 0.000000000000000000, -0.000000000000000000 ) ) ;
#48 = DIRECTION ( 'NONE',  ( 1.000000000000000000, 0.000000000000000000, -0.000000000000000000 ) ) ;
#49 = AXIS2_PLACEMENT_3D ( 'NONE', #226, #133, #64 ) ;
#50 = MECHANICAL_CONTEXT ( 'NONE', #213, 'mechanical' ) ;
#51 = PLANE ( 'NONE',  #39 ) ;
#52 = CARTESIAN_POINT ( 'NONE',  ( 0.000000000000000000, 0.000000000000000000, 7.199999999999984190 ) ) ;
#53 = CIRCLE ( 'NONE', #49, 0.1999999999999996503 ) ;
#54 = DIRECTION ( 'NONE',  ( 0.000000000000000000, 0.000000000000000000, 1.000000000000000000 ) ) ;
#55 = DIRECTION ( 'NONE',  ( -0.000000000000000000, -0.000000000000000000, -1.000000000000000000 ) ) ;
#56 = DATE_TIME_ROLE ( 'creation_date' ) ;
#57 = AXIS2_PLACEMENT_3D ( 'NONE', #52, #26, #3 ) ;
#58 = ORIENTED_EDGE ( 'NONE', *, *, #173, .T. ) ;
#59 = PERSON_AND_ORGANIZATION ( #252, #44 ) ;
#60 = PERSON_AND_ORGANIZATION_ROLE ( 'design_owner' ) ;
#61 = AXIS2_PLACEMENT_3D ( 'NONE', #181, #301, #278 ) ;
#62 = PRODUCT_DEFINITION_FORMATION_WITH_SPECIFIED_SOURCE ( 'LIBOVOLNÝ', '', #1, .NOT_KNOWN. ) ;
#63 = CARTESIAN_POINT ( 'NONE',  ( 6.099999999999999645, 7.470345474798854293E-16, 807.0000000000000000 ) ) ;
#64 = DIRECTION ( 'NONE',  ( 0.000000000000000000, 0.000000000000000000, -1.000000000000000000 ) ) ;
#65 = LOCAL_TIME ( 11, 29, 36.00000000000000000, #196 ) ;
#66 = LINE ( 'NONE', #63, #249 ) ;
#67 = DIRECTION ( 'NONE',  ( 0.000000000000000000, 0.000000000000000000, 1.000000000000000000 ) ) ;
#68 = ORIENTED_EDGE ( 'NONE', *, *, #31, .T. ) ;
#69 = EDGE_CURVE ( 'NONE', #293, #114, #230, .T. ) ;
#70 =( GEOMETRIC_REPRESENTATION_CONTEXT ( 3 ) GLOBAL_UNCERTAINTY_ASSIGNED_CONTEXT ( ( #164 ) ) GLOBAL_UNIT_ASSIGNED_CONTEXT ( ( #73, #263, #5 ) ) REPRESENTATION_CONTEXT ( 'NONE', 'WORKASPACE' ) );
#71 = CARTESIAN_POINT ( 'NONE',  ( -9.000000000000000000, 0.000000000000000000, 0.000000000000000000 ) ) ;
#72 = FACE_OUTER_BOUND ( 'NONE', #36, .T. ) ;
#73 =( LENGTH_UNIT ( ) NAMED_UNIT ( * ) SI_UNIT ( .MILLI., .METRE. ) );
#74 = EDGE_CURVE ( 'NONE', #86, #200, #204, .T. ) ;
#75 = CIRCLE ( 'NONE', #188, 6.299999999999998934 ) ;
#76 = AXIS2_PLACEMENT_3D ( 'NONE', #283, #138, #116 ) ;
#77 = DIRECTION ( 'NONE',  ( 0.000000000000000000, 0.000000000000000000, 1.000000000000000000 ) ) ;
#78 = PLANE ( 'NONE',  #113 ) ;
#79 = CARTESIAN_POINT ( 'NONE',  ( -9.000000000000000000, 0.000000000000000000, 7.000000000000000000 ) ) ;
#80 = EDGE_CURVE ( 'NONE', #86, #306, #161, .T. ) ;
#81 = ORIENTED_EDGE ( 'NONE', *, *, #80, .T. ) ;
#82 = PERSON_AND_ORGANIZATION_ROLE ( 'creator' ) ;
#83 = LOCAL_TIME ( 11, 29, 36.00000000000000000, #127 ) ;
#84 = ORIENTED_EDGE ( 'NONE', *, *, #92, .F. ) ;
#85 = PERSON_AND_ORGANIZATION ( #252, #44 ) ;
#86 = VERTEX_POINT ( 'NONE', #228 ) ;
#87 = EDGE_LOOP ( 'NONE', ( #107, #299 ) ) ;
#88 = CC_DESIGN_DATE_AND_TIME_ASSIGNMENT ( #246, #56, ( #101 ) ) ;
#89 = AXIS2_PLACEMENT_3D ( 'NONE', #192, #238, #99 ) ;
#90 = DIRECTION ( 'NONE',  ( 0.000000000000000000, 0.000000000000000000, 1.000000000000000000 ) ) ;
#91 = LINE ( 'NONE', #23, #248 ) ;
#92 = EDGE_CURVE ( 'NONE', #123, #200, #66, .T. ) ;
#93 = LINE ( 'NONE', #135, #291 ) ;
#94 = CIRCLE ( 'NONE', #254, 9.000000000000000000 ) ;
#95 = CARTESIAN_POINT ( 'NONE',  ( 0.000000000000000000, 0.000000000000000000, 807.0000000000000000 ) ) ;
#96 = DIRECTION ( 'NONE',  ( 1.000000000000000000, 0.000000000000000000, 0.000000000000000000 ) ) ;
#97 = FACE_OUTER_BOUND ( 'NONE', #296, .T. ) ;
#98 = AXIS2_PLACEMENT_3D ( 'NONE', #210, #32, #187 ) ;
#99 = DIRECTION ( 'NONE',  ( 1.000000000000000000, 0.000000000000000000, 0.000000000000000000 ) ) ;
#100 = DIRECTION ( 'NONE',  ( 0.000000000000000000, 0.000000000000000000, 1.000000000000000000 ) ) ;
#101 = PRODUCT_DEFINITION ( 'NEZNÁMÝ', '', #62, #102 ) ;
#102 = DESIGN_CONTEXT ( 'detailed design', #229, 'design' ) ;
#103 = PERSON_AND_ORGANIZATION ( #252, #44 ) ;
#104 = EDGE_LOOP ( 'NONE', ( #251, #274, #129, #247 ) ) ;
#105 = PERSON_AND_ORGANIZATION_ROLE ( 'creator' ) ;
#106 = PERSON_AND_ORGANIZATION ( #252, #44 ) ;
#107 = ORIENTED_EDGE ( 'NONE', *, *, #69, .F. ) ;
#108 = CC_DESIGN_PERSON_AND_ORGANIZATION_ASSIGNMENT ( #59, #105, ( #62 ) ) ;
#109 = DATE_AND_TIME ( #9, #152 ) ;
#110 = DIRECTION ( 'NONE',  ( 0.000000000000000000, 0.000000000000000000, 1.000000000000000000 ) ) ;
#111 = EDGE_LOOP ( 'NONE', ( #236, #42, #281, #245 ) ) ;
#112 = ORIENTED_EDGE ( 'NONE', *, *, #177, .F. ) ;
#113 = AXIS2_PLACEMENT_3D ( 'NONE', #163, #307, #266 ) ;
#114 = VERTEX_POINT ( 'NONE', #259 ) ;
#115 = CARTESIAN_POINT ( 'NONE',  ( -6.299999999999998934, 7.715274834628324392E-16, 7.199999999999984190 ) ) ;
#116 = DIRECTION ( 'NONE',  ( -1.000000000000000000, 0.000000000000000000, 0.000000000000000000 ) ) ;
#117 = CIRCLE ( 'NONE', #89, 6.099999999999999645 ) ;
#118 = FACE_OUTER_BOUND ( 'NONE', #104, .T. ) ;
#119 = CLOSED_SHELL ( 'NONE', ( #45, #255, #294, #162, #211, #125, #288, #134, #154 ) ) ;
#120 = CIRCLE ( 'NONE', #285, 9.000000000000000000 ) ;
#121 = CC_DESIGN_PERSON_AND_ORGANIZATION_ASSIGNMENT ( #218, #60, ( #1 ) ) ;
#122 = CALENDAR_DATE ( 2022, 20, 6 ) ;
#123 = VERTEX_POINT ( 'NONE', #262 ) ;
#124 = APPROVAL_STATUS ( 'not_yet_approved' ) ;
#125 = ADVANCED_FACE ( 'NONE', ( #253 ), #51, .F. ) ;
#126 = ORIENTED_EDGE ( 'NONE', *, *, #13, .T. ) ;
#127 = COORDINATED_UNIVERSAL_TIME_OFFSET ( 1, 0, .AHEAD. ) ;
#128 = DATE_AND_TIME ( #267, #195 ) ;
#129 = ORIENTED_EDGE ( 'NONE', *, *, #17, .T. ) ;
#130 = EDGE_CURVE ( 'NONE', #200, #40, #53, .T. ) ;
#131 = DIRECTION ( 'NONE',  ( 0.000000000000000000, 0.000000000000000000, 1.000000000000000000 ) ) ;
#132 = CARTESIAN_POINT ( 'NONE',  ( 0.000000000000000000, 0.000000000000000000, 7.000000000000000000 ) ) ;
#133 = DIRECTION ( 'NONE',  ( 0.000000000000000000, -1.000000000000000000, 0.000000000000000000 ) ) ;
#134 = ADVANCED_FACE ( 'NONE', ( #18 ), #205, .T. ) ;
#135 = CARTESIAN_POINT ( 'NONE',  ( 9.000000000000000000, 1.102182119232617714E-15, 7.000000000000000000 ) ) ;
#136 = CC_DESIGN_PERSON_AND_ORGANIZATION_ASSIGNMENT ( #85, #82, ( #101 ) ) ;
#137 = CARTESIAN_POINT ( 'NONE',  ( 0.000000000000000000, 0.000000000000000000, 0.000000000000000000 ) ) ;
#138 = DIRECTION ( 'NONE',  ( -0.000000000000000000, -0.000000000000000000, -1.000000000000000000 ) ) ;
#139 = CYLINDRICAL_SURFACE ( 'NONE', #10, 9.000000000000000000 ) ;
#140 = CARTESIAN_POINT ( 'NONE',  ( -6.299999999999998934, 7.715274834628324392E-16, 6.999999999999992006 ) ) ;
#141 = CYLINDRICAL_SURFACE ( 'NONE', #189, 9.000000000000000000 ) ;
#142 = EDGE_CURVE ( 'NONE', #279, #276, #14, .T. ) ;
#143 = AXIS2_PLACEMENT_3D ( 'NONE', #180, #90, #43 ) ;
#144 = DATE_TIME_ROLE ( 'classification_date' ) ;
#145 = DIRECTION ( 'NONE',  ( -0.000000000000000000, -0.000000000000000000, -1.000000000000000000 ) ) ;
#146 = COORDINATED_UNIVERSAL_TIME_OFFSET ( 1, 0, .AHEAD. ) ;
#147 = DATE_AND_TIME ( #148, #275 ) ;
#148 = CALENDAR_DATE ( 2022, 20, 6 ) ;
#149 = EDGE_CURVE ( 'NONE', #194, #86, #302, .T. ) ;
#150 = ORIENTED_EDGE ( 'NONE', *, *, #271, .F. ) ;
#151 = PRODUCT_RELATED_PRODUCT_CATEGORY ( 'detail', '', ( #1 ) ) ;
#152 = LOCAL_TIME ( 11, 29, 36.00000000000000000, #289 ) ;
#153 = CARTESIAN_POINT ( 'NONE',  ( -6.099999999999999645, 0.000000000000000000, 807.0000000000000000 ) ) ;
#154 = ADVANCED_FACE ( 'NONE', ( #72 ), #182, .F. ) ;
#155 = CARTESIAN_POINT ( 'NONE',  ( 0.000000000000000000, 0.000000000000000000, 0.000000000000000000 ) ) ;
#156 = DIRECTION ( 'NONE',  ( 0.000000000000000000, 0.000000000000000000, 1.000000000000000000 ) ) ;
#157 = AXIS2_PLACEMENT_3D ( 'NONE', #199, #145, #258 ) ;
#158 = DIRECTION ( 'NONE',  ( 1.000000000000000000, 0.000000000000000000, 0.000000000000000000 ) ) ;
#159 = FACE_OUTER_BOUND ( 'NONE', #111, .T. ) ;
#160 = CARTESIAN_POINT ( 'NONE',  ( 6.099999999999999645, 7.470345474798854293E-16, 7.199999999999984190 ) ) ;
#161 = CIRCLE ( 'NONE', #209, 0.1999999999999996503 ) ;
#162 = ADVANCED_FACE ( 'NONE', ( #118 ), #141, .T. ) ;
#163 = CARTESIAN_POINT ( 'NONE',  ( 0.000000000000000000, 0.000000000000000000, 7.000000000000000000 ) ) ;
#164 = UNCERTAINTY_MEASURE_WITH_UNIT (LENGTH_MEASURE( 1.000000000000000082E-05 ), #73, 'distance_accuracy_value', 'NONE');
#165 = DIRECTION ( 'NONE',  ( 1.000000000000000000, 0.000000000000000000, 0.000000000000000000 ) ) ;
#166 = PERSON_AND_ORGANIZATION_ROLE ( 'classification_officer' ) ;
#167 = ORIENTED_EDGE ( 'NONE', *, *, #149, .T. ) ;
#168 = PERSON_AND_ORGANIZATION ( #252, #44 ) ;
#169 = APPROVAL_ROLE ( '' ) ;
#170 = ORIENTED_EDGE ( 'NONE', *, *, #271, .T. ) ;
#171 = ORIENTED_EDGE ( 'NONE', *, *, #130, .T. ) ;
#172 = CC_DESIGN_APPROVAL ( #20, ( #101 ) ) ;
#173 = EDGE_CURVE ( 'NONE', #194, #123, #117, .T. ) ;
#174 = ORIENTED_EDGE ( 'NONE', *, *, #142, .T. ) ;
#175 = DIRECTION ( 'NONE',  ( 1.000000000000000000, 0.000000000000000000, 0.000000000000000000 ) ) ;
#176 = DIRECTION ( 'NONE',  ( 0.000000000000000000, 0.000000000000000000, 1.000000000000000000 ) ) ;
#177 = EDGE_CURVE ( 'NONE', #123, #194, #261, .T. ) ;
#178 = AXIS2_PLACEMENT_3D ( 'NONE', #155, #67, #158 ) ;
#179 = CARTESIAN_POINT ( 'NONE',  ( 0.000000000000000000, 0.000000000000000000, 7.199999999999984190 ) ) ;
#180 = CARTESIAN_POINT ( 'NONE',  ( 0.000000000000000000, 0.000000000000000000, 7.199999999999984190 ) ) ;
#181 = CARTESIAN_POINT ( 'NONE',  ( 0.000000000000000000, 0.000000000000000000, 7.199999999999984190 ) ) ;
#182 = TOROIDAL_SURFACE ( 'NONE', #57, 6.299999999999998934, 0.2000000000000000111 ) ;
#183 = CYLINDRICAL_SURFACE ( 'NONE', #157, 6.099999999999999645 ) ;
#184 = APPROVAL ( #269, 'NEURÈENÝ' ) ;
#185 = DIRECTION ( 'NONE',  ( 1.000000000000000000, 0.000000000000000000, 0.000000000000000000 ) ) ;
#186 = TOROIDAL_SURFACE ( 'NONE', #61, 6.299999999999998934, 0.2000000000000000111 ) ;
#187 = DIRECTION ( 'NONE',  ( 1.000000000000000000, 0.000000000000000000, 0.000000000000000000 ) ) ;
#188 = AXIS2_PLACEMENT_3D ( 'NONE', #132, #206, #96 ) ;
#189 = AXIS2_PLACEMENT_3D ( 'NONE', #264, #55, #241 ) ;
#190 = ADVANCED_BREP_SHAPE_REPRESENTATION ( '77c5', ( #24, #282 ), #70 ) ;
#191 = CC_DESIGN_PERSON_AND_ORGANIZATION_ASSIGNMENT ( #193, #166, ( #27 ) ) ;
#192 = CARTESIAN_POINT ( 'NONE',  ( 0.000000000000000000, 0.000000000000000000, 807.0000000000000000 ) ) ;
#193 = PERSON_AND_ORGANIZATION ( #252, #44 ) ;
#194 = VERTEX_POINT ( 'NONE', #243 ) ;
#195 = LOCAL_TIME ( 11, 29, 36.00000000000000000, #146 ) ;
#196 = COORDINATED_UNIVERSAL_TIME_OFFSET ( 1, 0, .AHEAD. ) ;
#197 = EDGE_LOOP ( 'NONE', ( #84, #38, #167, #8 ) ) ;
#198 = ORIENTED_EDGE ( 'NONE', *, *, #260, .T. ) ;
#199 = CARTESIAN_POINT ( 'NONE',  ( 0.000000000000000000, 0.000000000000000000, 807.0000000000000000 ) ) ;
#200 = VERTEX_POINT ( 'NONE', #160 ) ;
#201 = CC_DESIGN_APPROVAL ( #203, ( #27 ) ) ;
#202 = DIRECTION ( 'NONE',  ( 1.000000000000000000, 0.000000000000000000, 0.000000000000000000 ) ) ;
#203 = APPROVAL ( #124, 'NEURÈENÝ' ) ;
#204 = CIRCLE ( 'NONE', #143, 6.099999999999999645 ) ;
#205 = PLANE ( 'NONE',  #225 ) ;
#206 = DIRECTION ( 'NONE',  ( -0.000000000000000000, -0.000000000000000000, -1.000000000000000000 ) ) ;
#207 = PRODUCT_DEFINITION_SHAPE ( 'NONE', 'NONE',  #101 ) ;
#208 = CARTESIAN_POINT ( 'NONE',  ( 0.000000000000000000, 0.000000000000000000, 7.000000000000000000 ) ) ;
#209 = AXIS2_PLACEMENT_3D ( 'NONE', #115, #303, #277 ) ;
#210 = CARTESIAN_POINT ( 'NONE',  ( 0.000000000000000000, 0.000000000000000000, 807.0000000000000000 ) ) ;
#211 = ADVANCED_FACE ( 'NONE', ( #286, #28 ), #78, .T. ) ;
#212 = CARTESIAN_POINT ( 'NONE',  ( 0.000000000000000000, 0.000000000000000000, 7.000000000000000000 ) ) ;
#213 = APPLICATION_CONTEXT ( 'configuration controlled 3d designs of mechanical parts and assemblies' ) ;
#214 = CARTESIAN_POINT ( 'NONE',  ( 9.000000000000000000, 1.102182119232617714E-15, 7.000000000000000000 ) ) ;
#215 = CARTESIAN_POINT ( 'NONE',  ( 0.000000000000000000, 0.000000000000000000, 0.000000000000000000 ) ) ;
#216 = AXIS2_PLACEMENT_3D ( 'NONE', #15, #110, #202 ) ;
#217 = APPLICATION_PROTOCOL_DEFINITION ( 'international standard', 'config_control_design', 1994, #229 ) ;
#218 = PERSON_AND_ORGANIZATION ( #252, #44 ) ;
#219 = EDGE_LOOP ( 'NONE', ( #58, #227 ) ) ;
#220 = APPROVAL_STATUS ( 'not_yet_approved' ) ;
#221 = EDGE_LOOP ( 'NONE', ( #174, #198 ) ) ;
#222 = VECTOR ( 'NONE', #30, 1000.000000000000000 ) ;
#223 = ORIENTED_EDGE ( 'NONE', *, *, #74, .F. ) ;
#224 = ORIENTED_EDGE ( 'NONE', *, *, #13, .F. ) ;
#225 = AXIS2_PLACEMENT_3D ( 'NONE', #95, #156, #48 ) ;
#226 = CARTESIAN_POINT ( 'NONE',  ( 6.299999999999998934, 0.000000000000000000, 7.199999999999984190 ) ) ;
#227 = ORIENTED_EDGE ( 'NONE', *, *, #177, .T. ) ;
#228 = CARTESIAN_POINT ( 'NONE',  ( -6.099999999999999645, 0.000000000000000000, 7.199999999999984190 ) ) ;
#229 = APPLICATION_CONTEXT ( 'configuration controlled 3d designs of mechanical parts and assemblies' ) ;
#230 = CIRCLE ( 'NONE', #178, 9.000000000000000000 ) ;
#231 = APPROVAL_PERSON_ORGANIZATION ( #106, #184, #37 ) ;
#232 = APPROVAL_PERSON_ORGANIZATION ( #168, #20, #290 ) ;
#233 = ORIENTED_EDGE ( 'NONE', *, *, #80, .F. ) ;
#234 = EDGE_CURVE ( 'NONE', #114, #293, #94, .T. ) ;
#235 = DIRECTION ( 'NONE',  ( 1.000000000000000000, 0.000000000000000000, 0.000000000000000000 ) ) ;
#236 = ORIENTED_EDGE ( 'NONE', *, *, #260, .F. ) ;
#237 = CC_DESIGN_SECURITY_CLASSIFICATION ( #27, ( #62 ) ) ;
#238 = DIRECTION ( 'NONE',  ( 0.000000000000000000, 0.000000000000000000, 1.000000000000000000 ) ) ;
#239 = DIRECTION ( 'NONE',  ( -1.000000000000000000, 0.000000000000000000, 0.000000000000000000 ) ) ;
#240 = DIRECTION ( 'NONE',  ( -0.000000000000000000, -0.000000000000000000, -1.000000000000000000 ) ) ;
#241 = DIRECTION ( 'NONE',  ( -1.000000000000000000, 0.000000000000000000, 0.000000000000000000 ) ) ;
#242 = PERSON_AND_ORGANIZATION_ROLE ( 'design_supplier' ) ;
#243 = CARTESIAN_POINT ( 'NONE',  ( -6.099999999999999645, 0.000000000000000000, 807.0000000000000000 ) ) ;
#244 = SHAPE_DEFINITION_REPRESENTATION ( #207, #190 ) ;
#245 = ORIENTED_EDGE ( 'NONE', *, *, #17, .F. ) ;
#246 = DATE_AND_TIME ( #122, #83 ) ;
#247 = ORIENTED_EDGE ( 'NONE', *, *, #69, .T. ) ;
#248 = VECTOR ( 'NONE', #16, 1000.000000000000000 ) ;
#249 = VECTOR ( 'NONE', #280, 1000.000000000000000 ) ;
#250 = APPROVAL_DATE_TIME ( #147, #20 ) ;
#251 = ORIENTED_EDGE ( 'NONE', *, *, #4, .F. ) ;
#252 = PERSON ( 'NEURÈENÝ', 'NEURÈENÝ', 'NEURÈENÝ', ('NEURÈENÝ'), ('NEURÈENÝ'), ('NEURÈENÝ') ) ;
#253 = FACE_OUTER_BOUND ( 'NONE', #87, .T. ) ;
#254 = AXIS2_PLACEMENT_3D ( 'NONE', #215, #100, #165 ) ;
#255 = ADVANCED_FACE ( 'NONE', ( #97 ), #183, .T. ) ;
#256 = FACE_OUTER_BOUND ( 'NONE', #298, .T. ) ;
#257 = CARTESIAN_POINT ( 'NONE',  ( 6.299999999999998934, 0.000000000000000000, 6.999999999999992006 ) ) ;
#258 = DIRECTION ( 'NONE',  ( -1.000000000000000000, 0.000000000000000000, 0.000000000000000000 ) ) ;
#259 = CARTESIAN_POINT ( 'NONE',  ( 9.000000000000000000, 1.102182119232617714E-15, 0.000000000000000000 ) ) ;
#260 = EDGE_CURVE ( 'NONE', #276, #279, #120, .T. ) ;
#261 = CIRCLE ( 'NONE', #98, 6.099999999999999645 ) ;
#262 = CARTESIAN_POINT ( 'NONE',  ( 6.099999999999999645, 7.470345474798854293E-16, 807.0000000000000000 ) ) ;
#263 =( NAMED_UNIT ( * ) PLANE_ANGLE_UNIT ( ) SI_UNIT ( $, .RADIAN. ) );
#264 = CARTESIAN_POINT ( 'NONE',  ( 0.000000000000000000, 0.000000000000000000, 7.000000000000000000 ) ) ;
#265 = DIRECTION ( 'NONE',  ( 1.000000000000000000, 0.000000000000000000, 0.000000000000000000 ) ) ;
#266 = DIRECTION ( 'NONE',  ( 1.000000000000000000, 0.000000000000000000, -0.000000000000000000 ) ) ;
#267 = CALENDAR_DATE ( 2022, 20, 6 ) ;
#268 = CIRCLE ( 'NONE', #292, 6.299999999999998934 ) ;
#269 = APPROVAL_STATUS ( 'not_yet_approved' ) ;
#270 = ORIENTED_EDGE ( 'NONE', *, *, #130, .F. ) ;
#271 = EDGE_CURVE ( 'NONE', #40, #306, #268, .T. ) ;
#272 = APPROVAL_DATE_TIME ( #295, #203 ) ;
#273 = CC_DESIGN_PERSON_AND_ORGANIZATION_ASSIGNMENT ( #41, #242, ( #62 ) ) ;
#274 = ORIENTED_EDGE ( 'NONE', *, *, #142, .F. ) ;
#275 = LOCAL_TIME ( 11, 29, 36.00000000000000000, #35 ) ;
#276 = VERTEX_POINT ( 'NONE', #214 ) ;
#277 = DIRECTION ( 'NONE',  ( -1.000000000000000000, 1.224646799147353454E-16, 0.000000000000000000 ) ) ;
#278 = DIRECTION ( 'NONE',  ( 1.000000000000000000, 0.000000000000000000, 0.000000000000000000 ) ) ;
#279 = VERTEX_POINT ( 'NONE', #79 ) ;
#280 = DIRECTION ( 'NONE',  ( -0.000000000000000000, -0.000000000000000000, -1.000000000000000000 ) ) ;
#281 = ORIENTED_EDGE ( 'NONE', *, *, #234, .T. ) ;
#282 = AXIS2_PLACEMENT_3D ( 'NONE', #2, #77, #185 ) ;
#283 = CARTESIAN_POINT ( 'NONE',  ( 0.000000000000000000, 0.000000000000000000, 807.0000000000000000 ) ) ;
#284 = APPLICATION_PROTOCOL_DEFINITION ( 'international standard', 'config_control_design', 1994, #213 ) ;
#285 = AXIS2_PLACEMENT_3D ( 'NONE', #212, #54, #265 ) ;
#286 = FACE_BOUND ( 'NONE', #12, .T. ) ;
#287 = FACE_OUTER_BOUND ( 'NONE', #197, .T. ) ;
#288 = ADVANCED_FACE ( 'NONE', ( #287 ), #29, .T. ) ;
#289 = COORDINATED_UNIVERSAL_TIME_OFFSET ( 1, 0, .AHEAD. ) ;
#290 = APPROVAL_ROLE ( '' ) ;
#291 = VECTOR ( 'NONE', #46, 1000.000000000000000 ) ;
#292 = AXIS2_PLACEMENT_3D ( 'NONE', #25, #240, #235 ) ;
#293 = VERTEX_POINT ( 'NONE', #71 ) ;
#294 = ADVANCED_FACE ( 'NONE', ( #159 ), #139, .T. ) ;
#295 = DATE_AND_TIME ( #6, #65 ) ;
#296 = EDGE_LOOP ( 'NONE', ( #112, #305, #68, #11 ) ) ;
#297 = APPROVAL_DATE_TIME ( #109, #184 ) ;
#298 = EDGE_LOOP ( 'NONE', ( #223, #81, #150, #270 ) ) ;
#299 = ORIENTED_EDGE ( 'NONE', *, *, #234, .F. ) ;
#300 = APPROVAL_PERSON_ORGANIZATION ( #103, #203, #169 ) ;
#301 = DIRECTION ( 'NONE',  ( 0.000000000000000000, 0.000000000000000000, 1.000000000000000000 ) ) ;
#302 = LINE ( 'NONE', #153, #222 ) ;
#303 = DIRECTION ( 'NONE',  ( 1.224646799147353207E-16, 1.000000000000000000, -0.000000000000000000 ) ) ;
#304 = CC_DESIGN_APPROVAL ( #184, ( #62 ) ) ;
#305 = ORIENTED_EDGE ( 'NONE', *, *, #92, .T. ) ;
#306 = VERTEX_POINT ( 'NONE', #140 ) ;
#307 = DIRECTION ( 'NONE',  ( 0.000000000000000000, 0.000000000000000000, 1.000000000000000000 ) ) ;
ENDSEC;
END-ISO-10303-21;
