ISO-10303-21;
HEADER;
FILE_DESCRIPTION (( 'STEP AP203' ),
    '1' );
FILE_NAME ('7d6b.STEP',
    '2022-06-20T09:51:41',
    ( '' ),
    ( '' ),
    'SwSTEP 2.0',
    'SolidWorks 2019',
    '' );
FILE_SCHEMA (( 'CONFIG_CONTROL_DESIGN' ));
ENDSEC;

DATA;
#1 = CARTESIAN_POINT ( 'NONE',  ( 6.000000000000000888, 7.347880794884120722E-16, 0.000000000000000000 ) ) ;
#2 = COORDINATED_UNIVERSAL_TIME_OFFSET ( 1, 0, .AHEAD. ) ;
#3 = CARTESIAN_POINT ( 'NONE',  ( -3.700000000000000178, 4.531193156845206201E-16, 4.999999999999991118 ) ) ;
#4 = APPROVAL_PERSON_ORGANIZATION ( #38, #297, #44 ) ;
#5 = CARTESIAN_POINT ( 'NONE',  ( -6.000000000000000888, 0.000000000000000000, 5.000000000000000000 ) ) ;
#6 = COORDINATED_UNIVERSAL_TIME_OFFSET ( 1, 0, .AHEAD. ) ;
#7 = ADVANCED_FACE ( 'NONE', ( #232 ), #105, .T. ) ;
#8 = VERTEX_POINT ( 'NONE', #57 ) ;
#9 = ORIENTED_EDGE ( 'NONE', *, *, #268, .T. ) ;
#10 = CIRCLE ( 'NONE', #50, 3.500000000000000000 ) ;
#11 = AXIS2_PLACEMENT_3D ( 'NONE', #94, #25, #24 ) ;
#12 = VERTEX_POINT ( 'NONE', #179 ) ;
#13 = EDGE_LOOP ( 'NONE', ( #194, #65 ) ) ;
#14 = ORIENTED_EDGE ( 'NONE', *, *, #285, .T. ) ;
#15 = ORIENTED_EDGE ( 'NONE', *, *, #203, .F. ) ;
#16 =( NAMED_UNIT ( * ) PLANE_ANGLE_UNIT ( ) SI_UNIT ( $, .RADIAN. ) );
#17 = ORIENTED_EDGE ( 'NONE', *, *, #198, .F. ) ;
#18 = COORDINATED_UNIVERSAL_TIME_OFFSET ( 1, 0, .AHEAD. ) ;
#19 = ORIENTED_EDGE ( 'NONE', *, *, #220, .T. ) ;
#20 = CC_DESIGN_APPROVAL ( #75, ( #256 ) ) ;
#21 = PERSON_AND_ORGANIZATION ( #99, #191 ) ;
#22 = PLANE ( 'NONE',  #147 ) ;
#23 = PERSON_AND_ORGANIZATION_ROLE ( 'creator' ) ;
#24 = DIRECTION ( 'NONE',  ( 1.000000000000000000, 0.000000000000000000, 0.000000000000000000 ) ) ;
#25 = DIRECTION ( 'NONE',  ( 0.000000000000000000, 0.000000000000000000, 1.000000000000000000 ) ) ;
#26 = CARTESIAN_POINT ( 'NONE',  ( 0.000000000000000000, 0.000000000000000000, 805.0000000000000000 ) ) ;
#27 = AXIS2_PLACEMENT_3D ( 'NONE', #137, #43, #107 ) ;
#28 = DIRECTION ( 'NONE',  ( -1.000000000000000000, 0.000000000000000000, 0.000000000000000000 ) ) ;
#29 = EDGE_CURVE ( 'NONE', #221, #158, #223, .T. ) ;
#30 = CIRCLE ( 'NONE', #206, 3.700000000000000178 ) ;
#31 = ORIENTED_EDGE ( 'NONE', *, *, #285, .F. ) ;
#32 = AXIS2_PLACEMENT_3D ( 'NONE', #62, #307, #283 ) ;
#33 = ORIENTED_EDGE ( 'NONE', *, *, #56, .F. ) ;
#34 = EDGE_CURVE ( 'NONE', #158, #278, #238, .T. ) ;
#35 = EDGE_LOOP ( 'NONE', ( #15, #9, #200, #133 ) ) ;
#36 = DATE_AND_TIME ( #303, #169 ) ;
#37 = CARTESIAN_POINT ( 'NONE',  ( -6.000000000000000888, 0.000000000000000000, 5.000000000000000000 ) ) ;
#38 = PERSON_AND_ORGANIZATION ( #99, #191 ) ;
#39 = DIRECTION ( 'NONE',  ( -0.000000000000000000, -0.000000000000000000, -1.000000000000000000 ) ) ;
#40 = COORDINATED_UNIVERSAL_TIME_OFFSET ( 1, 0, .AHEAD. ) ;
#41 = CARTESIAN_POINT ( 'NONE',  ( -3.700000000000000178, 4.531193156845206201E-16, 5.199999999999982414 ) ) ;
#42 = DATE_AND_TIME ( #248, #267 ) ;
#43 = DIRECTION ( 'NONE',  ( 0.000000000000000000, -1.000000000000000000, 0.000000000000000000 ) ) ;
#44 = APPROVAL_ROLE ( '' ) ;
#45 = FACE_OUTER_BOUND ( 'NONE', #305, .T. ) ;
#46 = PERSON_AND_ORGANIZATION ( #99, #191 ) ;
#47 = CC_DESIGN_PERSON_AND_ORGANIZATION_ASSIGNMENT ( #141, #149, ( #196 ) ) ;
#48 = FACE_OUTER_BOUND ( 'NONE', #217, .T. ) ;
#49 = DIRECTION ( 'NONE',  ( 1.000000000000000000, 0.000000000000000000, -0.000000000000000000 ) ) ;
#50 = AXIS2_PLACEMENT_3D ( 'NONE', #213, #71, #186 ) ;
#51 = DIRECTION ( 'NONE',  ( -0.000000000000000000, -0.000000000000000000, -1.000000000000000000 ) ) ;
#52 = EDGE_CURVE ( 'NONE', #12, #158, #227, .T. ) ;
#53 = ORIENTED_EDGE ( 'NONE', *, *, #89, .T. ) ;
#54 = AXIS2_PLACEMENT_3D ( 'NONE', #235, #258, #49 ) ;
#55 = ORIENTED_EDGE ( 'NONE', *, *, #61, .T. ) ;
#56 = EDGE_CURVE ( 'NONE', #158, #221, #265, .T. ) ;
#57 = CARTESIAN_POINT ( 'NONE',  ( -6.000000000000000888, 0.000000000000000000, 0.000000000000000000 ) ) ;
#58 = DIRECTION ( 'NONE',  ( 0.000000000000000000, 0.000000000000000000, 1.000000000000000000 ) ) ;
#59 = VERTEX_POINT ( 'NONE', #296 ) ;
#60 = APPROVAL_STATUS ( 'not_yet_approved' ) ;
#61 = EDGE_CURVE ( 'NONE', #181, #8, #140, .T. ) ;
#62 = CARTESIAN_POINT ( 'NONE',  ( 0.000000000000000000, 0.000000000000000000, 5.199999999999982414 ) ) ;
#63 = VECTOR ( 'NONE', #247, 1000.000000000000000 ) ;
#64 = LOCAL_TIME ( 11, 51, 41.00000000000000000, #6 ) ;
#65 = ORIENTED_EDGE ( 'NONE', *, *, #304, .T. ) ;
#66 = CARTESIAN_POINT ( 'NONE',  ( 0.000000000000000000, 0.000000000000000000, 805.0000000000000000 ) ) ;
#67 = DIRECTION ( 'NONE',  ( 0.000000000000000000, 0.000000000000000000, 1.000000000000000000 ) ) ;
#68 = CC_DESIGN_DATE_AND_TIME_ASSIGNMENT ( #286, #90, ( #196 ) ) ;
#69 = FACE_OUTER_BOUND ( 'NONE', #176, .T. ) ;
#70 = CARTESIAN_POINT ( 'NONE',  ( 3.500000000000000000, 4.286263797015736595E-16, 805.0000000000000000 ) ) ;
#71 = DIRECTION ( 'NONE',  ( 0.000000000000000000, 0.000000000000000000, 1.000000000000000000 ) ) ;
#72 = TOROIDAL_SURFACE ( 'NONE', #11, 3.700000000000000178, 0.2000000000000000111 ) ;
#73 = CC_DESIGN_PERSON_AND_ORGANIZATION_ASSIGNMENT ( #157, #23, ( #256 ) ) ;
#74 = CC_DESIGN_APPROVAL ( #297, ( #135 ) ) ;
#75 = APPROVAL ( #60, 'NEURÈENÝ' ) ;
#76 = CARTESIAN_POINT ( 'NONE',  ( 0.000000000000000000, 0.000000000000000000, 5.199999999999982414 ) ) ;
#77 = APPLICATION_PROTOCOL_DEFINITION ( 'international standard', 'config_control_design', 1994, #175 ) ;
#78 = CARTESIAN_POINT ( 'NONE',  ( -3.500000000000000000, 0.000000000000000000, 5.199999999999982414 ) ) ;
#79 = MECHANICAL_CONTEXT ( 'NONE', #175, 'mechanical' ) ;
#80 = DIRECTION ( 'NONE',  ( 1.000000000000000000, 0.000000000000000000, 0.000000000000000000 ) ) ;
#81 = DIRECTION ( 'NONE',  ( 0.000000000000000000, 0.000000000000000000, 1.000000000000000000 ) ) ;
#82 = DIRECTION ( 'NONE',  ( -0.000000000000000000, -0.000000000000000000, -1.000000000000000000 ) ) ;
#83 = AXIS2_PLACEMENT_3D ( 'NONE', #26, #236, #28 ) ;
#84 = VECTOR ( 'NONE', #39, 1000.000000000000000 ) ;
#85 = PLANE ( 'NONE',  #129 ) ;
#86 = DIRECTION ( 'NONE',  ( 1.000000000000000000, 0.000000000000000000, 0.000000000000000000 ) ) ;
#87 = DIRECTION ( 'NONE',  ( 1.000000000000000000, 0.000000000000000000, -0.000000000000000000 ) ) ;
#88 = DIRECTION ( 'NONE',  ( 1.000000000000000000, 0.000000000000000000, -0.000000000000000000 ) ) ;
#89 = EDGE_CURVE ( 'NONE', #195, #12, #168, .T. ) ;
#90 = DATE_TIME_ROLE ( 'classification_date' ) ;
#91 = LINE ( 'NONE', #187, #231 ) ;
#92 = APPROVAL_DATE_TIME ( #144, #152 ) ;
#93 = CIRCLE ( 'NONE', #159, 6.000000000000000888 ) ;
#94 = CARTESIAN_POINT ( 'NONE',  ( 0.000000000000000000, 0.000000000000000000, 5.199999999999982414 ) ) ;
#95 = CC_DESIGN_DATE_AND_TIME_ASSIGNMENT ( #36, #276, ( #256 ) ) ;
#96 = CYLINDRICAL_SURFACE ( 'NONE', #182, 6.000000000000000888 ) ;
#97 = AXIS2_PLACEMENT_3D ( 'NONE', #76, #254, #86 ) ;
#98 = CALENDAR_DATE ( 2022, 20, 6 ) ;
#99 = PERSON ( 'NEURÈENÝ', 'NEURÈENÝ', 'NEURÈENÝ', ('NEURÈENÝ'), ('NEURÈENÝ'), ('NEURÈENÝ') ) ;
#100 = EDGE_LOOP ( 'NONE', ( #14, #292 ) ) ;
#101 = AXIS2_PLACEMENT_3D ( 'NONE', #41, #207, #294 ) ;
#102 = CLOSED_SHELL ( 'NONE', ( #214, #234, #281, #116, #225, #290, #7, #177, #170 ) ) ;
#103 = LOCAL_TIME ( 11, 51, 41.00000000000000000, #2 ) ;
#104 = ADVANCED_BREP_SHAPE_REPRESENTATION ( '7d6b', ( #130, #244 ), #192 ) ;
#105 = CYLINDRICAL_SURFACE ( 'NONE', #302, 3.500000000000000000 ) ;
#106 = UNCERTAINTY_MEASURE_WITH_UNIT (LENGTH_MEASURE( 1.000000000000000082E-05 ), #295, 'distance_accuracy_value', 'NONE');
#107 = DIRECTION ( 'NONE',  ( 0.000000000000000000, 0.000000000000000000, -1.000000000000000000 ) ) ;
#108 = DIRECTION ( 'NONE',  ( 1.000000000000000000, 0.000000000000000000, 0.000000000000000000 ) ) ;
#109 = ORIENTED_EDGE ( 'NONE', *, *, #243, .F. ) ;
#110 = DIRECTION ( 'NONE',  ( 1.000000000000000000, 0.000000000000000000, 0.000000000000000000 ) ) ;
#111 = ORIENTED_EDGE ( 'NONE', *, *, #89, .F. ) ;
#112 = DIRECTION ( 'NONE',  ( -1.000000000000000000, 0.000000000000000000, 0.000000000000000000 ) ) ;
#113 = AXIS2_PLACEMENT_3D ( 'NONE', #66, #162, #80 ) ;
#114 = CIRCLE ( 'NONE', #123, 6.000000000000000888 ) ;
#115 = CARTESIAN_POINT ( 'NONE',  ( 0.000000000000000000, 0.000000000000000000, 0.000000000000000000 ) ) ;
#116 = ADVANCED_FACE ( 'NONE', ( #199 ), #136, .T. ) ;
#117 = DIRECTION ( 'NONE',  ( 0.000000000000000000, 0.000000000000000000, 1.000000000000000000 ) ) ;
#118 = APPROVAL_STATUS ( 'not_yet_approved' ) ;
#119 = PRODUCT_DEFINITION_SHAPE ( 'NONE', 'NONE',  #256 ) ;
#120 = PLANE ( 'NONE',  #54 ) ;
#121 = DIRECTION ( 'NONE',  ( -0.000000000000000000, -0.000000000000000000, -1.000000000000000000 ) ) ;
#122 = EDGE_CURVE ( 'NONE', #221, #59, #180, .T. ) ;
#123 = AXIS2_PLACEMENT_3D ( 'NONE', #259, #67, #264 ) ;
#124 = CARTESIAN_POINT ( 'NONE',  ( 6.000000000000000888, 7.347880794884120722E-16, 5.000000000000000000 ) ) ;
#125 = APPROVAL_ROLE ( '' ) ;
#126 = CARTESIAN_POINT ( 'NONE',  ( 0.000000000000000000, 0.000000000000000000, 5.000000000000000000 ) ) ;
#127 = CC_DESIGN_PERSON_AND_ORGANIZATION_ASSIGNMENT ( #139, #230, ( #135 ) ) ;
#128 = ORIENTED_EDGE ( 'NONE', *, *, #56, .T. ) ;
#129 = AXIS2_PLACEMENT_3D ( 'NONE', #115, #81, #87 ) ;
#130 = MANIFOLD_SOLID_BREP ( 'Zaoblit1', #102 ) ;
#131 = APPROVAL_PERSON_ORGANIZATION ( #273, #75, #253 ) ;
#132 = ORIENTED_EDGE ( 'NONE', *, *, #173, .T. ) ;
#133 = ORIENTED_EDGE ( 'NONE', *, *, #61, .F. ) ;
#134 = ORIENTED_EDGE ( 'NONE', *, *, #304, .F. ) ;
#135 = PRODUCT_DEFINITION_FORMATION_WITH_SPECIFIED_SOURCE ( 'LIBOVOLNÝ', '', #143, .NOT_KNOWN. ) ;
#136 = CYLINDRICAL_SURFACE ( 'NONE', #275, 6.000000000000000888 ) ;
#137 = CARTESIAN_POINT ( 'NONE',  ( 3.700000000000000178, 0.000000000000000000, 5.199999999999982414 ) ) ;
#138 = PRODUCT_RELATED_PRODUCT_CATEGORY ( 'detail', '', ( #143 ) ) ;
#139 = PERSON_AND_ORGANIZATION ( #99, #191 ) ;
#140 = LINE ( 'NONE', #37, #63 ) ;
#141 = PERSON_AND_ORGANIZATION ( #99, #191 ) ;
#142 = CARTESIAN_POINT ( 'NONE',  ( 0.000000000000000000, 0.000000000000000000, 0.000000000000000000 ) ) ;
#143 = PRODUCT ( '7d6b', '7d6b', '', ( #79 ) ) ;
#144 = DATE_AND_TIME ( #98, #103 ) ;
#145 = FACE_OUTER_BOUND ( 'NONE', #35, .T. ) ;
#146 = TOROIDAL_SURFACE ( 'NONE', #32, 3.700000000000000178, 0.2000000000000000111 ) ;
#147 = AXIS2_PLACEMENT_3D ( 'NONE', #261, #284, #88 ) ;
#148 = DIRECTION ( 'NONE',  ( -1.000000000000000000, 0.000000000000000000, 0.000000000000000000 ) ) ;
#149 = PERSON_AND_ORGANIZATION_ROLE ( 'classification_officer' ) ;
#150 = CC_DESIGN_PERSON_AND_ORGANIZATION_ASSIGNMENT ( #21, #208, ( #135 ) ) ;
#151 = ORIENTED_EDGE ( 'NONE', *, *, #122, .F. ) ;
#152 = APPROVAL ( #262, 'NEURÈENÝ' ) ;
#153 = ORIENTED_EDGE ( 'NONE', *, *, #34, .T. ) ;
#154 = VECTOR ( 'NONE', #211, 1000.000000000000000 ) ;
#155 = EDGE_LOOP ( 'NONE', ( #229, #17, #204, #128 ) ) ;
#156 = DIRECTION ( 'NONE',  ( 1.000000000000000000, 0.000000000000000000, 0.000000000000000000 ) ) ;
#157 = PERSON_AND_ORGANIZATION ( #99, #191 ) ;
#158 = VERTEX_POINT ( 'NONE', #78 ) ;
#159 = AXIS2_PLACEMENT_3D ( 'NONE', #233, #282, #279 ) ;
#160 = CARTESIAN_POINT ( 'NONE',  ( 0.000000000000000000, 0.000000000000000000, 5.199999999999982414 ) ) ;
#161 = COORDINATED_UNIVERSAL_TIME_OFFSET ( 1, 0, .AHEAD. ) ;
#162 = DIRECTION ( 'NONE',  ( 0.000000000000000000, 0.000000000000000000, 1.000000000000000000 ) ) ;
#163 = APPLICATION_PROTOCOL_DEFINITION ( 'international standard', 'config_control_design', 1994, #291 ) ;
#164 = FACE_OUTER_BOUND ( 'NONE', #100, .T. ) ;
#165 = DIRECTION ( 'NONE',  ( 0.000000000000000000, 0.000000000000000000, 1.000000000000000000 ) ) ;
#166 = FACE_BOUND ( 'NONE', #13, .T. ) ;
#167 = DIRECTION ( 'NONE',  ( -0.000000000000000000, -0.000000000000000000, -1.000000000000000000 ) ) ;
#168 = CIRCLE ( 'NONE', #113, 3.500000000000000000 ) ;
#169 = LOCAL_TIME ( 11, 51, 41.00000000000000000, #18 ) ;
#170 = ADVANCED_FACE ( 'NONE', ( #178 ), #146, .F. ) ;
#171 = ORIENTED_EDGE ( 'NONE', *, *, #190, .F. ) ;
#172 = ORIENTED_EDGE ( 'NONE', *, *, #268, .F. ) ;
#173 = EDGE_CURVE ( 'NONE', #195, #221, #224, .T. ) ;
#174 = AXIS2_PLACEMENT_3D ( 'NONE', #142, #165, #288 ) ;
#175 = APPLICATION_CONTEXT ( 'configuration controlled 3d designs of mechanical parts and assemblies' ) ;
#176 = EDGE_LOOP ( 'NONE', ( #202, #53 ) ) ;
#177 = ADVANCED_FACE ( 'NONE', ( #69 ), #22, .T. ) ;
#178 = FACE_OUTER_BOUND ( 'NONE', #193, .T. ) ;
#179 = CARTESIAN_POINT ( 'NONE',  ( -3.500000000000000000, 0.000000000000000000, 805.0000000000000000 ) ) ;
#180 = CIRCLE ( 'NONE', #27, 0.1999999999999996503 ) ;
#181 = VERTEX_POINT ( 'NONE', #5 ) ;
#182 = AXIS2_PLACEMENT_3D ( 'NONE', #189, #51, #148 ) ;
#183 = PERSON_AND_ORGANIZATION ( #99, #191 ) ;
#184 = ORIENTED_EDGE ( 'NONE', *, *, #52, .F. ) ;
#185 =( NAMED_UNIT ( * ) SI_UNIT ( $, .STERADIAN. ) SOLID_ANGLE_UNIT ( ) );
#186 = DIRECTION ( 'NONE',  ( 1.000000000000000000, 0.000000000000000000, 0.000000000000000000 ) ) ;
#187 = CARTESIAN_POINT ( 'NONE',  ( 6.000000000000000888, 7.347880794884120722E-16, 5.000000000000000000 ) ) ;
#188 = DIRECTION ( 'NONE',  ( 1.000000000000000000, 0.000000000000000000, 0.000000000000000000 ) ) ;
#189 = CARTESIAN_POINT ( 'NONE',  ( 0.000000000000000000, 0.000000000000000000, 5.000000000000000000 ) ) ;
#190 = EDGE_CURVE ( 'NONE', #246, #8, #293, .T. ) ;
#191 = ORGANIZATION ( 'NEURÈENÝ', 'NEURÈENÝ', '' ) ;
#192 =( GEOMETRIC_REPRESENTATION_CONTEXT ( 3 ) GLOBAL_UNCERTAINTY_ASSIGNED_CONTEXT ( ( #106 ) ) GLOBAL_UNIT_ASSIGNED_CONTEXT ( ( #295, #16, #185 ) ) REPRESENTATION_CONTEXT ( 'NONE', 'WORKASPACE' ) );
#193 = EDGE_LOOP ( 'NONE', ( #249, #269, #242, #134 ) ) ;
#194 = ORIENTED_EDGE ( 'NONE', *, *, #243, .T. ) ;
#195 = VERTEX_POINT ( 'NONE', #70 ) ;
#196 = SECURITY_CLASSIFICATION ( '', '', #306 ) ;
#197 = EDGE_LOOP ( 'NONE', ( #272, #171 ) ) ;
#198 = EDGE_CURVE ( 'NONE', #12, #195, #10, .T. ) ;
#199 = FACE_OUTER_BOUND ( 'NONE', #280, .T. ) ;
#200 = ORIENTED_EDGE ( 'NONE', *, *, #190, .T. ) ;
#201 = FACE_OUTER_BOUND ( 'NONE', #197, .T. ) ;
#202 = ORIENTED_EDGE ( 'NONE', *, *, #198, .T. ) ;
#203 = EDGE_CURVE ( 'NONE', #252, #181, #114, .T. ) ;
#204 = ORIENTED_EDGE ( 'NONE', *, *, #52, .T. ) ;
#205 = DIRECTION ( 'NONE',  ( -0.000000000000000000, -0.000000000000000000, -1.000000000000000000 ) ) ;
#206 = AXIS2_PLACEMENT_3D ( 'NONE', #250, #205, #110 ) ;
#207 = DIRECTION ( 'NONE',  ( 1.224646799147353207E-16, 1.000000000000000000, -0.000000000000000000 ) ) ;
#208 = PERSON_AND_ORGANIZATION_ROLE ( 'design_supplier' ) ;
#209 = CARTESIAN_POINT ( 'NONE',  ( 3.500000000000000000, 4.286263797015736595E-16, 805.0000000000000000 ) ) ;
#210 = DIRECTION ( 'NONE',  ( 1.000000000000000000, 0.000000000000000000, 0.000000000000000000 ) ) ;
#211 = DIRECTION ( 'NONE',  ( -0.000000000000000000, -0.000000000000000000, -1.000000000000000000 ) ) ;
#212 = LOCAL_TIME ( 11, 51, 41.00000000000000000, #161 ) ;
#213 = CARTESIAN_POINT ( 'NONE',  ( 0.000000000000000000, 0.000000000000000000, 805.0000000000000000 ) ) ;
#214 = ADVANCED_FACE ( 'NONE', ( #48 ), #72, .F. ) ;
#215 = SHAPE_DEFINITION_REPRESENTATION ( #119, #104 ) ;
#216 = ORIENTED_EDGE ( 'NONE', *, *, #29, .T. ) ;
#217 = EDGE_LOOP ( 'NONE', ( #33, #153, #109, #151 ) ) ;
#218 = AXIS2_PLACEMENT_3D ( 'NONE', #239, #117, #188 ) ;
#219 = CC_DESIGN_SECURITY_CLASSIFICATION ( #196, ( #135 ) ) ;
#220 = EDGE_CURVE ( 'NONE', #8, #246, #245, .T. ) ;
#221 = VERTEX_POINT ( 'NONE', #287 ) ;
#222 = DIRECTION ( 'NONE',  ( -0.000000000000000000, -0.000000000000000000, -1.000000000000000000 ) ) ;
#223 = CIRCLE ( 'NONE', #251, 3.500000000000000000 ) ;
#224 = LINE ( 'NONE', #209, #154 ) ;
#225 = ADVANCED_FACE ( 'NONE', ( #166, #164 ), #120, .T. ) ;
#226 = CALENDAR_DATE ( 2022, 20, 6 ) ;
#227 = LINE ( 'NONE', #301, #84 ) ;
#228 = APPROVAL_DATE_TIME ( #300, #297 ) ;
#229 = ORIENTED_EDGE ( 'NONE', *, *, #173, .F. ) ;
#230 = PERSON_AND_ORGANIZATION_ROLE ( 'creator' ) ;
#231 = VECTOR ( 'NONE', #167, 1000.000000000000000 ) ;
#232 = FACE_OUTER_BOUND ( 'NONE', #155, .T. ) ;
#233 = CARTESIAN_POINT ( 'NONE',  ( 0.000000000000000000, 0.000000000000000000, 5.000000000000000000 ) ) ;
#234 = ADVANCED_FACE ( 'NONE', ( #45 ), #241, .T. ) ;
#235 = CARTESIAN_POINT ( 'NONE',  ( 0.000000000000000000, 0.000000000000000000, 5.000000000000000000 ) ) ;
#236 = DIRECTION ( 'NONE',  ( -0.000000000000000000, -0.000000000000000000, -1.000000000000000000 ) ) ;
#237 = CALENDAR_DATE ( 2022, 20, 6 ) ;
#238 = CIRCLE ( 'NONE', #101, 0.2000000000000000944 ) ;
#239 = CARTESIAN_POINT ( 'NONE',  ( 0.000000000000000000, 0.000000000000000000, 0.000000000000000000 ) ) ;
#240 = APPROVAL_PERSON_ORGANIZATION ( #46, #152, #125 ) ;
#241 = CYLINDRICAL_SURFACE ( 'NONE', #83, 3.500000000000000000 ) ;
#242 = ORIENTED_EDGE ( 'NONE', *, *, #122, .T. ) ;
#243 = EDGE_CURVE ( 'NONE', #59, #278, #289, .T. ) ;
#244 = AXIS2_PLACEMENT_3D ( 'NONE', #298, #58, #108 ) ;
#245 = CIRCLE ( 'NONE', #218, 6.000000000000000888 ) ;
#246 = VERTEX_POINT ( 'NONE', #1 ) ;
#247 = DIRECTION ( 'NONE',  ( -0.000000000000000000, -0.000000000000000000, -1.000000000000000000 ) ) ;
#248 = CALENDAR_DATE ( 2022, 20, 6 ) ;
#249 = ORIENTED_EDGE ( 'NONE', *, *, #34, .F. ) ;
#250 = CARTESIAN_POINT ( 'NONE',  ( 0.000000000000000000, 0.000000000000000000, 5.000000000000000000 ) ) ;
#251 = AXIS2_PLACEMENT_3D ( 'NONE', #160, #270, #156 ) ;
#252 = VERTEX_POINT ( 'NONE', #124 ) ;
#253 = APPROVAL_ROLE ( '' ) ;
#254 = DIRECTION ( 'NONE',  ( 0.000000000000000000, 0.000000000000000000, 1.000000000000000000 ) ) ;
#255 = DIRECTION ( 'NONE',  ( -1.000000000000000000, 0.000000000000000000, 0.000000000000000000 ) ) ;
#256 = PRODUCT_DEFINITION ( 'NEZNÁMÝ', '', #135, #266 ) ;
#257 = APPROVAL_DATE_TIME ( #42, #75 ) ;
#258 = DIRECTION ( 'NONE',  ( 0.000000000000000000, 0.000000000000000000, 1.000000000000000000 ) ) ;
#259 = CARTESIAN_POINT ( 'NONE',  ( 0.000000000000000000, 0.000000000000000000, 5.000000000000000000 ) ) ;
#260 = CC_DESIGN_PERSON_AND_ORGANIZATION_ASSIGNMENT ( #183, #271, ( #143 ) ) ;
#261 = CARTESIAN_POINT ( 'NONE',  ( 0.000000000000000000, 0.000000000000000000, 805.0000000000000000 ) ) ;
#262 = APPROVAL_STATUS ( 'not_yet_approved' ) ;
#263 = AXIS2_PLACEMENT_3D ( 'NONE', #126, #121, #210 ) ;
#264 = DIRECTION ( 'NONE',  ( 1.000000000000000000, 0.000000000000000000, 0.000000000000000000 ) ) ;
#265 = CIRCLE ( 'NONE', #97, 3.500000000000000000 ) ;
#266 = DESIGN_CONTEXT ( 'detailed design', #291, 'design' ) ;
#267 = LOCAL_TIME ( 11, 51, 41.00000000000000000, #40 ) ;
#268 = EDGE_CURVE ( 'NONE', #252, #246, #91, .T. ) ;
#269 = ORIENTED_EDGE ( 'NONE', *, *, #29, .F. ) ;
#270 = DIRECTION ( 'NONE',  ( 0.000000000000000000, 0.000000000000000000, 1.000000000000000000 ) ) ;
#271 = PERSON_AND_ORGANIZATION_ROLE ( 'design_owner' ) ;
#272 = ORIENTED_EDGE ( 'NONE', *, *, #220, .F. ) ;
#273 = PERSON_AND_ORGANIZATION ( #99, #191 ) ;
#274 = CARTESIAN_POINT ( 'NONE',  ( 0.000000000000000000, 0.000000000000000000, 5.000000000000000000 ) ) ;
#275 = AXIS2_PLACEMENT_3D ( 'NONE', #274, #222, #255 ) ;
#276 = DATE_TIME_ROLE ( 'creation_date' ) ;
#277 = CC_DESIGN_APPROVAL ( #152, ( #196 ) ) ;
#278 = VERTEX_POINT ( 'NONE', #3 ) ;
#279 = DIRECTION ( 'NONE',  ( 1.000000000000000000, 0.000000000000000000, 0.000000000000000000 ) ) ;
#280 = EDGE_LOOP ( 'NONE', ( #172, #31, #55, #19 ) ) ;
#281 = ADVANCED_FACE ( 'NONE', ( #145 ), #96, .T. ) ;
#282 = DIRECTION ( 'NONE',  ( 0.000000000000000000, 0.000000000000000000, 1.000000000000000000 ) ) ;
#283 = DIRECTION ( 'NONE',  ( 1.000000000000000000, 0.000000000000000000, 0.000000000000000000 ) ) ;
#284 = DIRECTION ( 'NONE',  ( 0.000000000000000000, 0.000000000000000000, 1.000000000000000000 ) ) ;
#285 = EDGE_CURVE ( 'NONE', #181, #252, #93, .T. ) ;
#286 = DATE_AND_TIME ( #237, #64 ) ;
#287 = CARTESIAN_POINT ( 'NONE',  ( 3.500000000000000000, 4.286263797015736595E-16, 5.199999999999982414 ) ) ;
#288 = DIRECTION ( 'NONE',  ( 1.000000000000000000, 0.000000000000000000, 0.000000000000000000 ) ) ;
#289 = CIRCLE ( 'NONE', #263, 3.700000000000000178 ) ;
#290 = ADVANCED_FACE ( 'NONE', ( #201 ), #85, .F. ) ;
#291 = APPLICATION_CONTEXT ( 'configuration controlled 3d designs of mechanical parts and assemblies' ) ;
#292 = ORIENTED_EDGE ( 'NONE', *, *, #203, .T. ) ;
#293 = CIRCLE ( 'NONE', #174, 6.000000000000000888 ) ;
#294 = DIRECTION ( 'NONE',  ( -1.000000000000000000, 1.224646799147350742E-16, 0.000000000000000000 ) ) ;
#295 =( LENGTH_UNIT ( ) NAMED_UNIT ( * ) SI_UNIT ( .MILLI., .METRE. ) );
#296 = CARTESIAN_POINT ( 'NONE',  ( 3.700000000000000178, 0.000000000000000000, 4.999999999999991118 ) ) ;
#297 = APPROVAL ( #118, 'NEURÈENÝ' ) ;
#298 = CARTESIAN_POINT ( 'NONE',  ( 0.000000000000000000, 0.000000000000000000, 0.000000000000000000 ) ) ;
#299 = CARTESIAN_POINT ( 'NONE',  ( 0.000000000000000000, 0.000000000000000000, 805.0000000000000000 ) ) ;
#300 = DATE_AND_TIME ( #226, #212 ) ;
#301 = CARTESIAN_POINT ( 'NONE',  ( -3.500000000000000000, 0.000000000000000000, 805.0000000000000000 ) ) ;
#302 = AXIS2_PLACEMENT_3D ( 'NONE', #299, #82, #112 ) ;
#303 = CALENDAR_DATE ( 2022, 20, 6 ) ;
#304 = EDGE_CURVE ( 'NONE', #278, #59, #30, .T. ) ;
#305 = EDGE_LOOP ( 'NONE', ( #111, #132, #216, #184 ) ) ;
#306 = SECURITY_CLASSIFICATION_LEVEL ( 'unclassified' ) ;
#307 = DIRECTION ( 'NONE',  ( 0.000000000000000000, 0.000000000000000000, 1.000000000000000000 ) ) ;
ENDSEC;
END-ISO-10303-21;
