ISO-10303-21;
HEADER;
FILE_DESCRIPTION (( 'STEP AP203' ),
    '1' );
FILE_NAME ('d77b.STEP',
    '2022-06-20T10:13:28',
    ( '' ),
    ( '' ),
    'SwSTEP 2.0',
    'SolidWorks 2019',
    '' );
FILE_SCHEMA (( 'CONFIG_CONTROL_DESIGN' ));
ENDSEC;

DATA;
#1 = EDGE_LOOP ( 'NONE', ( #35, #82, #181, #149 ) ) ;
#2 = DIRECTION ( 'NONE',  ( 0.000000000000000000, 0.000000000000000000, 1.000000000000000000 ) ) ;
#3 = DIRECTION ( 'NONE',  ( 0.000000000000000000, -1.000000000000000000, 0.000000000000000000 ) ) ;
#4 = ORIENTED_EDGE ( 'NONE', *, *, #251, .T. ) ;
#5 = AXIS2_PLACEMENT_3D ( 'NONE', #90, #64, #14 ) ;
#6 = CARTESIAN_POINT ( 'NONE',  ( 0.000000000000000000, 0.000000000000000000, 253.0000000000000000 ) ) ;
#7 = DATE_AND_TIME ( #179, #45 ) ;
#8 = ADVANCED_FACE ( 'NONE', ( #160 ), #16, .T. ) ;
#9 = ORIENTED_EDGE ( 'NONE', *, *, #229, .T. ) ;
#10 = DIRECTION ( 'NONE',  ( 1.000000000000000000, 0.000000000000000000, 0.000000000000000000 ) ) ;
#11 = LOCAL_TIME ( 12, 13, 28.00000000000000000, #227 ) ;
#12 = CARTESIAN_POINT ( 'NONE',  ( 0.000000000000000000, 0.000000000000000000, 3.000000000000000000 ) ) ;
#13 = CALENDAR_DATE ( 2022, 20, 6 ) ;
#14 = DIRECTION ( 'NONE',  ( -1.000000000000000000, 1.224646799147354686E-16, 0.000000000000000000 ) ) ;
#15 = EDGE_CURVE ( 'NONE', #195, #264, #252, .T. ) ;
#16 = CYLINDRICAL_SURFACE ( 'NONE', #67, 1.600000000000000089 ) ;
#17 = CIRCLE ( 'NONE', #61, 1.600000000000000089 ) ;
#18 = DIRECTION ( 'NONE',  ( 0.000000000000000000, 0.000000000000000000, 1.000000000000000000 ) ) ;
#19 = DIRECTION ( 'NONE',  ( 0.000000000000000000, 0.000000000000000000, 1.000000000000000000 ) ) ;
#20 = PRODUCT_RELATED_PRODUCT_CATEGORY ( 'detail', '', ( #269 ) ) ;
#21 = DIRECTION ( 'NONE',  ( -0.000000000000000000, -0.000000000000000000, -1.000000000000000000 ) ) ;
#22 = AXIS2_PLACEMENT_3D ( 'NONE', #180, #109, #243 ) ;
#23 = CARTESIAN_POINT ( 'NONE',  ( -1.600000000000000089, 0.000000000000000000, 3.200000000000008171 ) ) ;
#24 = DIRECTION ( 'NONE',  ( 0.000000000000000000, 0.000000000000000000, 1.000000000000000000 ) ) ;
#25 = EDGE_CURVE ( 'NONE', #103, #93, #245, .T. ) ;
#26 = APPROVAL_DATE_TIME ( #191, #211 ) ;
#27 = AXIS2_PLACEMENT_3D ( 'NONE', #274, #19, #144 ) ;
#28 = ORIENTED_EDGE ( 'NONE', *, *, #15, .F. ) ;
#29 = CIRCLE ( 'NONE', #5, 0.1999999999999998723 ) ;
#30 = ADVANCED_FACE ( 'NONE', ( #121 ), #51, .F. ) ;
#31 = CARTESIAN_POINT ( 'NONE',  ( 0.000000000000000000, 0.000000000000000000, 3.000000000000000000 ) ) ;
#32 = ORIENTED_EDGE ( 'NONE', *, *, #234, .T. ) ;
#33 = AXIS2_PLACEMENT_3D ( 'NONE', #111, #95, #285 ) ;
#34 = UNCERTAINTY_MEASURE_WITH_UNIT (LENGTH_MEASURE( 1.000000000000000082E-05 ), #132, 'distance_accuracy_value', 'NONE');
#35 = ORIENTED_EDGE ( 'NONE', *, *, #139, .F. ) ;
#36 = PERSON_AND_ORGANIZATION ( #108, #204 ) ;
#37 = ORIENTED_EDGE ( 'NONE', *, *, #251, .F. ) ;
#38 = CIRCLE ( 'NONE', #174, 1.600000000000000089 ) ;
#39 = EDGE_LOOP ( 'NONE', ( #250, #84, #176, #228 ) ) ;
#40 = ADVANCED_FACE ( 'NONE', ( #246 ), #166, .T. ) ;
#41 = ORIENTED_EDGE ( 'NONE', *, *, #242, .F. ) ;
#42 = MANIFOLD_SOLID_BREP ( 'Zaoblit1', #283 ) ;
#43 = ADVANCED_BREP_SHAPE_REPRESENTATION ( 'd77b', ( #42, #140 ), #168 ) ;
#44 = CARTESIAN_POINT ( 'NONE',  ( 0.000000000000000000, 0.000000000000000000, 3.000000000000000000 ) ) ;
#45 = LOCAL_TIME ( 12, 13, 28.00000000000000000, #59 ) ;
#46 = EDGE_CURVE ( 'NONE', #195, #65, #125, .T. ) ;
#47 = CARTESIAN_POINT ( 'NONE',  ( 0.000000000000000000, 0.000000000000000000, 3.200000000000008171 ) ) ;
#48 = COORDINATED_UNIVERSAL_TIME_OFFSET ( 1, 0, .AHEAD. ) ;
#49 = LINE ( 'NONE', #226, #291 ) ;
#50 = PERSON_AND_ORGANIZATION ( #108, #204 ) ;
#51 = TOROIDAL_SURFACE ( 'NONE', #129, 1.800000000000000266, 0.2000000000000000111 ) ;
#52 = PLANE ( 'NONE',  #232 ) ;
#53 = AXIS2_PLACEMENT_3D ( 'NONE', #128, #85, #150 ) ;
#54 = DIRECTION ( 'NONE',  ( -1.000000000000000000, 0.000000000000000000, 0.000000000000000000 ) ) ;
#55 = APPROVAL_ROLE ( '' ) ;
#56 = ORIENTED_EDGE ( 'NONE', *, *, #192, .F. ) ;
#57 = CC_DESIGN_SECURITY_CLASSIFICATION ( #151, ( #208 ) ) ;
#58 = ORIENTED_EDGE ( 'NONE', *, *, #242, .T. ) ;
#59 = COORDINATED_UNIVERSAL_TIME_OFFSET ( 1, 0, .AHEAD. ) ;
#60 = AXIS2_PLACEMENT_3D ( 'NONE', #99, #142, #230 ) ;
#61 = AXIS2_PLACEMENT_3D ( 'NONE', #6, #24, #114 ) ;
#62 = ORIENTED_EDGE ( 'NONE', *, *, #68, .T. ) ;
#63 = APPROVAL_DATE_TIME ( #7, #259 ) ;
#64 = DIRECTION ( 'NONE',  ( 1.224646799147353207E-16, 1.000000000000000000, -0.000000000000000000 ) ) ;
#65 = VERTEX_POINT ( 'NONE', #209 ) ;
#66 = FACE_OUTER_BOUND ( 'NONE', #39, .T. ) ;
#67 = AXIS2_PLACEMENT_3D ( 'NONE', #254, #248, #54 ) ;
#68 = EDGE_CURVE ( 'NONE', #65, #202, #49, .T. ) ;
#69 = APPLICATION_PROTOCOL_DEFINITION ( 'international standard', 'config_control_design', 1994, #255 ) ;
#70 = ORIENTED_EDGE ( 'NONE', *, *, #25, .F. ) ;
#71 = FACE_OUTER_BOUND ( 'NONE', #138, .T. ) ;
#72 = VECTOR ( 'NONE', #101, 1000.000000000000000 ) ;
#73 = CARTESIAN_POINT ( 'NONE',  ( -3.000000000000000444, 0.000000000000000000, 3.000000000000000000 ) ) ;
#74 = CALENDAR_DATE ( 2022, 20, 6 ) ;
#75 = DIRECTION ( 'NONE',  ( 1.000000000000000000, 0.000000000000000000, 0.000000000000000000 ) ) ;
#76 = CARTESIAN_POINT ( 'NONE',  ( 1.600000000000000089, 1.959434878635765230E-16, 253.0000000000000000 ) ) ;
#77 = APPROVAL_STATUS ( 'not_yet_approved' ) ;
#78 = PRODUCT_DEFINITION ( 'NEZNÁMÝ', '', #208, #293 ) ;
#79 = DIRECTION ( 'NONE',  ( -0.000000000000000000, -0.000000000000000000, -1.000000000000000000 ) ) ;
#80 = COORDINATED_UNIVERSAL_TIME_OFFSET ( 1, 0, .AHEAD. ) ;
#81 = CC_DESIGN_APPROVAL ( #259, ( #78 ) ) ;
#82 = ORIENTED_EDGE ( 'NONE', *, *, #86, .F. ) ;
#83 = DIRECTION ( 'NONE',  ( 1.000000000000000000, 0.000000000000000000, 0.000000000000000000 ) ) ;
#84 = ORIENTED_EDGE ( 'NONE', *, *, #139, .T. ) ;
#85 = DIRECTION ( 'NONE',  ( 0.000000000000000000, 0.000000000000000000, 1.000000000000000000 ) ) ;
#86 = EDGE_CURVE ( 'NONE', #184, #156, #167, .T. ) ;
#87 = EDGE_LOOP ( 'NONE', ( #177, #62, #233, #28 ) ) ;
#88 = APPROVAL_ROLE ( '' ) ;
#89 = CIRCLE ( 'NONE', #53, 3.000000000000000444 ) ;
#90 = CARTESIAN_POINT ( 'NONE',  ( -1.800000000000000266, 2.204364238465236069E-16, 3.200000000000008171 ) ) ;
#91 = ORIENTED_EDGE ( 'NONE', *, *, #46, .F. ) ;
#92 = CARTESIAN_POINT ( 'NONE',  ( 0.000000000000000000, 0.000000000000000000, 3.200000000000008171 ) ) ;
#93 = VERTEX_POINT ( 'NONE', #23 ) ;
#94 = SHAPE_DEFINITION_REPRESENTATION ( #197, #43 ) ;
#95 = DIRECTION ( 'NONE',  ( 0.000000000000000000, 0.000000000000000000, 1.000000000000000000 ) ) ;
#96 = ORIENTED_EDGE ( 'NONE', *, *, #229, .F. ) ;
#97 = CARTESIAN_POINT ( 'NONE',  ( -1.800000000000000266, 2.204364238465236069E-16, 3.000000000000004441 ) ) ;
#98 = DIRECTION ( 'NONE',  ( 1.000000000000000000, 0.000000000000000000, 0.000000000000000000 ) ) ;
#99 = CARTESIAN_POINT ( 'NONE',  ( 0.000000000000000000, 0.000000000000000000, 3.000000000000000000 ) ) ;
#100 = ADVANCED_FACE ( 'NONE', ( #71 ), #169, .T. ) ;
#101 = DIRECTION ( 'NONE',  ( -0.000000000000000000, -0.000000000000000000, -1.000000000000000000 ) ) ;
#102 = APPROVAL_STATUS ( 'not_yet_approved' ) ;
#103 = VERTEX_POINT ( 'NONE', #117 ) ;
#104 = DATE_AND_TIME ( #74, #268 ) ;
#105 = CIRCLE ( 'NONE', #307, 1.800000000000000266 ) ;
#106 = EDGE_LOOP ( 'NONE', ( #41, #70, #266, #96 ) ) ;
#107 =( NAMED_UNIT ( * ) SI_UNIT ( $, .STERADIAN. ) SOLID_ANGLE_UNIT ( ) );
#108 = PERSON ( 'NEURÈENÝ', 'NEURÈENÝ', 'NEURÈENÝ', ('NEURÈENÝ'), ('NEURÈENÝ'), ('NEURÈENÝ') ) ;
#109 = DIRECTION ( 'NONE',  ( -0.000000000000000000, -0.000000000000000000, -1.000000000000000000 ) ) ;
#110 = LOCAL_TIME ( 12, 13, 28.00000000000000000, #124 ) ;
#111 = CARTESIAN_POINT ( 'NONE',  ( 0.000000000000000000, 0.000000000000000000, 0.000000000000000000 ) ) ;
#112 = CARTESIAN_POINT ( 'NONE',  ( -3.000000000000000444, 0.000000000000000000, 0.000000000000000000 ) ) ;
#113 = PERSON_AND_ORGANIZATION_ROLE ( 'design_supplier' ) ;
#114 = DIRECTION ( 'NONE',  ( 1.000000000000000000, 0.000000000000000000, 0.000000000000000000 ) ) ;
#115 = PLANE ( 'NONE',  #159 ) ;
#116 = CC_DESIGN_DATE_AND_TIME_ASSIGNMENT ( #104, #165, ( #78 ) ) ;
#117 = CARTESIAN_POINT ( 'NONE',  ( 1.600000000000000089, 1.959434878635765230E-16, 3.200000000000008171 ) ) ;
#118 = DIRECTION ( 'NONE',  ( -1.000000000000000000, 0.000000000000000000, 0.000000000000000000 ) ) ;
#119 = PERSON_AND_ORGANIZATION_ROLE ( 'classification_officer' ) ;
#120 = VECTOR ( 'NONE', #290, 1000.000000000000000 ) ;
#121 = FACE_OUTER_BOUND ( 'NONE', #106, .T. ) ;
#122 = PERSON_AND_ORGANIZATION_ROLE ( 'creator' ) ;
#123 = CARTESIAN_POINT ( 'NONE',  ( 0.000000000000000000, 0.000000000000000000, 3.000000000000000000 ) ) ;
#124 = COORDINATED_UNIVERSAL_TIME_OFFSET ( 1, 0, .AHEAD. ) ;
#125 = CIRCLE ( 'NONE', #161, 3.000000000000000444 ) ;
#126 = EDGE_LOOP ( 'NONE', ( #299, #58, #37, #288 ) ) ;
#127 = CIRCLE ( 'NONE', #278, 0.2000000000000000944 ) ;
#128 = CARTESIAN_POINT ( 'NONE',  ( 0.000000000000000000, 0.000000000000000000, 0.000000000000000000 ) ) ;
#129 = AXIS2_PLACEMENT_3D ( 'NONE', #207, #162, #98 ) ;
#130 = DIRECTION ( 'NONE',  ( -0.000000000000000000, -0.000000000000000000, -1.000000000000000000 ) ) ;
#131 = CC_DESIGN_APPROVAL ( #211, ( #208 ) ) ;
#132 =( LENGTH_UNIT ( ) NAMED_UNIT ( * ) SI_UNIT ( .MILLI., .METRE. ) );
#133 = ADVANCED_FACE ( 'NONE', ( #190, #223 ), #115, .T. ) ;
#134 = VECTOR ( 'NONE', #21, 1000.000000000000000 ) ;
#135 = CARTESIAN_POINT ( 'NONE',  ( 0.000000000000000000, 0.000000000000000000, 0.000000000000000000 ) ) ;
#136 = CYLINDRICAL_SURFACE ( 'NONE', #22, 1.600000000000000089 ) ;
#137 = EDGE_LOOP ( 'NONE', ( #4, #9 ) ) ;
#138 = EDGE_LOOP ( 'NONE', ( #183, #91, #157, #222 ) ) ;
#139 = EDGE_CURVE ( 'NONE', #156, #103, #189, .T. ) ;
#140 = AXIS2_PLACEMENT_3D ( 'NONE', #135, #219, #289 ) ;
#141 = DIRECTION ( 'NONE',  ( 1.000000000000000000, 0.000000000000000000, -0.000000000000000000 ) ) ;
#142 = DIRECTION ( 'NONE',  ( -0.000000000000000000, -0.000000000000000000, -1.000000000000000000 ) ) ;
#143 = PERSON_AND_ORGANIZATION ( #108, #204 ) ;
#144 = DIRECTION ( 'NONE',  ( 1.000000000000000000, 0.000000000000000000, 0.000000000000000000 ) ) ;
#145 = APPLICATION_CONTEXT ( 'configuration controlled 3d designs of mechanical parts and assemblies' ) ;
#146 = DIRECTION ( 'NONE',  ( 1.000000000000000000, 0.000000000000000000, -0.000000000000000000 ) ) ;
#147 = CARTESIAN_POINT ( 'NONE',  ( 3.000000000000000444, 3.673940397442060361E-16, 0.000000000000000000 ) ) ;
#148 = CC_DESIGN_PERSON_AND_ORGANIZATION_ASSIGNMENT ( #277, #113, ( #208 ) ) ;
#149 = ORIENTED_EDGE ( 'NONE', *, *, #175, .T. ) ;
#150 = DIRECTION ( 'NONE',  ( 1.000000000000000000, 0.000000000000000000, 0.000000000000000000 ) ) ;
#151 = SECURITY_CLASSIFICATION ( '', '', #306 ) ;
#152 = ADVANCED_FACE ( 'NONE', ( #225 ), #52, .T. ) ;
#153 = LINE ( 'NONE', #200, #120 ) ;
#154 = VERTEX_POINT ( 'NONE', #97 ) ;
#155 = ORIENTED_EDGE ( 'NONE', *, *, #46, .T. ) ;
#156 = VERTEX_POINT ( 'NONE', #303 ) ;
#157 = ORIENTED_EDGE ( 'NONE', *, *, #15, .T. ) ;
#158 = CC_DESIGN_PERSON_AND_ORGANIZATION_ASSIGNMENT ( #249, #122, ( #208 ) ) ;
#159 = AXIS2_PLACEMENT_3D ( 'NONE', #123, #206, #141 ) ;
#160 = FACE_OUTER_BOUND ( 'NONE', #1, .T. ) ;
#161 = AXIS2_PLACEMENT_3D ( 'NONE', #188, #270, #210 ) ;
#162 = DIRECTION ( 'NONE',  ( 0.000000000000000000, 0.000000000000000000, 1.000000000000000000 ) ) ;
#163 = APPROVAL_ROLE ( '' ) ;
#164 = EDGE_LOOP ( 'NONE', ( #221, #32 ) ) ;
#165 = DATE_TIME_ROLE ( 'creation_date' ) ;
#166 = CYLINDRICAL_SURFACE ( 'NONE', #60, 3.000000000000000444 ) ;
#167 = CIRCLE ( 'NONE', #27, 1.600000000000000089 ) ;
#168 =( GEOMETRIC_REPRESENTATION_CONTEXT ( 3 ) GLOBAL_UNCERTAINTY_ASSIGNED_CONTEXT ( ( #34 ) ) GLOBAL_UNIT_ASSIGNED_CONTEXT ( ( #132, #262, #107 ) ) REPRESENTATION_CONTEXT ( 'NONE', 'WORKASPACE' ) );
#169 = CYLINDRICAL_SURFACE ( 'NONE', #198, 3.000000000000000444 ) ;
#170 = CC_DESIGN_PERSON_AND_ORGANIZATION_ASSIGNMENT ( #300, #231, ( #269 ) ) ;
#171 = PERSON_AND_ORGANIZATION ( #108, #204 ) ;
#172 = CARTESIAN_POINT ( 'NONE',  ( 1.800000000000000266, 0.000000000000000000, 3.000000000000004441 ) ) ;
#173 = AXIS2_PLACEMENT_3D ( 'NONE', #47, #18, #75 ) ;
#174 = AXIS2_PLACEMENT_3D ( 'NONE', #276, #205, #296 ) ;
#175 = EDGE_CURVE ( 'NONE', #93, #103, #38, .T. ) ;
#176 = ORIENTED_EDGE ( 'NONE', *, *, #25, .T. ) ;
#177 = ORIENTED_EDGE ( 'NONE', *, *, #185, .F. ) ;
#178 = APPROVAL_PERSON_ORGANIZATION ( #305, #259, #88 ) ;
#179 = CALENDAR_DATE ( 2022, 20, 6 ) ;
#180 = CARTESIAN_POINT ( 'NONE',  ( 0.000000000000000000, 0.000000000000000000, 253.0000000000000000 ) ) ;
#181 = ORIENTED_EDGE ( 'NONE', *, *, #284, .T. ) ;
#182 = FACE_OUTER_BOUND ( 'NONE', #126, .T. ) ;
#183 = ORIENTED_EDGE ( 'NONE', *, *, #68, .F. ) ;
#184 = VERTEX_POINT ( 'NONE', #186 ) ;
#185 = EDGE_CURVE ( 'NONE', #65, #195, #257, .T. ) ;
#186 = CARTESIAN_POINT ( 'NONE',  ( -1.600000000000000089, 0.000000000000000000, 253.0000000000000000 ) ) ;
#187 = CC_DESIGN_APPROVAL ( #271, ( #151 ) ) ;
#188 = CARTESIAN_POINT ( 'NONE',  ( 0.000000000000000000, 0.000000000000000000, 3.000000000000000000 ) ) ;
#189 = LINE ( 'NONE', #76, #72 ) ;
#190 = FACE_BOUND ( 'NONE', #137, .T. ) ;
#191 = DATE_AND_TIME ( #256, #110 ) ;
#192 = EDGE_CURVE ( 'NONE', #264, #202, #89, .T. ) ;
#193 = TOROIDAL_SURFACE ( 'NONE', #199, 1.800000000000000266, 0.2000000000000000111 ) ;
#194 = CARTESIAN_POINT ( 'NONE',  ( -3.000000000000000444, 0.000000000000000000, 3.000000000000000000 ) ) ;
#195 = VERTEX_POINT ( 'NONE', #194 ) ;
#196 = CARTESIAN_POINT ( 'NONE',  ( 0.000000000000000000, 0.000000000000000000, 0.000000000000000000 ) ) ;
#197 = PRODUCT_DEFINITION_SHAPE ( 'NONE', 'NONE',  #78 ) ;
#198 = AXIS2_PLACEMENT_3D ( 'NONE', #44, #301, #118 ) ;
#199 = AXIS2_PLACEMENT_3D ( 'NONE', #92, #294, #241 ) ;
#200 = CARTESIAN_POINT ( 'NONE',  ( -1.600000000000000089, 0.000000000000000000, 253.0000000000000000 ) ) ;
#201 = EDGE_CURVE ( 'NONE', #103, #216, #127, .T. ) ;
#202 = VERTEX_POINT ( 'NONE', #147 ) ;
#203 = DATE_AND_TIME ( #13, #11 ) ;
#204 = ORGANIZATION ( 'NEURÈENÝ', 'NEURÈENÝ', '' ) ;
#205 = DIRECTION ( 'NONE',  ( 0.000000000000000000, 0.000000000000000000, 1.000000000000000000 ) ) ;
#206 = DIRECTION ( 'NONE',  ( 0.000000000000000000, 0.000000000000000000, 1.000000000000000000 ) ) ;
#207 = CARTESIAN_POINT ( 'NONE',  ( 0.000000000000000000, 0.000000000000000000, 3.200000000000008171 ) ) ;
#208 = PRODUCT_DEFINITION_FORMATION_WITH_SPECIFIED_SOURCE ( 'LIBOVOLNÝ', '', #269, .NOT_KNOWN. ) ;
#209 = CARTESIAN_POINT ( 'NONE',  ( 3.000000000000000444, 3.673940397442060361E-16, 3.000000000000000000 ) ) ;
#210 = DIRECTION ( 'NONE',  ( 1.000000000000000000, 0.000000000000000000, 0.000000000000000000 ) ) ;
#211 = APPROVAL ( #102, 'NEURÈENÝ' ) ;
#212 = APPLICATION_PROTOCOL_DEFINITION ( 'international standard', 'config_control_design', 1994, #145 ) ;
#213 = CC_DESIGN_PERSON_AND_ORGANIZATION_ASSIGNMENT ( #143, #119, ( #151 ) ) ;
#214 = AXIS2_PLACEMENT_3D ( 'NONE', #272, #2, #236 ) ;
#215 = DIRECTION ( 'NONE',  ( 1.000000000000000000, 0.000000000000000000, 0.000000000000000000 ) ) ;
#216 = VERTEX_POINT ( 'NONE', #172 ) ;
#217 = EDGE_CURVE ( 'NONE', #202, #264, #247, .T. ) ;
#218 = MECHANICAL_CONTEXT ( 'NONE', #255, 'mechanical' ) ;
#219 = DIRECTION ( 'NONE',  ( 0.000000000000000000, 0.000000000000000000, 1.000000000000000000 ) ) ;
#220 = DIRECTION ( 'NONE',  ( -0.000000000000000000, -0.000000000000000000, -1.000000000000000000 ) ) ;
#221 = ORIENTED_EDGE ( 'NONE', *, *, #86, .T. ) ;
#222 = ORIENTED_EDGE ( 'NONE', *, *, #192, .T. ) ;
#223 = FACE_OUTER_BOUND ( 'NONE', #240, .T. ) ;
#224 = APPROVAL_PERSON_ORGANIZATION ( #171, #271, #55 ) ;
#225 = FACE_OUTER_BOUND ( 'NONE', #164, .T. ) ;
#226 = CARTESIAN_POINT ( 'NONE',  ( 3.000000000000000444, 3.673940397442060361E-16, 3.000000000000000000 ) ) ;
#227 = COORDINATED_UNIVERSAL_TIME_OFFSET ( 1, 0, .AHEAD. ) ;
#228 = ORIENTED_EDGE ( 'NONE', *, *, #284, .F. ) ;
#229 = EDGE_CURVE ( 'NONE', #154, #216, #263, .T. ) ;
#230 = DIRECTION ( 'NONE',  ( -1.000000000000000000, 0.000000000000000000, 0.000000000000000000 ) ) ;
#231 = PERSON_AND_ORGANIZATION_ROLE ( 'design_owner' ) ;
#232 = AXIS2_PLACEMENT_3D ( 'NONE', #297, #275, #146 ) ;
#233 = ORIENTED_EDGE ( 'NONE', *, *, #217, .T. ) ;
#234 = EDGE_CURVE ( 'NONE', #156, #184, #17, .T. ) ;
#235 = APPROVAL_PERSON_ORGANIZATION ( #50, #211, #163 ) ;
#236 = DIRECTION ( 'NONE',  ( 1.000000000000000000, 0.000000000000000000, 0.000000000000000000 ) ) ;
#237 = DIRECTION ( 'NONE',  ( 0.000000000000000000, 0.000000000000000000, 1.000000000000000000 ) ) ;
#238 = FACE_OUTER_BOUND ( 'NONE', #261, .T. ) ;
#239 = ADVANCED_FACE ( 'NONE', ( #66 ), #136, .T. ) ;
#240 = EDGE_LOOP ( 'NONE', ( #155, #279 ) ) ;
#241 = DIRECTION ( 'NONE',  ( 1.000000000000000000, 0.000000000000000000, 0.000000000000000000 ) ) ;
#242 = EDGE_CURVE ( 'NONE', #93, #154, #29, .T. ) ;
#243 = DIRECTION ( 'NONE',  ( -1.000000000000000000, 0.000000000000000000, 0.000000000000000000 ) ) ;
#244 = ORIENTED_EDGE ( 'NONE', *, *, #217, .F. ) ;
#245 = CIRCLE ( 'NONE', #173, 1.600000000000000089 ) ;
#246 = FACE_OUTER_BOUND ( 'NONE', #87, .T. ) ;
#247 = CIRCLE ( 'NONE', #295, 3.000000000000000444 ) ;
#248 = DIRECTION ( 'NONE',  ( -0.000000000000000000, -0.000000000000000000, -1.000000000000000000 ) ) ;
#249 = PERSON_AND_ORGANIZATION ( #108, #204 ) ;
#250 = ORIENTED_EDGE ( 'NONE', *, *, #234, .F. ) ;
#251 = EDGE_CURVE ( 'NONE', #216, #154, #105, .T. ) ;
#252 = LINE ( 'NONE', #73, #134 ) ;
#253 = DATE_TIME_ROLE ( 'classification_date' ) ;
#254 = CARTESIAN_POINT ( 'NONE',  ( 0.000000000000000000, 0.000000000000000000, 253.0000000000000000 ) ) ;
#255 = APPLICATION_CONTEXT ( 'configuration controlled 3d designs of mechanical parts and assemblies' ) ;
#256 = CALENDAR_DATE ( 2022, 20, 6 ) ;
#257 = CIRCLE ( 'NONE', #214, 3.000000000000000444 ) ;
#258 = DIRECTION ( 'NONE',  ( 0.000000000000000000, 0.000000000000000000, -1.000000000000000000 ) ) ;
#259 = APPROVAL ( #260, 'NEURÈENÝ' ) ;
#260 = APPROVAL_STATUS ( 'not_yet_approved' ) ;
#261 = EDGE_LOOP ( 'NONE', ( #56, #244 ) ) ;
#262 =( NAMED_UNIT ( * ) PLANE_ANGLE_UNIT ( ) SI_UNIT ( $, .RADIAN. ) );
#263 = CIRCLE ( 'NONE', #287, 1.800000000000000266 ) ;
#264 = VERTEX_POINT ( 'NONE', #112 ) ;
#265 = CC_DESIGN_PERSON_AND_ORGANIZATION_ASSIGNMENT ( #36, #304, ( #78 ) ) ;
#266 = ORIENTED_EDGE ( 'NONE', *, *, #201, .T. ) ;
#267 = PLANE ( 'NONE',  #33 ) ;
#268 = LOCAL_TIME ( 12, 13, 28.00000000000000000, #48 ) ;
#269 = PRODUCT ( 'd77b', 'd77b', '', ( #218 ) ) ;
#270 = DIRECTION ( 'NONE',  ( 0.000000000000000000, 0.000000000000000000, 1.000000000000000000 ) ) ;
#271 = APPROVAL ( #77, 'NEURÈENÝ' ) ;
#272 = CARTESIAN_POINT ( 'NONE',  ( 0.000000000000000000, 0.000000000000000000, 3.000000000000000000 ) ) ;
#273 = LOCAL_TIME ( 12, 13, 28.00000000000000000, #80 ) ;
#274 = CARTESIAN_POINT ( 'NONE',  ( 0.000000000000000000, 0.000000000000000000, 253.0000000000000000 ) ) ;
#275 = DIRECTION ( 'NONE',  ( 0.000000000000000000, 0.000000000000000000, 1.000000000000000000 ) ) ;
#276 = CARTESIAN_POINT ( 'NONE',  ( 0.000000000000000000, 0.000000000000000000, 3.200000000000008171 ) ) ;
#277 = PERSON_AND_ORGANIZATION ( #108, #204 ) ;
#278 = AXIS2_PLACEMENT_3D ( 'NONE', #282, #3, #258 ) ;
#279 = ORIENTED_EDGE ( 'NONE', *, *, #185, .T. ) ;
#280 = DATE_AND_TIME ( #302, #273 ) ;
#281 = CC_DESIGN_DATE_AND_TIME_ASSIGNMENT ( #280, #253, ( #151 ) ) ;
#282 = CARTESIAN_POINT ( 'NONE',  ( 1.800000000000000266, 0.000000000000000000, 3.200000000000008171 ) ) ;
#283 = CLOSED_SHELL ( 'NONE', ( #286, #239, #40, #100, #133, #298, #8, #152, #30 ) ) ;
#284 = EDGE_CURVE ( 'NONE', #184, #93, #153, .T. ) ;
#285 = DIRECTION ( 'NONE',  ( 1.000000000000000000, 0.000000000000000000, -0.000000000000000000 ) ) ;
#286 = ADVANCED_FACE ( 'NONE', ( #182 ), #193, .F. ) ;
#287 = AXIS2_PLACEMENT_3D ( 'NONE', #31, #130, #215 ) ;
#288 = ORIENTED_EDGE ( 'NONE', *, *, #201, .F. ) ;
#289 = DIRECTION ( 'NONE',  ( 1.000000000000000000, 0.000000000000000000, 0.000000000000000000 ) ) ;
#290 = DIRECTION ( 'NONE',  ( -0.000000000000000000, -0.000000000000000000, -1.000000000000000000 ) ) ;
#291 = VECTOR ( 'NONE', #79, 1000.000000000000000 ) ;
#292 = APPROVAL_DATE_TIME ( #203, #271 ) ;
#293 = DESIGN_CONTEXT ( 'detailed design', #145, 'design' ) ;
#294 = DIRECTION ( 'NONE',  ( 0.000000000000000000, 0.000000000000000000, 1.000000000000000000 ) ) ;
#295 = AXIS2_PLACEMENT_3D ( 'NONE', #196, #237, #83 ) ;
#296 = DIRECTION ( 'NONE',  ( 1.000000000000000000, 0.000000000000000000, 0.000000000000000000 ) ) ;
#297 = CARTESIAN_POINT ( 'NONE',  ( 0.000000000000000000, 0.000000000000000000, 253.0000000000000000 ) ) ;
#298 = ADVANCED_FACE ( 'NONE', ( #238 ), #267, .F. ) ;
#299 = ORIENTED_EDGE ( 'NONE', *, *, #175, .F. ) ;
#300 = PERSON_AND_ORGANIZATION ( #108, #204 ) ;
#301 = DIRECTION ( 'NONE',  ( -0.000000000000000000, -0.000000000000000000, -1.000000000000000000 ) ) ;
#302 = CALENDAR_DATE ( 2022, 20, 6 ) ;
#303 = CARTESIAN_POINT ( 'NONE',  ( 1.600000000000000089, 1.959434878635765230E-16, 253.0000000000000000 ) ) ;
#304 = PERSON_AND_ORGANIZATION_ROLE ( 'creator' ) ;
#305 = PERSON_AND_ORGANIZATION ( #108, #204 ) ;
#306 = SECURITY_CLASSIFICATION_LEVEL ( 'unclassified' ) ;
#307 = AXIS2_PLACEMENT_3D ( 'NONE', #12, #220, #10 ) ;
ENDSEC;
END-ISO-10303-21;
