ISO-10303-21;
HEADER;
FILE_DESCRIPTION (( 'STEP AP203' ),
    '1' );
FILE_NAME ('56dc.STEP',
    '2022-06-20T10:06:46',
    ( '' ),
    ( '' ),
    'SwSTEP 2.0',
    'SolidWorks 2019',
    '' );
FILE_SCHEMA (( 'CONFIG_CONTROL_DESIGN' ));
ENDSEC;

DATA;
#1 = PLANE ( 'NONE',  #92 ) ;
#2 = FACE_OUTER_BOUND ( 'NONE', #225, .T. ) ;
#3 = EDGE_CURVE ( 'NONE', #70, #107, #264, .T. ) ;
#4 = CC_DESIGN_APPROVAL ( #244, ( #24 ) ) ;
#5 = COORDINATED_UNIVERSAL_TIME_OFFSET ( 1, 0, .AHEAD. ) ;
#6 = DIRECTION ( 'NONE',  ( 0.000000000000000000, 0.000000000000000000, 1.000000000000000000 ) ) ;
#7 = CARTESIAN_POINT ( 'NONE',  ( 2.100000000000000089, 2.571758278209441957E-16, 3.199999999999980638 ) ) ;
#8 = APPLICATION_CONTEXT ( 'configuration controlled 3d designs of mechanical parts and assemblies' ) ;
#9 = DIRECTION ( 'NONE',  ( 0.000000000000000000, 0.000000000000000000, 1.000000000000000000 ) ) ;
#10 = FACE_OUTER_BOUND ( 'NONE', #184, .T. ) ;
#11 = PERSON_AND_ORGANIZATION ( #306, #300 ) ;
#12 = DIRECTION ( 'NONE',  ( 1.000000000000000000, 0.000000000000000000, 0.000000000000000000 ) ) ;
#13 = DIRECTION ( 'NONE',  ( 1.000000000000000000, 0.000000000000000000, 0.000000000000000000 ) ) ;
#14 = AXIS2_PLACEMENT_3D ( 'NONE', #52, #51, #239 ) ;
#15 = DIRECTION ( 'NONE',  ( -0.000000000000000000, -0.000000000000000000, -1.000000000000000000 ) ) ;
#16 =( NAMED_UNIT ( * ) SI_UNIT ( $, .STERADIAN. ) SOLID_ANGLE_UNIT ( ) );
#17 = DIRECTION ( 'NONE',  ( 1.000000000000000000, 0.000000000000000000, 0.000000000000000000 ) ) ;
#18 = CC_DESIGN_APPROVAL ( #74, ( #205 ) ) ;
#19 = ORIENTED_EDGE ( 'NONE', *, *, #45, .T. ) ;
#20 = CIRCLE ( 'NONE', #182, 4.000000000000000000 ) ;
#21 = CC_DESIGN_PERSON_AND_ORGANIZATION_ASSIGNMENT ( #103, #266, ( #205 ) ) ;
#22 = EDGE_LOOP ( 'NONE', ( #265, #278 ) ) ;
#23 = CARTESIAN_POINT ( 'NONE',  ( 0.000000000000000000, 0.000000000000000000, 803.0000000000000000 ) ) ;
#24 = SECURITY_CLASSIFICATION ( '', '', #53 ) ;
#25 = DIRECTION ( 'NONE',  ( -0.000000000000000000, -0.000000000000000000, -1.000000000000000000 ) ) ;
#26 = COORDINATED_UNIVERSAL_TIME_OFFSET ( 1, 0, .AHEAD. ) ;
#27 = CARTESIAN_POINT ( 'NONE',  ( 2.300000000000000266, 0.000000000000000000, 3.199999999999980638 ) ) ;
#28 = ADVANCED_FACE ( 'NONE', ( #241 ), #160, .F. ) ;
#29 = CARTESIAN_POINT ( 'NONE',  ( 0.000000000000000000, 0.000000000000000000, 803.0000000000000000 ) ) ;
#30 = LOCAL_TIME ( 12, 6, 46.00000000000000000, #5 ) ;
#31 = APPROVAL_DATE_TIME ( #245, #280 ) ;
#32 = DIRECTION ( 'NONE',  ( -1.000000000000000000, 0.000000000000000000, 0.000000000000000000 ) ) ;
#33 = COORDINATED_UNIVERSAL_TIME_OFFSET ( 1, 0, .AHEAD. ) ;
#34 = DIRECTION ( 'NONE',  ( 1.000000000000000000, 0.000000000000000000, -0.000000000000000000 ) ) ;
#35 = PERSON_AND_ORGANIZATION_ROLE ( 'creator' ) ;
#36 = CC_DESIGN_PERSON_AND_ORGANIZATION_ASSIGNMENT ( #286, #35, ( #93 ) ) ;
#37 = CARTESIAN_POINT ( 'NONE',  ( -4.000000000000000000, 0.000000000000000000, 3.000000000000000000 ) ) ;
#38 = ADVANCED_FACE ( 'NONE', ( #190 ), #260, .T. ) ;
#39 = CARTESIAN_POINT ( 'NONE',  ( 0.000000000000000000, 0.000000000000000000, 803.0000000000000000 ) ) ;
#40 = AXIS2_PLACEMENT_3D ( 'NONE', #201, #267, #12 ) ;
#41 = EDGE_LOOP ( 'NONE', ( #204, #135, #111, #202 ) ) ;
#42 = APPROVAL_DATE_TIME ( #90, #244 ) ;
#43 = PLANE ( 'NONE',  #296 ) ;
#44 = ORIENTED_EDGE ( 'NONE', *, *, #131, .F. ) ;
#45 = EDGE_CURVE ( 'NONE', #47, #75, #298, .T. ) ;
#46 = PRODUCT_DEFINITION_SHAPE ( 'NONE', 'NONE',  #205 ) ;
#47 = VERTEX_POINT ( 'NONE', #123 ) ;
#48 = CIRCLE ( 'NONE', #285, 2.100000000000000089 ) ;
#49 = ORIENTED_EDGE ( 'NONE', *, *, #215, .F. ) ;
#50 = DIRECTION ( 'NONE',  ( 0.000000000000000000, 0.000000000000000000, -1.000000000000000000 ) ) ;
#51 = DIRECTION ( 'NONE',  ( 0.000000000000000000, 0.000000000000000000, 1.000000000000000000 ) ) ;
#52 = CARTESIAN_POINT ( 'NONE',  ( 0.000000000000000000, 0.000000000000000000, 0.000000000000000000 ) ) ;
#53 = SECURITY_CLASSIFICATION_LEVEL ( 'unclassified' ) ;
#54 = CARTESIAN_POINT ( 'NONE',  ( 2.100000000000000089, 2.571758278209441957E-16, 803.0000000000000000 ) ) ;
#55 = CIRCLE ( 'NONE', #71, 2.100000000000000089 ) ;
#56 = CARTESIAN_POINT ( 'NONE',  ( 0.000000000000000000, 0.000000000000000000, 3.000000000000000000 ) ) ;
#57 = DIRECTION ( 'NONE',  ( 0.000000000000000000, 0.000000000000000000, 1.000000000000000000 ) ) ;
#58 = VECTOR ( 'NONE', #15, 1000.000000000000000 ) ;
#59 = APPLICATION_PROTOCOL_DEFINITION ( 'international standard', 'config_control_design', 1994, #8 ) ;
#60 = DIRECTION ( 'NONE',  ( 0.000000000000000000, 0.000000000000000000, 1.000000000000000000 ) ) ;
#61 = DIRECTION ( 'NONE',  ( 0.000000000000000000, 0.000000000000000000, 1.000000000000000000 ) ) ;
#62 = DIRECTION ( 'NONE',  ( -0.000000000000000000, -0.000000000000000000, -1.000000000000000000 ) ) ;
#63 = CIRCLE ( 'NONE', #134, 4.000000000000000000 ) ;
#64 =( LENGTH_UNIT ( ) NAMED_UNIT ( * ) SI_UNIT ( .MILLI., .METRE. ) );
#65 = PRODUCT ( '56dc', '56dc', '', ( #169 ) ) ;
#66 = CIRCLE ( 'NONE', #197, 2.300000000000000266 ) ;
#67 = SHAPE_DEFINITION_REPRESENTATION ( #46, #256 ) ;
#68 =( GEOMETRIC_REPRESENTATION_CONTEXT ( 3 ) GLOBAL_UNCERTAINTY_ASSIGNED_CONTEXT ( ( #137 ) ) GLOBAL_UNIT_ASSIGNED_CONTEXT ( ( #64, #150, #16 ) ) REPRESENTATION_CONTEXT ( 'NONE', 'WORKASPACE' ) );
#69 = ORIENTED_EDGE ( 'NONE', *, *, #257, .T. ) ;
#70 = VERTEX_POINT ( 'NONE', #113 ) ;
#71 = AXIS2_PLACEMENT_3D ( 'NONE', #144, #145, #235 ) ;
#72 = ORIENTED_EDGE ( 'NONE', *, *, #223, .T. ) ;
#73 = LOCAL_TIME ( 12, 6, 46.00000000000000000, #292 ) ;
#74 = APPROVAL ( #270, 'NEURÈENÝ' ) ;
#75 = VERTEX_POINT ( 'NONE', #7 ) ;
#76 = DIRECTION ( 'NONE',  ( -0.000000000000000000, -0.000000000000000000, -1.000000000000000000 ) ) ;
#77 = CIRCLE ( 'NONE', #246, 2.300000000000000266 ) ;
#78 = CARTESIAN_POINT ( 'NONE',  ( 0.000000000000000000, 0.000000000000000000, 3.199999999999980638 ) ) ;
#79 = DIRECTION ( 'NONE',  ( 1.000000000000000000, 0.000000000000000000, 0.000000000000000000 ) ) ;
#80 = CARTESIAN_POINT ( 'NONE',  ( 0.000000000000000000, 0.000000000000000000, 3.000000000000000000 ) ) ;
#81 = DIRECTION ( 'NONE',  ( 1.000000000000000000, 0.000000000000000000, 0.000000000000000000 ) ) ;
#82 = LOCAL_TIME ( 12, 6, 46.00000000000000000, #33 ) ;
#83 = PERSON_AND_ORGANIZATION ( #306, #300 ) ;
#84 = PRODUCT_RELATED_PRODUCT_CATEGORY ( 'detail', '', ( #65 ) ) ;
#85 = CYLINDRICAL_SURFACE ( 'NONE', #110, 2.100000000000000089 ) ;
#86 = CARTESIAN_POINT ( 'NONE',  ( 0.000000000000000000, 0.000000000000000000, 0.000000000000000000 ) ) ;
#87 = CYLINDRICAL_SURFACE ( 'NONE', #170, 4.000000000000000000 ) ;
#88 = EDGE_CURVE ( 'NONE', #307, #161, #66, .T. ) ;
#89 = CARTESIAN_POINT ( 'NONE',  ( -2.100000000000000089, 0.000000000000000000, 803.0000000000000000 ) ) ;
#90 = DATE_AND_TIME ( #221, #291 ) ;
#91 = CIRCLE ( 'NONE', #261, 0.2000000000000000944 ) ;
#92 = AXIS2_PLACEMENT_3D ( 'NONE', #146, #57, #119 ) ;
#93 = PRODUCT_DEFINITION_FORMATION_WITH_SPECIFIED_SOURCE ( 'LIBOVOLNÝ', '', #65, .NOT_KNOWN. ) ;
#94 = EDGE_LOOP ( 'NONE', ( #72, #281 ) ) ;
#95 = EDGE_CURVE ( 'NONE', #47, #307, #203, .T. ) ;
#96 = ORIENTED_EDGE ( 'NONE', *, *, #88, .F. ) ;
#97 = ORIENTED_EDGE ( 'NONE', *, *, #95, .F. ) ;
#98 = DIRECTION ( 'NONE',  ( 1.000000000000000000, 0.000000000000000000, 0.000000000000000000 ) ) ;
#99 = CARTESIAN_POINT ( 'NONE',  ( 0.000000000000000000, 0.000000000000000000, 3.000000000000000000 ) ) ;
#100 = CIRCLE ( 'NONE', #272, 4.000000000000000000 ) ;
#101 = ORIENTED_EDGE ( 'NONE', *, *, #275, .F. ) ;
#102 = CARTESIAN_POINT ( 'NONE',  ( -4.000000000000000000, 0.000000000000000000, 0.000000000000000000 ) ) ;
#103 = PERSON_AND_ORGANIZATION ( #306, #300 ) ;
#104 = PERSON_AND_ORGANIZATION_ROLE ( 'design_supplier' ) ;
#105 = CARTESIAN_POINT ( 'NONE',  ( -2.300000000000000266, 2.816687638038912549E-16, 2.999999999999990674 ) ) ;
#106 = CARTESIAN_POINT ( 'NONE',  ( 0.000000000000000000, 0.000000000000000000, 0.000000000000000000 ) ) ;
#107 = VERTEX_POINT ( 'NONE', #217 ) ;
#108 = CLOSED_SHELL ( 'NONE', ( #232, #38, #179, #236, #303, #121, #305, #209, #28 ) ) ;
#109 = ORIENTED_EDGE ( 'NONE', *, *, #215, .T. ) ;
#110 = AXIS2_PLACEMENT_3D ( 'NONE', #173, #269, #247 ) ;
#111 = ORIENTED_EDGE ( 'NONE', *, *, #174, .F. ) ;
#112 = VERTEX_POINT ( 'NONE', #54 ) ;
#113 = CARTESIAN_POINT ( 'NONE',  ( 4.000000000000000000, 4.898587196589412829E-16, 3.000000000000000000 ) ) ;
#114 = APPROVAL_PERSON_ORGANIZATION ( #277, #244, #133 ) ;
#115 = CYLINDRICAL_SURFACE ( 'NONE', #218, 4.000000000000000000 ) ;
#116 = CALENDAR_DATE ( 2022, 20, 6 ) ;
#117 = DIRECTION ( 'NONE',  ( 1.000000000000000000, 0.000000000000000000, 0.000000000000000000 ) ) ;
#118 = APPROVAL_STATUS ( 'not_yet_approved' ) ;
#119 = DIRECTION ( 'NONE',  ( 1.000000000000000000, 0.000000000000000000, -0.000000000000000000 ) ) ;
#120 = AXIS2_PLACEMENT_3D ( 'NONE', #39, #171, #243 ) ;
#121 = ADVANCED_FACE ( 'NONE', ( #263 ), #167, .F. ) ;
#122 = APPROVAL_ROLE ( '' ) ;
#123 = CARTESIAN_POINT ( 'NONE',  ( -2.100000000000000089, 0.000000000000000000, 3.199999999999980638 ) ) ;
#124 = APPROVAL_ROLE ( '' ) ;
#125 = CARTESIAN_POINT ( 'NONE',  ( 2.100000000000000089, 2.571758278209441957E-16, 803.0000000000000000 ) ) ;
#126 = AXIS2_PLACEMENT_3D ( 'NONE', #208, #289, #283 ) ;
#127 = CALENDAR_DATE ( 2022, 20, 6 ) ;
#128 = APPLICATION_CONTEXT ( 'configuration controlled 3d designs of mechanical parts and assemblies' ) ;
#129 = DATE_TIME_ROLE ( 'classification_date' ) ;
#130 = LINE ( 'NONE', #89, #199 ) ;
#131 = EDGE_CURVE ( 'NONE', #75, #47, #55, .T. ) ;
#132 = DIRECTION ( 'NONE',  ( -0.000000000000000000, -0.000000000000000000, -1.000000000000000000 ) ) ;
#133 = APPROVAL_ROLE ( '' ) ;
#134 = AXIS2_PLACEMENT_3D ( 'NONE', #106, #60, #17 ) ;
#135 = ORIENTED_EDGE ( 'NONE', *, *, #95, .T. ) ;
#136 = ORIENTED_EDGE ( 'NONE', *, *, #3, .F. ) ;
#137 = UNCERTAINTY_MEASURE_WITH_UNIT (LENGTH_MEASURE( 1.000000000000000082E-05 ), #64, 'distance_accuracy_value', 'NONE');
#138 = VERTEX_POINT ( 'NONE', #234 ) ;
#139 = AXIS2_PLACEMENT_3D ( 'NONE', #198, #9, #248 ) ;
#140 = APPROVAL_PERSON_ORGANIZATION ( #240, #280, #124 ) ;
#141 = ORIENTED_EDGE ( 'NONE', *, *, #191, .F. ) ;
#142 = EDGE_LOOP ( 'NONE', ( #141, #109, #259, #181 ) ) ;
#143 = VERTEX_POINT ( 'NONE', #102 ) ;
#144 = CARTESIAN_POINT ( 'NONE',  ( 0.000000000000000000, 0.000000000000000000, 3.199999999999980638 ) ) ;
#145 = DIRECTION ( 'NONE',  ( 0.000000000000000000, 0.000000000000000000, 1.000000000000000000 ) ) ;
#146 = CARTESIAN_POINT ( 'NONE',  ( 0.000000000000000000, 0.000000000000000000, 803.0000000000000000 ) ) ;
#147 = DIRECTION ( 'NONE',  ( 0.000000000000000000, 0.000000000000000000, 1.000000000000000000 ) ) ;
#148 = LINE ( 'NONE', #125, #155 ) ;
#149 = TOROIDAL_SURFACE ( 'NONE', #139, 2.300000000000000266, 0.2000000000000000111 ) ;
#150 =( NAMED_UNIT ( * ) PLANE_ANGLE_UNIT ( ) SI_UNIT ( $, .RADIAN. ) );
#151 = DATE_AND_TIME ( #127, #222 ) ;
#152 = CARTESIAN_POINT ( 'NONE',  ( -4.000000000000000000, 0.000000000000000000, 3.000000000000000000 ) ) ;
#153 = DATE_TIME_ROLE ( 'creation_date' ) ;
#154 = DIRECTION ( 'NONE',  ( 1.000000000000000000, 0.000000000000000000, 0.000000000000000000 ) ) ;
#155 = VECTOR ( 'NONE', #132, 1000.000000000000000 ) ;
#156 = DIRECTION ( 'NONE',  ( -1.000000000000000000, 0.000000000000000000, 0.000000000000000000 ) ) ;
#157 = FACE_BOUND ( 'NONE', #290, .T. ) ;
#158 = ORIENTED_EDGE ( 'NONE', *, *, #191, .T. ) ;
#159 = DESIGN_CONTEXT ( 'detailed design', #8, 'design' ) ;
#160 = TOROIDAL_SURFACE ( 'NONE', #126, 2.300000000000000266, 0.2000000000000000111 ) ;
#161 = VERTEX_POINT ( 'NONE', #214 ) ;
#162 = CARTESIAN_POINT ( 'NONE',  ( -2.300000000000000266, 2.816687638038912549E-16, 3.199999999999980638 ) ) ;
#163 = EDGE_CURVE ( 'NONE', #75, #161, #91, .T. ) ;
#164 = DIRECTION ( 'NONE',  ( 1.224646799147353207E-16, 1.000000000000000000, -0.000000000000000000 ) ) ;
#165 = AXIS2_PLACEMENT_3D ( 'NONE', #78, #168, #98 ) ;
#166 = CARTESIAN_POINT ( 'NONE',  ( 4.000000000000000000, 4.898587196589412829E-16, 3.000000000000000000 ) ) ;
#167 = PLANE ( 'NONE',  #14 ) ;
#168 = DIRECTION ( 'NONE',  ( 0.000000000000000000, 0.000000000000000000, 1.000000000000000000 ) ) ;
#169 = MECHANICAL_CONTEXT ( 'NONE', #128, 'mechanical' ) ;
#170 = AXIS2_PLACEMENT_3D ( 'NONE', #175, #250, #156 ) ;
#171 = DIRECTION ( 'NONE',  ( 0.000000000000000000, 0.000000000000000000, 1.000000000000000000 ) ) ;
#172 = CARTESIAN_POINT ( 'NONE',  ( 0.000000000000000000, 0.000000000000000000, 3.000000000000000000 ) ) ;
#173 = CARTESIAN_POINT ( 'NONE',  ( 0.000000000000000000, 0.000000000000000000, 803.0000000000000000 ) ) ;
#174 = EDGE_CURVE ( 'NONE', #161, #307, #77, .T. ) ;
#175 = CARTESIAN_POINT ( 'NONE',  ( 0.000000000000000000, 0.000000000000000000, 3.000000000000000000 ) ) ;
#176 = CC_DESIGN_DATE_AND_TIME_ASSIGNMENT ( #251, #129, ( #24 ) ) ;
#177 = APPROVAL_STATUS ( 'not_yet_approved' ) ;
#178 = ORIENTED_EDGE ( 'NONE', *, *, #284, .T. ) ;
#179 = ADVANCED_FACE ( 'NONE', ( #2 ), #115, .T. ) ;
#180 = AXIS2_PLACEMENT_3D ( 'NONE', #23, #185, #32 ) ;
#181 = ORIENTED_EDGE ( 'NONE', *, *, #226, .F. ) ;
#182 = AXIS2_PLACEMENT_3D ( 'NONE', #274, #294, #13 ) ;
#183 = CC_DESIGN_SECURITY_CLASSIFICATION ( #24, ( #93 ) ) ;
#184 = EDGE_LOOP ( 'NONE', ( #49, #224, #304, #19 ) ) ;
#185 = DIRECTION ( 'NONE',  ( -0.000000000000000000, -0.000000000000000000, -1.000000000000000000 ) ) ;
#186 = DIRECTION ( 'NONE',  ( 1.000000000000000000, 0.000000000000000000, 0.000000000000000000 ) ) ;
#187 = PERSON_AND_ORGANIZATION ( #306, #300 ) ;
#188 = DIRECTION ( 'NONE',  ( -1.000000000000000000, 0.000000000000000000, 0.000000000000000000 ) ) ;
#189 = PERSON_AND_ORGANIZATION ( #306, #300 ) ;
#190 = FACE_OUTER_BOUND ( 'NONE', #142, .T. ) ;
#191 = EDGE_CURVE ( 'NONE', #112, #138, #48, .T. ) ;
#192 = DIRECTION ( 'NONE',  ( 0.000000000000000000, -1.000000000000000000, 0.000000000000000000 ) ) ;
#193 = VECTOR ( 'NONE', #212, 1000.000000000000000 ) ;
#194 = CALENDAR_DATE ( 2022, 20, 6 ) ;
#195 = PERSON_AND_ORGANIZATION_ROLE ( 'classification_officer' ) ;
#196 = DIRECTION ( 'NONE',  ( 0.000000000000000000, 0.000000000000000000, 1.000000000000000000 ) ) ;
#197 = AXIS2_PLACEMENT_3D ( 'NONE', #282, #76, #186 ) ;
#198 = CARTESIAN_POINT ( 'NONE',  ( 0.000000000000000000, 0.000000000000000000, 3.199999999999980638 ) ) ;
#199 = VECTOR ( 'NONE', #62, 1000.000000000000000 ) ;
#200 = CC_DESIGN_PERSON_AND_ORGANIZATION_ASSIGNMENT ( #11, #104, ( #93 ) ) ;
#201 = CARTESIAN_POINT ( 'NONE',  ( 0.000000000000000000, 0.000000000000000000, 3.000000000000000000 ) ) ;
#202 = ORIENTED_EDGE ( 'NONE', *, *, #163, .F. ) ;
#203 = CIRCLE ( 'NONE', #230, 0.2000000000000000944 ) ;
#204 = ORIENTED_EDGE ( 'NONE', *, *, #45, .F. ) ;
#205 = PRODUCT_DEFINITION ( 'NEZNÁMÝ', '', #93, #159 ) ;
#206 = EDGE_LOOP ( 'NONE', ( #69, #158 ) ) ;
#207 = AXIS2_PLACEMENT_3D ( 'NONE', #86, #147, #81 ) ;
#208 = CARTESIAN_POINT ( 'NONE',  ( 0.000000000000000000, 0.000000000000000000, 3.199999999999980638 ) ) ;
#209 = ADVANCED_FACE ( 'NONE', ( #210 ), #1, .T. ) ;
#210 = FACE_OUTER_BOUND ( 'NONE', #206, .T. ) ;
#211 = DATE_AND_TIME ( #216, #82 ) ;
#212 = DIRECTION ( 'NONE',  ( -0.000000000000000000, -0.000000000000000000, -1.000000000000000000 ) ) ;
#213 = CIRCLE ( 'NONE', #120, 2.100000000000000089 ) ;
#214 = CARTESIAN_POINT ( 'NONE',  ( 2.300000000000000266, 0.000000000000000000, 2.999999999999990674 ) ) ;
#215 = EDGE_CURVE ( 'NONE', #112, #75, #148, .T. ) ;
#216 = CALENDAR_DATE ( 2022, 20, 6 ) ;
#217 = CARTESIAN_POINT ( 'NONE',  ( 4.000000000000000000, 4.898587196589412829E-16, 0.000000000000000000 ) ) ;
#218 = AXIS2_PLACEMENT_3D ( 'NONE', #99, #231, #188 ) ;
#219 = FACE_OUTER_BOUND ( 'NONE', #229, .T. ) ;
#220 = EDGE_CURVE ( 'NONE', #143, #107, #20, .T. ) ;
#221 = CALENDAR_DATE ( 2022, 20, 6 ) ;
#222 = LOCAL_TIME ( 12, 6, 46.00000000000000000, #26 ) ;
#223 = EDGE_CURVE ( 'NONE', #297, #70, #100, .T. ) ;
#224 = ORIENTED_EDGE ( 'NONE', *, *, #257, .F. ) ;
#225 = EDGE_LOOP ( 'NONE', ( #299, #279, #178, #101 ) ) ;
#226 = EDGE_CURVE ( 'NONE', #138, #47, #130, .T. ) ;
#227 = ORIENTED_EDGE ( 'NONE', *, *, #223, .F. ) ;
#228 = APPLICATION_PROTOCOL_DEFINITION ( 'international standard', 'config_control_design', 1994, #128 ) ;
#229 = EDGE_LOOP ( 'NONE', ( #136, #227, #287, #276 ) ) ;
#230 = AXIS2_PLACEMENT_3D ( 'NONE', #162, #164, #262 ) ;
#231 = DIRECTION ( 'NONE',  ( -0.000000000000000000, -0.000000000000000000, -1.000000000000000000 ) ) ;
#232 = ADVANCED_FACE ( 'NONE', ( #271 ), #149, .F. ) ;
#233 = APPROVAL_PERSON_ORGANIZATION ( #187, #74, #122 ) ;
#234 = CARTESIAN_POINT ( 'NONE',  ( -2.100000000000000089, 0.000000000000000000, 803.0000000000000000 ) ) ;
#235 = DIRECTION ( 'NONE',  ( 1.000000000000000000, 0.000000000000000000, 0.000000000000000000 ) ) ;
#236 = ADVANCED_FACE ( 'NONE', ( #219 ), #87, .T. ) ;
#237 = CC_DESIGN_PERSON_AND_ORGANIZATION_ASSIGNMENT ( #189, #195, ( #24 ) ) ;
#238 = APPROVAL_DATE_TIME ( #211, #74 ) ;
#239 = DIRECTION ( 'NONE',  ( 1.000000000000000000, 0.000000000000000000, -0.000000000000000000 ) ) ;
#240 = PERSON_AND_ORGANIZATION ( #306, #300 ) ;
#241 = FACE_OUTER_BOUND ( 'NONE', #255, .T. ) ;
#242 = PERSON_AND_ORGANIZATION_ROLE ( 'design_owner' ) ;
#243 = DIRECTION ( 'NONE',  ( 1.000000000000000000, 0.000000000000000000, 0.000000000000000000 ) ) ;
#244 = APPROVAL ( #177, 'NEURÈENÝ' ) ;
#245 = DATE_AND_TIME ( #194, #30 ) ;
#246 = AXIS2_PLACEMENT_3D ( 'NONE', #80, #25, #117 ) ;
#247 = DIRECTION ( 'NONE',  ( -1.000000000000000000, 0.000000000000000000, 0.000000000000000000 ) ) ;
#248 = DIRECTION ( 'NONE',  ( 1.000000000000000000, 0.000000000000000000, 0.000000000000000000 ) ) ;
#249 = LINE ( 'NONE', #37, #58 ) ;
#250 = DIRECTION ( 'NONE',  ( -0.000000000000000000, -0.000000000000000000, -1.000000000000000000 ) ) ;
#251 = DATE_AND_TIME ( #116, #73 ) ;
#252 = ORIENTED_EDGE ( 'NONE', *, *, #174, .T. ) ;
#253 = CC_DESIGN_APPROVAL ( #280, ( #93 ) ) ;
#254 = FACE_OUTER_BOUND ( 'NONE', #94, .T. ) ;
#255 = EDGE_LOOP ( 'NONE', ( #97, #44, #301, #96 ) ) ;
#256 = ADVANCED_BREP_SHAPE_REPRESENTATION ( '56dc', ( #293, #207 ), #68 ) ;
#257 = EDGE_CURVE ( 'NONE', #138, #112, #213, .T. ) ;
#258 = ORIENTED_EDGE ( 'NONE', *, *, #88, .T. ) ;
#259 = ORIENTED_EDGE ( 'NONE', *, *, #131, .T. ) ;
#260 = CYLINDRICAL_SURFACE ( 'NONE', #180, 2.100000000000000089 ) ;
#261 = AXIS2_PLACEMENT_3D ( 'NONE', #27, #192, #50 ) ;
#262 = DIRECTION ( 'NONE',  ( -1.000000000000000000, 1.224646799147353207E-16, 0.000000000000000000 ) ) ;
#263 = FACE_OUTER_BOUND ( 'NONE', #22, .T. ) ;
#264 = LINE ( 'NONE', #166, #193 ) ;
#265 = ORIENTED_EDGE ( 'NONE', *, *, #220, .F. ) ;
#266 = PERSON_AND_ORGANIZATION_ROLE ( 'creator' ) ;
#267 = DIRECTION ( 'NONE',  ( 0.000000000000000000, 0.000000000000000000, 1.000000000000000000 ) ) ;
#268 = EDGE_CURVE ( 'NONE', #70, #297, #295, .T. ) ;
#269 = DIRECTION ( 'NONE',  ( -0.000000000000000000, -0.000000000000000000, -1.000000000000000000 ) ) ;
#270 = APPROVAL_STATUS ( 'not_yet_approved' ) ;
#271 = FACE_OUTER_BOUND ( 'NONE', #41, .T. ) ;
#272 = AXIS2_PLACEMENT_3D ( 'NONE', #172, #196, #154 ) ;
#273 = COORDINATED_UNIVERSAL_TIME_OFFSET ( 1, 0, .AHEAD. ) ;
#274 = CARTESIAN_POINT ( 'NONE',  ( 0.000000000000000000, 0.000000000000000000, 0.000000000000000000 ) ) ;
#275 = EDGE_CURVE ( 'NONE', #297, #143, #249, .T. ) ;
#276 = ORIENTED_EDGE ( 'NONE', *, *, #220, .T. ) ;
#277 = PERSON_AND_ORGANIZATION ( #306, #300 ) ;
#278 = ORIENTED_EDGE ( 'NONE', *, *, #284, .F. ) ;
#279 = ORIENTED_EDGE ( 'NONE', *, *, #3, .T. ) ;
#280 = APPROVAL ( #118, 'NEURÈENÝ' ) ;
#281 = ORIENTED_EDGE ( 'NONE', *, *, #268, .T. ) ;
#282 = CARTESIAN_POINT ( 'NONE',  ( 0.000000000000000000, 0.000000000000000000, 3.000000000000000000 ) ) ;
#283 = DIRECTION ( 'NONE',  ( 1.000000000000000000, 0.000000000000000000, 0.000000000000000000 ) ) ;
#284 = EDGE_CURVE ( 'NONE', #107, #143, #63, .T. ) ;
#285 = AXIS2_PLACEMENT_3D ( 'NONE', #29, #6, #79 ) ;
#286 = PERSON_AND_ORGANIZATION ( #306, #300 ) ;
#287 = ORIENTED_EDGE ( 'NONE', *, *, #275, .T. ) ;
#288 = CC_DESIGN_PERSON_AND_ORGANIZATION_ASSIGNMENT ( #83, #242, ( #65 ) ) ;
#289 = DIRECTION ( 'NONE',  ( 0.000000000000000000, 0.000000000000000000, 1.000000000000000000 ) ) ;
#290 = EDGE_LOOP ( 'NONE', ( #252, #258 ) ) ;
#291 = LOCAL_TIME ( 12, 6, 46.00000000000000000, #273 ) ;
#292 = COORDINATED_UNIVERSAL_TIME_OFFSET ( 1, 0, .AHEAD. ) ;
#293 = MANIFOLD_SOLID_BREP ( 'Zaoblit1', #108 ) ;
#294 = DIRECTION ( 'NONE',  ( 0.000000000000000000, 0.000000000000000000, 1.000000000000000000 ) ) ;
#295 = CIRCLE ( 'NONE', #40, 4.000000000000000000 ) ;
#296 = AXIS2_PLACEMENT_3D ( 'NONE', #56, #61, #34 ) ;
#297 = VERTEX_POINT ( 'NONE', #152 ) ;
#298 = CIRCLE ( 'NONE', #165, 2.100000000000000089 ) ;
#299 = ORIENTED_EDGE ( 'NONE', *, *, #268, .F. ) ;
#300 = ORGANIZATION ( 'NEURÈENÝ', 'NEURÈENÝ', '' ) ;
#301 = ORIENTED_EDGE ( 'NONE', *, *, #163, .T. ) ;
#302 = CC_DESIGN_DATE_AND_TIME_ASSIGNMENT ( #151, #153, ( #205 ) ) ;
#303 = ADVANCED_FACE ( 'NONE', ( #157, #254 ), #43, .T. ) ;
#304 = ORIENTED_EDGE ( 'NONE', *, *, #226, .T. ) ;
#305 = ADVANCED_FACE ( 'NONE', ( #10 ), #85, .T. ) ;
#306 = PERSON ( 'NEURÈENÝ', 'NEURÈENÝ', 'NEURÈENÝ', ('NEURÈENÝ'), ('NEURÈENÝ'), ('NEURÈENÝ') ) ;
#307 = VERTEX_POINT ( 'NONE', #105 ) ;
ENDSEC;
END-ISO-10303-21;
