ISO-10303-21;
HEADER;
FILE_DESCRIPTION (( 'STEP AP203' ),
    '1' );
FILE_NAME ('1290.STEP',
    '2022-06-20T09:55:26',
    ( '' ),
    ( '' ),
    'SwSTEP 2.0',
    'SolidWorks 2019',
    '' );
FILE_SCHEMA (( 'CONFIG_CONTROL_DESIGN' ));
ENDSEC;

DATA;
#1 = FACE_OUTER_BOUND ( 'NONE', #205, .T. ) ;
#2 = CC_DESIGN_DATE_AND_TIME_ASSIGNMENT ( #204, #302, ( #262 ) ) ;
#3 = ORGANIZATION ( 'NEURÈENÝ', 'NEURÈENÝ', '' ) ;
#4 = EDGE_CURVE ( 'NONE', #110, #80, #213, .T. ) ;
#5 = LINE ( 'NONE', #211, #224 ) ;
#6 = FACE_OUTER_BOUND ( 'NONE', #120, .T. ) ;
#7 = ORIENTED_EDGE ( 'NONE', *, *, #279, .F. ) ;
#8 = ORIENTED_EDGE ( 'NONE', *, *, #279, .T. ) ;
#9 = EDGE_CURVE ( 'NONE', #295, #243, #219, .T. ) ;
#10 = DIRECTION ( 'NONE',  ( 1.000000000000000000, 0.000000000000000000, 0.000000000000000000 ) ) ;
#11 = DIRECTION ( 'NONE',  ( 1.000000000000000000, 0.000000000000000000, 0.000000000000000000 ) ) ;
#12 = CARTESIAN_POINT ( 'NONE',  ( 0.000000000000000000, 0.000000000000000000, 635.0000000000000000 ) ) ;
#13 = PERSON_AND_ORGANIZATION ( #73, #3 ) ;
#14 = ADVANCED_FACE ( 'NONE', ( #282 ), #69, .T. ) ;
#15 = CARTESIAN_POINT ( 'NONE',  ( 0.000000000000000000, 0.000000000000000000, 5.000000000000000000 ) ) ;
#16 = CIRCLE ( 'NONE', #227, 6.000000000000000888 ) ;
#17 = ORIENTED_EDGE ( 'NONE', *, *, #210, .T. ) ;
#18 = APPROVAL_STATUS ( 'not_yet_approved' ) ;
#19 = CARTESIAN_POINT ( 'NONE',  ( 3.299999999999999822, 0.000000000000000000, 5.199999999999982414 ) ) ;
#20 = PERSON_AND_ORGANIZATION ( #73, #3 ) ;
#21 = ADVANCED_FACE ( 'NONE', ( #202 ), #238, .F. ) ;
#22 = CIRCLE ( 'NONE', #296, 3.100000000000000089 ) ;
#23 = DIRECTION ( 'NONE',  ( 1.000000000000000000, 0.000000000000000000, 0.000000000000000000 ) ) ;
#24 = CARTESIAN_POINT ( 'NONE',  ( 0.000000000000000000, 0.000000000000000000, 5.199999999999982414 ) ) ;
#25 = AXIS2_PLACEMENT_3D ( 'NONE', #12, #115, #301 ) ;
#26 = ORIENTED_EDGE ( 'NONE', *, *, #239, .F. ) ;
#27 = ORIENTED_EDGE ( 'NONE', *, *, #4, .T. ) ;
#28 = ORIENTED_EDGE ( 'NONE', *, *, #268, .T. ) ;
#29 = CARTESIAN_POINT ( 'NONE',  ( -3.100000000000000089, 0.000000000000000000, 635.0000000000000000 ) ) ;
#30 = AXIS2_PLACEMENT_3D ( 'NONE', #130, #263, #214 ) ;
#31 = ADVANCED_FACE ( 'NONE', ( #254, #39 ), #251, .T. ) ;
#32 = VERTEX_POINT ( 'NONE', #230 ) ;
#33 = CARTESIAN_POINT ( 'NONE',  ( -6.000000000000000888, 0.000000000000000000, 5.000000000000000000 ) ) ;
#34 = AXIS2_PLACEMENT_3D ( 'NONE', #61, #92, #139 ) ;
#35 = DIRECTION ( 'NONE',  ( 1.000000000000000000, 0.000000000000000000, -0.000000000000000000 ) ) ;
#36 = MECHANICAL_CONTEXT ( 'NONE', #94, 'mechanical' ) ;
#37 = DIRECTION ( 'NONE',  ( 0.000000000000000000, 0.000000000000000000, 1.000000000000000000 ) ) ;
#38 =( NAMED_UNIT ( * ) SI_UNIT ( $, .STERADIAN. ) SOLID_ANGLE_UNIT ( ) );
#39 = FACE_OUTER_BOUND ( 'NONE', #241, .T. ) ;
#40 = CARTESIAN_POINT ( 'NONE',  ( 0.000000000000000000, 0.000000000000000000, 5.000000000000000000 ) ) ;
#41 = VECTOR ( 'NONE', #84, 1000.000000000000000 ) ;
#42 = LOCAL_TIME ( 11, 55, 26.00000000000000000, #93 ) ;
#43 = DATE_AND_TIME ( #180, #272 ) ;
#44 = CYLINDRICAL_SURFACE ( 'NONE', #207, 6.000000000000000888 ) ;
#45 = DIRECTION ( 'NONE',  ( -0.000000000000000000, -0.000000000000000000, -1.000000000000000000 ) ) ;
#46 = EDGE_CURVE ( 'NONE', #221, #98, #91, .T. ) ;
#47 = FACE_OUTER_BOUND ( 'NONE', #307, .T. ) ;
#48 = APPROVAL_PERSON_ORGANIZATION ( #20, #194, #163 ) ;
#49 = CARTESIAN_POINT ( 'NONE',  ( 3.100000000000000089, 3.796405077356794918E-16, 635.0000000000000000 ) ) ;
#50 = DIRECTION ( 'NONE',  ( -1.000000000000000000, 0.000000000000000000, 0.000000000000000000 ) ) ;
#51 = AXIS2_PLACEMENT_3D ( 'NONE', #182, #304, #95 ) ;
#52 = CC_DESIGN_PERSON_AND_ORGANIZATION_ASSIGNMENT ( #280, #70, ( #262 ) ) ;
#53 = DIRECTION ( 'NONE',  ( -0.000000000000000000, -0.000000000000000000, -1.000000000000000000 ) ) ;
#54 = ORIENTED_EDGE ( 'NONE', *, *, #114, .F. ) ;
#55 = APPROVAL_PERSON_ORGANIZATION ( #228, #159, #261 ) ;
#56 = ORIENTED_EDGE ( 'NONE', *, *, #119, .T. ) ;
#57 = AXIS2_PLACEMENT_3D ( 'NONE', #19, #200, #116 ) ;
#58 = FACE_OUTER_BOUND ( 'NONE', #152, .T. ) ;
#59 = AXIS2_PLACEMENT_3D ( 'NONE', #127, #212, #287 ) ;
#60 = ORIENTED_EDGE ( 'NONE', *, *, #96, .F. ) ;
#61 = CARTESIAN_POINT ( 'NONE',  ( 0.000000000000000000, 0.000000000000000000, 5.199999999999982414 ) ) ;
#62 = AXIS2_PLACEMENT_3D ( 'NONE', #40, #141, #35 ) ;
#63 = ORIENTED_EDGE ( 'NONE', *, *, #9, .T. ) ;
#64 = AXIS2_PLACEMENT_3D ( 'NONE', #253, #37, #138 ) ;
#65 = APPROVAL_STATUS ( 'not_yet_approved' ) ;
#66 = UNCERTAINTY_MEASURE_WITH_UNIT (LENGTH_MEASURE( 1.000000000000000082E-05 ), #68, 'distance_accuracy_value', 'NONE');
#67 = ORIENTED_EDGE ( 'NONE', *, *, #46, .F. ) ;
#68 =( LENGTH_UNIT ( ) NAMED_UNIT ( * ) SI_UNIT ( .MILLI., .METRE. ) );
#69 = PLANE ( 'NONE',  #151 ) ;
#70 = PERSON_AND_ORGANIZATION_ROLE ( 'classification_officer' ) ;
#71 = EDGE_CURVE ( 'NONE', #221, #295, #72, .T. ) ;
#72 = CIRCLE ( 'NONE', #57, 0.1999999999999996503 ) ;
#73 = PERSON ( 'NEURÈENÝ', 'NEURÈENÝ', 'NEURÈENÝ', ('NEURÈENÝ'), ('NEURÈENÝ'), ('NEURÈENÝ') ) ;
#74 = DIRECTION ( 'NONE',  ( -0.000000000000000000, -0.000000000000000000, -1.000000000000000000 ) ) ;
#75 = CARTESIAN_POINT ( 'NONE',  ( 0.000000000000000000, 0.000000000000000000, 635.0000000000000000 ) ) ;
#76 = DIRECTION ( 'NONE',  ( 1.000000000000000000, 0.000000000000000000, -0.000000000000000000 ) ) ;
#77 = DIRECTION ( 'NONE',  ( 1.000000000000000000, 0.000000000000000000, 0.000000000000000000 ) ) ;
#78 = MANIFOLD_SOLID_BREP ( 'Zaoblit1', #203 ) ;
#79 = EDGE_CURVE ( 'NONE', #293, #32, #16, .T. ) ;
#80 = VERTEX_POINT ( 'NONE', #226 ) ;
#81 = VERTEX_POINT ( 'NONE', #223 ) ;
#82 = APPROVAL_PERSON_ORGANIZATION ( #155, #217, #181 ) ;
#83 = CC_DESIGN_SECURITY_CLASSIFICATION ( #262, ( #185 ) ) ;
#84 = DIRECTION ( 'NONE',  ( -0.000000000000000000, -0.000000000000000000, -1.000000000000000000 ) ) ;
#85 = ORIENTED_EDGE ( 'NONE', *, *, #96, .T. ) ;
#86 = ADVANCED_BREP_SHAPE_REPRESENTATION ( '1290', ( #78, #100 ), #149 ) ;
#87 = DIRECTION ( 'NONE',  ( 1.000000000000000000, 0.000000000000000000, 0.000000000000000000 ) ) ;
#88 = APPLICATION_CONTEXT ( 'configuration controlled 3d designs of mechanical parts and assemblies' ) ;
#89 = APPROVAL_STATUS ( 'not_yet_approved' ) ;
#90 = CARTESIAN_POINT ( 'NONE',  ( -6.000000000000000888, 0.000000000000000000, 5.000000000000000000 ) ) ;
#91 = CIRCLE ( 'NONE', #34, 3.100000000000000089 ) ;
#92 = DIRECTION ( 'NONE',  ( 0.000000000000000000, 0.000000000000000000, 1.000000000000000000 ) ) ;
#93 = COORDINATED_UNIVERSAL_TIME_OFFSET ( 1, 0, .AHEAD. ) ;
#94 = APPLICATION_CONTEXT ( 'configuration controlled 3d designs of mechanical parts and assemblies' ) ;
#95 = DIRECTION ( 'NONE',  ( 1.000000000000000000, 0.000000000000000000, 0.000000000000000000 ) ) ;
#96 = EDGE_CURVE ( 'NONE', #110, #32, #249, .T. ) ;
#97 = DATE_AND_TIME ( #306, #104 ) ;
#98 = VERTEX_POINT ( 'NONE', #300 ) ;
#99 = CARTESIAN_POINT ( 'NONE',  ( 3.100000000000000089, 3.796405077356794918E-16, 5.199999999999982414 ) ) ;
#100 = AXIS2_PLACEMENT_3D ( 'NONE', #281, #256, #11 ) ;
#101 = DIRECTION ( 'NONE',  ( -0.000000000000000000, -0.000000000000000000, -1.000000000000000000 ) ) ;
#102 = DIRECTION ( 'NONE',  ( 0.000000000000000000, 0.000000000000000000, 1.000000000000000000 ) ) ;
#103 = PLANE ( 'NONE',  #247 ) ;
#104 = LOCAL_TIME ( 11, 55, 26.00000000000000000, #284 ) ;
#105 = EDGE_CURVE ( 'NONE', #197, #81, #129, .T. ) ;
#106 = DIRECTION ( 'NONE',  ( 0.000000000000000000, 0.000000000000000000, 1.000000000000000000 ) ) ;
#107 = ORIENTED_EDGE ( 'NONE', *, *, #177, .F. ) ;
#108 = ORIENTED_EDGE ( 'NONE', *, *, #79, .F. ) ;
#109 = DIRECTION ( 'NONE',  ( -0.000000000000000000, -0.000000000000000000, -1.000000000000000000 ) ) ;
#110 = VERTEX_POINT ( 'NONE', #90 ) ;
#111 = CIRCLE ( 'NONE', #64, 6.000000000000000888 ) ;
#112 = ORIENTED_EDGE ( 'NONE', *, *, #105, .F. ) ;
#113 = DATE_AND_TIME ( #206, #42 ) ;
#114 = EDGE_CURVE ( 'NONE', #32, #293, #111, .T. ) ;
#115 = DIRECTION ( 'NONE',  ( 0.000000000000000000, 0.000000000000000000, 1.000000000000000000 ) ) ;
#116 = DIRECTION ( 'NONE',  ( 0.000000000000000000, 0.000000000000000000, -1.000000000000000000 ) ) ;
#117 = ADVANCED_FACE ( 'NONE', ( #47 ), #242, .F. ) ;
#118 =( NAMED_UNIT ( * ) PLANE_ANGLE_UNIT ( ) SI_UNIT ( $, .RADIAN. ) );
#119 = EDGE_CURVE ( 'NONE', #243, #295, #189, .T. ) ;
#120 = EDGE_LOOP ( 'NONE', ( #172, #218, #175, #60 ) ) ;
#121 = DATE_AND_TIME ( #161, #267 ) ;
#122 = CIRCLE ( 'NONE', #142, 3.100000000000000089 ) ;
#123 = APPROVAL_DATE_TIME ( #97, #217 ) ;
#124 = DIRECTION ( 'NONE',  ( 0.000000000000000000, 0.000000000000000000, 1.000000000000000000 ) ) ;
#125 = CC_DESIGN_APPROVAL ( #159, ( #185 ) ) ;
#126 = LOCAL_TIME ( 11, 55, 26.00000000000000000, #199 ) ;
#127 = CARTESIAN_POINT ( 'NONE',  ( -3.299999999999999822, 4.041334437186265510E-16, 5.199999999999982414 ) ) ;
#128 = FACE_OUTER_BOUND ( 'NONE', #158, .T. ) ;
#129 = CIRCLE ( 'NONE', #25, 3.100000000000000089 ) ;
#130 = CARTESIAN_POINT ( 'NONE',  ( 0.000000000000000000, 0.000000000000000000, 5.000000000000000000 ) ) ;
#131 = ORIENTED_EDGE ( 'NONE', *, *, #268, .F. ) ;
#132 = PRODUCT_RELATED_PRODUCT_CATEGORY ( 'detail', '', ( #237 ) ) ;
#133 = LINE ( 'NONE', #245, #41 ) ;
#134 = EDGE_LOOP ( 'NONE', ( #63, #56 ) ) ;
#135 = ADVANCED_FACE ( 'NONE', ( #128 ), #235, .T. ) ;
#136 = CARTESIAN_POINT ( 'NONE',  ( 0.000000000000000000, 0.000000000000000000, 0.000000000000000000 ) ) ;
#137 = PERSON_AND_ORGANIZATION_ROLE ( 'creator' ) ;
#138 = DIRECTION ( 'NONE',  ( 1.000000000000000000, 0.000000000000000000, 0.000000000000000000 ) ) ;
#139 = DIRECTION ( 'NONE',  ( 1.000000000000000000, 0.000000000000000000, 0.000000000000000000 ) ) ;
#140 = COORDINATED_UNIVERSAL_TIME_OFFSET ( 1, 0, .AHEAD. ) ;
#141 = DIRECTION ( 'NONE',  ( 0.000000000000000000, 0.000000000000000000, 1.000000000000000000 ) ) ;
#142 = AXIS2_PLACEMENT_3D ( 'NONE', #148, #106, #275 ) ;
#143 = DIRECTION ( 'NONE',  ( -1.000000000000000000, 0.000000000000000000, 0.000000000000000000 ) ) ;
#144 = APPROVAL_DATE_TIME ( #121, #159 ) ;
#145 = CARTESIAN_POINT ( 'NONE',  ( 0.000000000000000000, 0.000000000000000000, 5.000000000000000000 ) ) ;
#146 = DIRECTION ( 'NONE',  ( 1.000000000000000000, 0.000000000000000000, 0.000000000000000000 ) ) ;
#147 = EDGE_CURVE ( 'NONE', #197, #221, #5, .T. ) ;
#148 = CARTESIAN_POINT ( 'NONE',  ( 0.000000000000000000, 0.000000000000000000, 5.199999999999982414 ) ) ;
#149 =( GEOMETRIC_REPRESENTATION_CONTEXT ( 3 ) GLOBAL_UNCERTAINTY_ASSIGNED_CONTEXT ( ( #66 ) ) GLOBAL_UNIT_ASSIGNED_CONTEXT ( ( #68, #118, #38 ) ) REPRESENTATION_CONTEXT ( 'NONE', 'WORKASPACE' ) );
#150 = EDGE_LOOP ( 'NONE', ( #7, #269, #297, #244 ) ) ;
#151 = AXIS2_PLACEMENT_3D ( 'NONE', #278, #274, #285 ) ;
#152 = EDGE_LOOP ( 'NONE', ( #112, #191, #246, #131 ) ) ;
#153 = AXIS2_PLACEMENT_3D ( 'NONE', #145, #188, #143 ) ;
#154 = ADVANCED_FACE ( 'NONE', ( #1 ), #103, .F. ) ;
#155 = PERSON_AND_ORGANIZATION ( #73, #3 ) ;
#156 = CARTESIAN_POINT ( 'NONE',  ( 0.000000000000000000, 0.000000000000000000, 5.199999999999982414 ) ) ;
#157 = ORIENTED_EDGE ( 'NONE', *, *, #4, .F. ) ;
#158 = EDGE_LOOP ( 'NONE', ( #270, #107, #28, #8 ) ) ;
#159 = APPROVAL ( #18, 'NEURÈENÝ' ) ;
#160 = CC_DESIGN_APPROVAL ( #217, ( #291 ) ) ;
#161 = CALENDAR_DATE ( 2022, 20, 6 ) ;
#162 = DIRECTION ( 'NONE',  ( 0.000000000000000000, 0.000000000000000000, 1.000000000000000000 ) ) ;
#163 = APPROVAL_ROLE ( '' ) ;
#164 = DIRECTION ( 'NONE',  ( 0.000000000000000000, 0.000000000000000000, 1.000000000000000000 ) ) ;
#165 = DATE_TIME_ROLE ( 'creation_date' ) ;
#166 = CC_DESIGN_DATE_AND_TIME_ASSIGNMENT ( #43, #165, ( #291 ) ) ;
#167 = CYLINDRICAL_SURFACE ( 'NONE', #153, 6.000000000000000888 ) ;
#168 = AXIS2_PLACEMENT_3D ( 'NONE', #169, #101, #290 ) ;
#169 = CARTESIAN_POINT ( 'NONE',  ( 0.000000000000000000, 0.000000000000000000, 635.0000000000000000 ) ) ;
#170 = LINE ( 'NONE', #29, #288 ) ;
#171 = CARTESIAN_POINT ( 'NONE',  ( -3.299999999999999822, 4.041334437186265510E-16, 4.999999999999991118 ) ) ;
#172 = ORIENTED_EDGE ( 'NONE', *, *, #210, .F. ) ;
#173 = ORIENTED_EDGE ( 'NONE', *, *, #119, .F. ) ;
#174 = PERSON_AND_ORGANIZATION_ROLE ( 'design_owner' ) ;
#175 = ORIENTED_EDGE ( 'NONE', *, *, #79, .T. ) ;
#176 = ORIENTED_EDGE ( 'NONE', *, *, #71, .T. ) ;
#177 = EDGE_CURVE ( 'NONE', #81, #197, #22, .T. ) ;
#178 = SECURITY_CLASSIFICATION_LEVEL ( 'unclassified' ) ;
#179 = ORIENTED_EDGE ( 'NONE', *, *, #114, .T. ) ;
#180 = CALENDAR_DATE ( 2022, 20, 6 ) ;
#181 = APPROVAL_ROLE ( '' ) ;
#182 = CARTESIAN_POINT ( 'NONE',  ( 0.000000000000000000, 0.000000000000000000, 5.000000000000000000 ) ) ;
#183 = ADVANCED_FACE ( 'NONE', ( #265 ), #167, .T. ) ;
#184 = DIRECTION ( 'NONE',  ( -1.000000000000000000, 0.000000000000000000, 0.000000000000000000 ) ) ;
#185 = PRODUCT_DEFINITION_FORMATION_WITH_SPECIFIED_SOURCE ( 'LIBOVOLNÝ', '', #237, .NOT_KNOWN. ) ;
#186 = CARTESIAN_POINT ( 'NONE',  ( 0.000000000000000000, 0.000000000000000000, 0.000000000000000000 ) ) ;
#187 = CC_DESIGN_PERSON_AND_ORGANIZATION_ASSIGNMENT ( #298, #174, ( #237 ) ) ;
#188 = DIRECTION ( 'NONE',  ( -0.000000000000000000, -0.000000000000000000, -1.000000000000000000 ) ) ;
#189 = CIRCLE ( 'NONE', #231, 3.299999999999999822 ) ;
#190 = PRODUCT_DEFINITION_SHAPE ( 'NONE', 'NONE',  #291 ) ;
#191 = ORIENTED_EDGE ( 'NONE', *, *, #147, .T. ) ;
#192 = ORIENTED_EDGE ( 'NONE', *, *, #177, .T. ) ;
#193 = CC_DESIGN_PERSON_AND_ORGANIZATION_ASSIGNMENT ( #208, #225, ( #291 ) ) ;
#194 = APPROVAL ( #65, 'NEURÈENÝ' ) ;
#195 = DESIGN_CONTEXT ( 'detailed design', #88, 'design' ) ;
#196 = APPLICATION_PROTOCOL_DEFINITION ( 'international standard', 'config_control_design', 1994, #94 ) ;
#197 = VERTEX_POINT ( 'NONE', #49 ) ;
#198 = CARTESIAN_POINT ( 'NONE',  ( 3.299999999999999822, 0.000000000000000000, 4.999999999999991118 ) ) ;
#199 = COORDINATED_UNIVERSAL_TIME_OFFSET ( 1, 0, .AHEAD. ) ;
#200 = DIRECTION ( 'NONE',  ( 0.000000000000000000, -1.000000000000000000, 0.000000000000000000 ) ) ;
#201 = PERSON_AND_ORGANIZATION_ROLE ( 'design_supplier' ) ;
#202 = FACE_OUTER_BOUND ( 'NONE', #150, .T. ) ;
#203 = CLOSED_SHELL ( 'NONE', ( #21, #273, #234, #183, #31, #154, #135, #14, #117 ) ) ;
#204 = DATE_AND_TIME ( #232, #126 ) ;
#205 = EDGE_LOOP ( 'NONE', ( #54, #108 ) ) ;
#206 = CALENDAR_DATE ( 2022, 20, 6 ) ;
#207 = AXIS2_PLACEMENT_3D ( 'NONE', #264, #74, #184 ) ;
#208 = PERSON_AND_ORGANIZATION ( #73, #3 ) ;
#209 = DIRECTION ( 'NONE',  ( 1.000000000000000000, 0.000000000000000000, 0.000000000000000000 ) ) ;
#210 = EDGE_CURVE ( 'NONE', #80, #110, #299, .T. ) ;
#211 = CARTESIAN_POINT ( 'NONE',  ( 3.100000000000000089, 3.796405077356794918E-16, 635.0000000000000000 ) ) ;
#212 = DIRECTION ( 'NONE',  ( 1.224646799147353207E-16, 1.000000000000000000, -0.000000000000000000 ) ) ;
#213 = CIRCLE ( 'NONE', #289, 6.000000000000000888 ) ;
#214 = DIRECTION ( 'NONE',  ( 1.000000000000000000, 0.000000000000000000, 0.000000000000000000 ) ) ;
#215 = AXIS2_PLACEMENT_3D ( 'NONE', #240, #53, #50 ) ;
#216 = ORIENTED_EDGE ( 'NONE', *, *, #255, .F. ) ;
#217 = APPROVAL ( #89, 'NEURÈENÝ' ) ;
#218 = ORIENTED_EDGE ( 'NONE', *, *, #255, .T. ) ;
#219 = CIRCLE ( 'NONE', #51, 3.299999999999999822 ) ;
#220 = EDGE_LOOP ( 'NONE', ( #192, #248 ) ) ;
#221 = VERTEX_POINT ( 'NONE', #99 ) ;
#222 = DIRECTION ( 'NONE',  ( -0.000000000000000000, -0.000000000000000000, -1.000000000000000000 ) ) ;
#223 = CARTESIAN_POINT ( 'NONE',  ( -3.100000000000000089, 0.000000000000000000, 635.0000000000000000 ) ) ;
#224 = VECTOR ( 'NONE', #45, 1000.000000000000000 ) ;
#225 = PERSON_AND_ORGANIZATION_ROLE ( 'creator' ) ;
#226 = CARTESIAN_POINT ( 'NONE',  ( 6.000000000000000888, 7.347880794884120722E-16, 5.000000000000000000 ) ) ;
#227 = AXIS2_PLACEMENT_3D ( 'NONE', #136, #124, #209 ) ;
#228 = PERSON_AND_ORGANIZATION ( #73, #3 ) ;
#229 = CC_DESIGN_PERSON_AND_ORGANIZATION_ASSIGNMENT ( #283, #201, ( #185 ) ) ;
#230 = CARTESIAN_POINT ( 'NONE',  ( -6.000000000000000888, 0.000000000000000000, 0.000000000000000000 ) ) ;
#231 = AXIS2_PLACEMENT_3D ( 'NONE', #233, #236, #23 ) ;
#232 = CALENDAR_DATE ( 2022, 20, 6 ) ;
#233 = CARTESIAN_POINT ( 'NONE',  ( 0.000000000000000000, 0.000000000000000000, 5.000000000000000000 ) ) ;
#234 = ADVANCED_FACE ( 'NONE', ( #6 ), #44, .T. ) ;
#235 = CYLINDRICAL_SURFACE ( 'NONE', #168, 3.100000000000000089 ) ;
#236 = DIRECTION ( 'NONE',  ( -0.000000000000000000, -0.000000000000000000, -1.000000000000000000 ) ) ;
#237 = PRODUCT ( '1290', '1290', '', ( #36 ) ) ;
#238 = TOROIDAL_SURFACE ( 'NONE', #250, 3.299999999999999822, 0.2000000000000000111 ) ;
#239 = EDGE_CURVE ( 'NONE', #98, #243, #252, .T. ) ;
#240 = CARTESIAN_POINT ( 'NONE',  ( 0.000000000000000000, 0.000000000000000000, 635.0000000000000000 ) ) ;
#241 = EDGE_LOOP ( 'NONE', ( #27, #17 ) ) ;
#242 = TOROIDAL_SURFACE ( 'NONE', #303, 3.299999999999999822, 0.2000000000000000111 ) ;
#243 = VERTEX_POINT ( 'NONE', #171 ) ;
#244 = ORIENTED_EDGE ( 'NONE', *, *, #71, .F. ) ;
#245 = CARTESIAN_POINT ( 'NONE',  ( 6.000000000000000888, 7.347880794884120722E-16, 5.000000000000000000 ) ) ;
#246 = ORIENTED_EDGE ( 'NONE', *, *, #46, .T. ) ;
#247 = AXIS2_PLACEMENT_3D ( 'NONE', #186, #260, #76 ) ;
#248 = ORIENTED_EDGE ( 'NONE', *, *, #105, .T. ) ;
#249 = LINE ( 'NONE', #33, #257 ) ;
#250 = AXIS2_PLACEMENT_3D ( 'NONE', #156, #162, #87 ) ;
#251 = PLANE ( 'NONE',  #62 ) ;
#252 = CIRCLE ( 'NONE', #59, 0.2000000000000000944 ) ;
#253 = CARTESIAN_POINT ( 'NONE',  ( 0.000000000000000000, 0.000000000000000000, 0.000000000000000000 ) ) ;
#254 = FACE_BOUND ( 'NONE', #134, .T. ) ;
#255 = EDGE_CURVE ( 'NONE', #80, #293, #133, .T. ) ;
#256 = DIRECTION ( 'NONE',  ( 0.000000000000000000, 0.000000000000000000, 1.000000000000000000 ) ) ;
#257 = VECTOR ( 'NONE', #222, 1000.000000000000000 ) ;
#258 = DIRECTION ( 'NONE',  ( 0.000000000000000000, 0.000000000000000000, 1.000000000000000000 ) ) ;
#259 = APPROVAL_DATE_TIME ( #113, #194 ) ;
#260 = DIRECTION ( 'NONE',  ( 0.000000000000000000, 0.000000000000000000, 1.000000000000000000 ) ) ;
#261 = APPROVAL_ROLE ( '' ) ;
#262 = SECURITY_CLASSIFICATION ( '', '', #178 ) ;
#263 = DIRECTION ( 'NONE',  ( 0.000000000000000000, 0.000000000000000000, 1.000000000000000000 ) ) ;
#264 = CARTESIAN_POINT ( 'NONE',  ( 0.000000000000000000, 0.000000000000000000, 5.000000000000000000 ) ) ;
#265 = FACE_OUTER_BOUND ( 'NONE', #276, .T. ) ;
#266 = CYLINDRICAL_SURFACE ( 'NONE', #215, 3.100000000000000089 ) ;
#267 = LOCAL_TIME ( 11, 55, 26.00000000000000000, #286 ) ;
#268 = EDGE_CURVE ( 'NONE', #81, #98, #170, .T. ) ;
#269 = ORIENTED_EDGE ( 'NONE', *, *, #239, .T. ) ;
#270 = ORIENTED_EDGE ( 'NONE', *, *, #147, .F. ) ;
#271 = APPLICATION_PROTOCOL_DEFINITION ( 'international standard', 'config_control_design', 1994, #88 ) ;
#272 = LOCAL_TIME ( 11, 55, 26.00000000000000000, #140 ) ;
#273 = ADVANCED_FACE ( 'NONE', ( #58 ), #266, .T. ) ;
#274 = DIRECTION ( 'NONE',  ( 0.000000000000000000, 0.000000000000000000, 1.000000000000000000 ) ) ;
#275 = DIRECTION ( 'NONE',  ( 1.000000000000000000, 0.000000000000000000, 0.000000000000000000 ) ) ;
#276 = EDGE_LOOP ( 'NONE', ( #216, #157, #85, #179 ) ) ;
#277 = CARTESIAN_POINT ( 'NONE',  ( 6.000000000000000888, 7.347880794884120722E-16, 0.000000000000000000 ) ) ;
#278 = CARTESIAN_POINT ( 'NONE',  ( 0.000000000000000000, 0.000000000000000000, 635.0000000000000000 ) ) ;
#279 = EDGE_CURVE ( 'NONE', #98, #221, #122, .T. ) ;
#280 = PERSON_AND_ORGANIZATION ( #73, #3 ) ;
#281 = CARTESIAN_POINT ( 'NONE',  ( 0.000000000000000000, 0.000000000000000000, 0.000000000000000000 ) ) ;
#282 = FACE_OUTER_BOUND ( 'NONE', #220, .T. ) ;
#283 = PERSON_AND_ORGANIZATION ( #73, #3 ) ;
#284 = COORDINATED_UNIVERSAL_TIME_OFFSET ( 1, 0, .AHEAD. ) ;
#285 = DIRECTION ( 'NONE',  ( 1.000000000000000000, 0.000000000000000000, -0.000000000000000000 ) ) ;
#286 = COORDINATED_UNIVERSAL_TIME_OFFSET ( 1, 0, .AHEAD. ) ;
#287 = DIRECTION ( 'NONE',  ( -1.000000000000000000, 1.224646799147353207E-16, 0.000000000000000000 ) ) ;
#288 = VECTOR ( 'NONE', #109, 1000.000000000000000 ) ;
#289 = AXIS2_PLACEMENT_3D ( 'NONE', #15, #258, #10 ) ;
#290 = DIRECTION ( 'NONE',  ( -1.000000000000000000, 0.000000000000000000, 0.000000000000000000 ) ) ;
#291 = PRODUCT_DEFINITION ( 'NEZNÁMÝ', '', #185, #195 ) ;
#292 = CC_DESIGN_APPROVAL ( #194, ( #262 ) ) ;
#293 = VERTEX_POINT ( 'NONE', #277 ) ;
#294 = CC_DESIGN_PERSON_AND_ORGANIZATION_ASSIGNMENT ( #13, #137, ( #185 ) ) ;
#295 = VERTEX_POINT ( 'NONE', #198 ) ;
#296 = AXIS2_PLACEMENT_3D ( 'NONE', #75, #102, #77 ) ;
#297 = ORIENTED_EDGE ( 'NONE', *, *, #9, .F. ) ;
#298 = PERSON_AND_ORGANIZATION ( #73, #3 ) ;
#299 = CIRCLE ( 'NONE', #30, 6.000000000000000888 ) ;
#300 = CARTESIAN_POINT ( 'NONE',  ( -3.100000000000000089, 0.000000000000000000, 5.199999999999982414 ) ) ;
#301 = DIRECTION ( 'NONE',  ( 1.000000000000000000, 0.000000000000000000, 0.000000000000000000 ) ) ;
#302 = DATE_TIME_ROLE ( 'classification_date' ) ;
#303 = AXIS2_PLACEMENT_3D ( 'NONE', #24, #164, #146 ) ;
#304 = DIRECTION ( 'NONE',  ( -0.000000000000000000, -0.000000000000000000, -1.000000000000000000 ) ) ;
#305 = SHAPE_DEFINITION_REPRESENTATION ( #190, #86 ) ;
#306 = CALENDAR_DATE ( 2022, 20, 6 ) ;
#307 = EDGE_LOOP ( 'NONE', ( #26, #67, #176, #173 ) ) ;
ENDSEC;
END-ISO-10303-21;
