ISO-10303-21;
HEADER;
FILE_DESCRIPTION (( 'STEP AP203' ),
    '1' );
FILE_NAME ('b217.STEP',
    '2022-06-20T10:23:08',
    ( '' ),
    ( '' ),
    'SwSTEP 2.0',
    'SolidWorks 2019',
    '' );
FILE_SCHEMA (( 'CONFIG_CONTROL_DESIGN' ));
ENDSEC;

DATA;
#1 = DIRECTION ( 'NONE',  ( 0.000000000000000000, 0.000000000000000000, 1.000000000000000000 ) ) ;
#2 = CARTESIAN_POINT ( 'NONE',  ( 0.000000000000000000, 0.000000000000000000, 126.5000000000000000 ) ) ;
#3 = FACE_OUTER_BOUND ( 'NONE', #74, .T. ) ;
#4 = PRODUCT_DEFINITION_FORMATION_WITH_SPECIFIED_SOURCE ( 'LIBOVOLNÝ', '', #63, .NOT_KNOWN. ) ;
#5 = FACE_OUTER_BOUND ( 'NONE', #283, .T. ) ;
#6 = DIRECTION ( 'NONE',  ( -0.000000000000000000, -0.000000000000000000, -1.000000000000000000 ) ) ;
#7 = MANIFOLD_SOLID_BREP ( 'Zaoblit1', #105 ) ;
#8 = PLANE ( 'NONE',  #184 ) ;
#9 = DIRECTION ( 'NONE',  ( 1.000000000000000000, 0.000000000000000000, 0.000000000000000000 ) ) ;
#10 = AXIS2_PLACEMENT_3D ( 'NONE', #26, #276, #130 ) ;
#11 = EDGE_CURVE ( 'NONE', #230, #159, #304, .T. ) ;
#12 = LINE ( 'NONE', #202, #45 ) ;
#13 = DIRECTION ( 'NONE',  ( 1.000000000000000000, 0.000000000000000000, 0.000000000000000000 ) ) ;
#14 = ORIENTED_EDGE ( 'NONE', *, *, #268, .T. ) ;
#15 = PERSON_AND_ORGANIZATION ( #111, #42 ) ;
#16 = DATE_TIME_ROLE ( 'creation_date' ) ;
#17 = CC_DESIGN_PERSON_AND_ORGANIZATION_ASSIGNMENT ( #169, #69, ( #4 ) ) ;
#18 = AXIS2_PLACEMENT_3D ( 'NONE', #297, #126, #176 ) ;
#19 = VERTEX_POINT ( 'NONE', #155 ) ;
#20 = ORIENTED_EDGE ( 'NONE', *, *, #75, .T. ) ;
#21 = VERTEX_POINT ( 'NONE', #182 ) ;
#22 = ORIENTED_EDGE ( 'NONE', *, *, #152, .T. ) ;
#23 = CARTESIAN_POINT ( 'NONE',  ( -0.7500000000000001110, 0.000000000000000000, 126.5000000000000000 ) ) ;
#24 = DIRECTION ( 'NONE',  ( 0.000000000000000000, 0.000000000000000000, 1.000000000000000000 ) ) ;
#25 = CC_DESIGN_PERSON_AND_ORGANIZATION_ASSIGNMENT ( #15, #103, ( #235 ) ) ;
#26 = CARTESIAN_POINT ( 'NONE',  ( -0.9500000000000000666, 1.163414459189985682E-16, 1.700000000000007061 ) ) ;
#27 = EDGE_CURVE ( 'NONE', #178, #159, #238, .T. ) ;
#28 = EDGE_CURVE ( 'NONE', #19, #21, #256, .T. ) ;
#29 = APPROVAL_ROLE ( '' ) ;
#30 = DIRECTION ( 'NONE',  ( -0.000000000000000000, -0.000000000000000000, -1.000000000000000000 ) ) ;
#31 = AXIS2_PLACEMENT_3D ( 'NONE', #222, #47, #195 ) ;
#32 = VERTEX_POINT ( 'NONE', #84 ) ;
#33 = CALENDAR_DATE ( 2022, 20, 6 ) ;
#34 = CIRCLE ( 'NONE', #247, 0.7500000000000001110 ) ;
#35 = DIRECTION ( 'NONE',  ( 0.000000000000000000, 0.000000000000000000, 1.000000000000000000 ) ) ;
#36 = ORIENTED_EDGE ( 'NONE', *, *, #28, .T. ) ;
#37 = CARTESIAN_POINT ( 'NONE',  ( 0.7500000000000001110, 9.184850993605150903E-17, 1.700000000000007061 ) ) ;
#38 = EDGE_CURVE ( 'NONE', #19, #32, #262, .T. ) ;
#39 = APPROVAL_STATUS ( 'not_yet_approved' ) ;
#40 = VERTEX_POINT ( 'NONE', #37 ) ;
#41 = ORIENTED_EDGE ( 'NONE', *, *, #197, .T. ) ;
#42 = ORGANIZATION ( 'NEURÈENÝ', 'NEURÈENÝ', '' ) ;
#43 = VERTEX_POINT ( 'NONE', #112 ) ;
#44 = PLANE ( 'NONE',  #151 ) ;
#45 = VECTOR ( 'NONE', #147, 1000.000000000000000 ) ;
#46 = CYLINDRICAL_SURFACE ( 'NONE', #120, 1.500000000000000222 ) ;
#47 = DIRECTION ( 'NONE',  ( 0.000000000000000000, -1.000000000000000000, 0.000000000000000000 ) ) ;
#48 = APPROVAL_PERSON_ORGANIZATION ( #171, #158, #29 ) ;
#49 = SECURITY_CLASSIFICATION_LEVEL ( 'unclassified' ) ;
#50 = COORDINATED_UNIVERSAL_TIME_OFFSET ( 1, 0, .AHEAD. ) ;
#51 = EDGE_LOOP ( 'NONE', ( #302, #20 ) ) ;
#52 = TOROIDAL_SURFACE ( 'NONE', #89, 0.9500000000000000666, 0.2000000000000000111 ) ;
#53 = PERSON_AND_ORGANIZATION ( #111, #42 ) ;
#54 = ADVANCED_FACE ( 'NONE', ( #110 ), #137, .T. ) ;
#55 = ORIENTED_EDGE ( 'NONE', *, *, #288, .F. ) ;
#56 = CARTESIAN_POINT ( 'NONE',  ( 0.000000000000000000, 0.000000000000000000, 1.700000000000007061 ) ) ;
#57 = VERTEX_POINT ( 'NONE', #58 ) ;
#58 = CARTESIAN_POINT ( 'NONE',  ( 0.9500000000000000666, 0.000000000000000000, 1.500000000000003553 ) ) ;
#59 = ORIENTED_EDGE ( 'NONE', *, *, #197, .F. ) ;
#60 = ORIENTED_EDGE ( 'NONE', *, *, #133, .T. ) ;
#61 = CIRCLE ( 'NONE', #294, 0.9500000000000000666 ) ;
#62 = DIRECTION ( 'NONE',  ( 0.000000000000000000, 0.000000000000000000, 1.000000000000000000 ) ) ;
#63 = PRODUCT ( 'b217', 'b217', '', ( #124 ) ) ;
#64 = CARTESIAN_POINT ( 'NONE',  ( 0.000000000000000000, 0.000000000000000000, 126.5000000000000000 ) ) ;
#65 = CARTESIAN_POINT ( 'NONE',  ( 0.000000000000000000, 0.000000000000000000, 1.500000000000000000 ) ) ;
#66 = DIRECTION ( 'NONE',  ( -1.000000000000000000, 0.000000000000000000, 0.000000000000000000 ) ) ;
#67 = DIRECTION ( 'NONE',  ( -1.000000000000000000, 0.000000000000000000, 0.000000000000000000 ) ) ;
#68 = PERSON_AND_ORGANIZATION_ROLE ( 'creator' ) ;
#69 = PERSON_AND_ORGANIZATION_ROLE ( 'creator' ) ;
#70 = ADVANCED_FACE ( 'NONE', ( #88 ), #306, .T. ) ;
#71 = CC_DESIGN_DATE_AND_TIME_ASSIGNMENT ( #245, #16, ( #82 ) ) ;
#72 = AXIS2_PLACEMENT_3D ( 'NONE', #186, #113, #289 ) ;
#73 = CALENDAR_DATE ( 2022, 20, 6 ) ;
#74 = EDGE_LOOP ( 'NONE', ( #257, #140, #296, #179 ) ) ;
#75 = EDGE_CURVE ( 'NONE', #230, #102, #206, .T. ) ;
#76 = COORDINATED_UNIVERSAL_TIME_OFFSET ( 1, 0, .AHEAD. ) ;
#77 = AXIS2_PLACEMENT_3D ( 'NONE', #219, #93, #9 ) ;
#78 = ADVANCED_FACE ( 'NONE', ( #146 ), #196, .F. ) ;
#79 = COORDINATED_UNIVERSAL_TIME_OFFSET ( 1, 0, .AHEAD. ) ;
#80 = AXIS2_PLACEMENT_3D ( 'NONE', #165, #94, #187 ) ;
#81 = DIRECTION ( 'NONE',  ( 1.000000000000000000, 0.000000000000000000, 0.000000000000000000 ) ) ;
#82 = PRODUCT_DEFINITION ( 'NEZNÁMÝ', '', #4, #150 ) ;
#83 = CC_DESIGN_PERSON_AND_ORGANIZATION_ASSIGNMENT ( #170, #127, ( #4 ) ) ;
#84 = CARTESIAN_POINT ( 'NONE',  ( -0.7500000000000001110, 0.000000000000000000, 1.700000000000007061 ) ) ;
#85 = CARTESIAN_POINT ( 'NONE',  ( 0.000000000000000000, 0.000000000000000000, 126.5000000000000000 ) ) ;
#86 = VECTOR ( 'NONE', #210, 1000.000000000000000 ) ;
#87 = EDGE_LOOP ( 'NONE', ( #60, #22 ) ) ;
#88 = FACE_OUTER_BOUND ( 'NONE', #282, .T. ) ;
#89 = AXIS2_PLACEMENT_3D ( 'NONE', #118, #35, #300 ) ;
#90 = CARTESIAN_POINT ( 'NONE',  ( 0.000000000000000000, 0.000000000000000000, 0.000000000000000000 ) ) ;
#91 = CARTESIAN_POINT ( 'NONE',  ( 0.000000000000000000, 0.000000000000000000, 1.700000000000007061 ) ) ;
#92 = DIRECTION ( 'NONE',  ( 1.000000000000000000, 0.000000000000000000, -0.000000000000000000 ) ) ;
#93 = DIRECTION ( 'NONE',  ( 0.000000000000000000, 0.000000000000000000, 1.000000000000000000 ) ) ;
#94 = DIRECTION ( 'NONE',  ( 0.000000000000000000, 0.000000000000000000, 1.000000000000000000 ) ) ;
#95 = FACE_OUTER_BOUND ( 'NONE', #51, .T. ) ;
#96 = LOCAL_TIME ( 12, 23, 8.000000000000000000, #79 ) ;
#97 =( LENGTH_UNIT ( ) NAMED_UNIT ( * ) SI_UNIT ( .MILLI., .METRE. ) );
#98 = AXIS2_PLACEMENT_3D ( 'NONE', #265, #258, #142 ) ;
#99 = EDGE_CURVE ( 'NONE', #102, #230, #125, .T. ) ;
#100 = COORDINATED_UNIVERSAL_TIME_OFFSET ( 1, 0, .AHEAD. ) ;
#101 = APPLICATION_PROTOCOL_DEFINITION ( 'international standard', 'config_control_design', 1994, #241 ) ;
#102 = VERTEX_POINT ( 'NONE', #270 ) ;
#103 = PERSON_AND_ORGANIZATION_ROLE ( 'classification_officer' ) ;
#104 = ADVANCED_FACE ( 'NONE', ( #123 ), #46, .T. ) ;
#105 = CLOSED_SHELL ( 'NONE', ( #78, #54, #104, #201, #216, #203, #70, #189, #260 ) ) ;
#106 = CC_DESIGN_APPROVAL ( #108, ( #235 ) ) ;
#107 = CARTESIAN_POINT ( 'NONE',  ( 0.000000000000000000, 0.000000000000000000, 0.000000000000000000 ) ) ;
#108 = APPROVAL ( #39, 'NEURÈENÝ' ) ;
#109 = DIRECTION ( 'NONE',  ( -0.000000000000000000, -0.000000000000000000, -1.000000000000000000 ) ) ;
#110 = FACE_OUTER_BOUND ( 'NONE', #251, .T. ) ;
#111 = PERSON ( 'NEURÈENÝ', 'NEURÈENÝ', 'NEURÈENÝ', ('NEURÈENÝ'), ('NEURÈENÝ'), ('NEURÈENÝ') ) ;
#112 = CARTESIAN_POINT ( 'NONE',  ( -0.9500000000000000666, 1.163414459189985682E-16, 1.500000000000003553 ) ) ;
#113 = DIRECTION ( 'NONE',  ( 0.000000000000000000, 0.000000000000000000, 1.000000000000000000 ) ) ;
#114 = AXIS2_PLACEMENT_3D ( 'NONE', #85, #30, #119 ) ;
#115 = DIRECTION ( 'NONE',  ( -0.000000000000000000, -0.000000000000000000, -1.000000000000000000 ) ) ;
#116 = DIRECTION ( 'NONE',  ( 1.000000000000000000, 0.000000000000000000, 0.000000000000000000 ) ) ;
#117 = CIRCLE ( 'NONE', #10, 0.2000000000000000944 ) ;
#118 = CARTESIAN_POINT ( 'NONE',  ( 0.000000000000000000, 0.000000000000000000, 1.700000000000007061 ) ) ;
#119 = DIRECTION ( 'NONE',  ( -1.000000000000000000, 0.000000000000000000, 0.000000000000000000 ) ) ;
#120 = AXIS2_PLACEMENT_3D ( 'NONE', #65, #163, #67 ) ;
#121 = CALENDAR_DATE ( 2022, 20, 6 ) ;
#122 = LOCAL_TIME ( 12, 23, 8.000000000000000000, #225 ) ;
#123 = FACE_OUTER_BOUND ( 'NONE', #213, .T. ) ;
#124 = MECHANICAL_CONTEXT ( 'NONE', #166, 'mechanical' ) ;
#125 = CIRCLE ( 'NONE', #80, 1.500000000000000222 ) ;
#126 = DIRECTION ( 'NONE',  ( 0.000000000000000000, 0.000000000000000000, 1.000000000000000000 ) ) ;
#127 = PERSON_AND_ORGANIZATION_ROLE ( 'design_supplier' ) ;
#128 = EDGE_CURVE ( 'NONE', #21, #40, #164, .T. ) ;
#129 = APPROVAL_PERSON_ORGANIZATION ( #156, #108, #261 ) ;
#130 = DIRECTION ( 'NONE',  ( -1.000000000000000000, 1.224646799147353207E-16, 0.000000000000000000 ) ) ;
#131 = AXIS2_PLACEMENT_3D ( 'NONE', #2, #109, #180 ) ;
#132 = EDGE_CURVE ( 'NONE', #159, #178, #278, .T. ) ;
#133 = EDGE_CURVE ( 'NONE', #57, #43, #61, .T. ) ;
#134 = LOCAL_TIME ( 12, 23, 8.000000000000000000, #50 ) ;
#135 = ORIENTED_EDGE ( 'NONE', *, *, #11, .T. ) ;
#136 = DIRECTION ( 'NONE',  ( 0.000000000000000000, 0.000000000000000000, 1.000000000000000000 ) ) ;
#137 = CYLINDRICAL_SURFACE ( 'NONE', #131, 0.7500000000000001110 ) ;
#138 = ORIENTED_EDGE ( 'NONE', *, *, #175, .T. ) ;
#139 = APPROVAL_DATE_TIME ( #239, #108 ) ;
#140 = ORIENTED_EDGE ( 'NONE', *, *, #99, .F. ) ;
#141 =( GEOMETRIC_REPRESENTATION_CONTEXT ( 3 ) GLOBAL_UNCERTAINTY_ASSIGNED_CONTEXT ( ( #277 ) ) GLOBAL_UNIT_ASSIGNED_CONTEXT ( ( #97, #250, #279 ) ) REPRESENTATION_CONTEXT ( 'NONE', 'WORKASPACE' ) );
#142 = DIRECTION ( 'NONE',  ( 1.000000000000000000, 0.000000000000000000, 0.000000000000000000 ) ) ;
#143 = FACE_OUTER_BOUND ( 'NONE', #231, .T. ) ;
#144 = DIRECTION ( 'NONE',  ( 1.000000000000000000, 0.000000000000000000, -0.000000000000000000 ) ) ;
#145 = DIRECTION ( 'NONE',  ( 1.000000000000000000, 0.000000000000000000, -0.000000000000000000 ) ) ;
#146 = FACE_OUTER_BOUND ( 'NONE', #284, .T. ) ;
#147 = DIRECTION ( 'NONE',  ( -0.000000000000000000, -0.000000000000000000, -1.000000000000000000 ) ) ;
#148 = ORIENTED_EDGE ( 'NONE', *, *, #132, .T. ) ;
#149 = PERSON_AND_ORGANIZATION ( #111, #42 ) ;
#150 = DESIGN_CONTEXT ( 'detailed design', #241, 'design' ) ;
#151 = AXIS2_PLACEMENT_3D ( 'NONE', #64, #269, #144 ) ;
#152 = EDGE_CURVE ( 'NONE', #43, #57, #215, .T. ) ;
#153 = ORIENTED_EDGE ( 'NONE', *, *, #38, .F. ) ;
#154 = DATE_AND_TIME ( #281, #96 ) ;
#155 = CARTESIAN_POINT ( 'NONE',  ( -0.7500000000000001110, 0.000000000000000000, 126.5000000000000000 ) ) ;
#156 = PERSON_AND_ORGANIZATION ( #111, #42 ) ;
#157 = ORIENTED_EDGE ( 'NONE', *, *, #128, .T. ) ;
#158 = APPROVAL ( #220, 'NEURÈENÝ' ) ;
#159 = VERTEX_POINT ( 'NONE', #280 ) ;
#160 = ORIENTED_EDGE ( 'NONE', *, *, #27, .F. ) ;
#161 = CC_DESIGN_APPROVAL ( #158, ( #4 ) ) ;
#162 = CARTESIAN_POINT ( 'NONE',  ( 1.500000000000000222, 1.836970198721030181E-16, 1.500000000000000000 ) ) ;
#163 = DIRECTION ( 'NONE',  ( -0.000000000000000000, -0.000000000000000000, -1.000000000000000000 ) ) ;
#164 = LINE ( 'NONE', #244, #207 ) ;
#165 = CARTESIAN_POINT ( 'NONE',  ( 0.000000000000000000, 0.000000000000000000, 1.500000000000000000 ) ) ;
#166 = APPLICATION_CONTEXT ( 'configuration controlled 3d designs of mechanical parts and assemblies' ) ;
#167 = DIRECTION ( 'NONE',  ( 1.000000000000000000, 0.000000000000000000, 0.000000000000000000 ) ) ;
#168 = AXIS2_PLACEMENT_3D ( 'NONE', #290, #24, #116 ) ;
#169 = PERSON_AND_ORGANIZATION ( #111, #42 ) ;
#170 = PERSON_AND_ORGANIZATION ( #111, #42 ) ;
#171 = PERSON_AND_ORGANIZATION ( #111, #42 ) ;
#172 = ORIENTED_EDGE ( 'NONE', *, *, #132, .F. ) ;
#173 = PRODUCT_RELATED_PRODUCT_CATEGORY ( 'detail', '', ( #63 ) ) ;
#174 = ORIENTED_EDGE ( 'NONE', *, *, #28, .F. ) ;
#175 = EDGE_CURVE ( 'NONE', #40, #32, #193, .T. ) ;
#176 = DIRECTION ( 'NONE',  ( 1.000000000000000000, 0.000000000000000000, 0.000000000000000000 ) ) ;
#177 = CIRCLE ( 'NONE', #31, 0.2000000000000000944 ) ;
#178 = VERTEX_POINT ( 'NONE', #191 ) ;
#179 = ORIENTED_EDGE ( 'NONE', *, *, #27, .T. ) ;
#180 = DIRECTION ( 'NONE',  ( -1.000000000000000000, 0.000000000000000000, 0.000000000000000000 ) ) ;
#181 = ORIENTED_EDGE ( 'NONE', *, *, #275, .F. ) ;
#182 = CARTESIAN_POINT ( 'NONE',  ( 0.7500000000000001110, 9.184850993605150903E-17, 126.5000000000000000 ) ) ;
#183 = ORIENTED_EDGE ( 'NONE', *, *, #38, .T. ) ;
#184 = AXIS2_PLACEMENT_3D ( 'NONE', #90, #1, #92 ) ;
#185 = CC_DESIGN_DATE_AND_TIME_ASSIGNMENT ( #154, #303, ( #235 ) ) ;
#186 = CARTESIAN_POINT ( 'NONE',  ( 0.000000000000000000, 0.000000000000000000, 126.5000000000000000 ) ) ;
#187 = DIRECTION ( 'NONE',  ( 1.000000000000000000, 0.000000000000000000, 0.000000000000000000 ) ) ;
#188 = FACE_BOUND ( 'NONE', #87, .T. ) ;
#189 = ADVANCED_FACE ( 'NONE', ( #271 ), #44, .T. ) ;
#190 = DIRECTION ( 'NONE',  ( -0.000000000000000000, -0.000000000000000000, -1.000000000000000000 ) ) ;
#191 = CARTESIAN_POINT ( 'NONE',  ( -1.500000000000000222, 0.000000000000000000, 0.000000000000000000 ) ) ;
#192 = CARTESIAN_POINT ( 'NONE',  ( 0.000000000000000000, 0.000000000000000000, 1.500000000000000000 ) ) ;
#193 = CIRCLE ( 'NONE', #229, 0.7500000000000001110 ) ;
#194 = CARTESIAN_POINT ( 'NONE',  ( 0.000000000000000000, 0.000000000000000000, 1.500000000000000000 ) ) ;
#195 = DIRECTION ( 'NONE',  ( 0.000000000000000000, 0.000000000000000000, -1.000000000000000000 ) ) ;
#196 = TOROIDAL_SURFACE ( 'NONE', #221, 0.9500000000000000666, 0.2000000000000000111 ) ;
#197 = EDGE_CURVE ( 'NONE', #32, #40, #34, .T. ) ;
#198 = APPROVAL_DATE_TIME ( #254, #263 ) ;
#199 = CC_DESIGN_SECURITY_CLASSIFICATION ( #235, ( #4 ) ) ;
#200 = APPROVAL_STATUS ( 'not_yet_approved' ) ;
#201 = ADVANCED_FACE ( 'NONE', ( #3 ), #266, .T. ) ;
#202 = CARTESIAN_POINT ( 'NONE',  ( -1.500000000000000222, 0.000000000000000000, 1.500000000000000000 ) ) ;
#203 = ADVANCED_FACE ( 'NONE', ( #5 ), #8, .F. ) ;
#204 = APPLICATION_PROTOCOL_DEFINITION ( 'international standard', 'config_control_design', 1994, #166 ) ;
#205 = DIRECTION ( 'NONE',  ( 0.000000000000000000, 0.000000000000000000, 1.000000000000000000 ) ) ;
#206 = CIRCLE ( 'NONE', #168, 1.500000000000000222 ) ;
#207 = VECTOR ( 'NONE', #6, 1000.000000000000000 ) ;
#208 = ORIENTED_EDGE ( 'NONE', *, *, #152, .F. ) ;
#209 = APPROVAL_PERSON_ORGANIZATION ( #295, #263, #293 ) ;
#210 = DIRECTION ( 'NONE',  ( -0.000000000000000000, -0.000000000000000000, -1.000000000000000000 ) ) ;
#211 = ORIENTED_EDGE ( 'NONE', *, *, #234, .T. ) ;
#212 = CARTESIAN_POINT ( 'NONE',  ( 0.000000000000000000, 0.000000000000000000, 1.700000000000007061 ) ) ;
#213 = EDGE_LOOP ( 'NONE', ( #237, #135, #148, #181 ) ) ;
#214 = CARTESIAN_POINT ( 'NONE',  ( 0.000000000000000000, 0.000000000000000000, 1.500000000000000000 ) ) ;
#215 = CIRCLE ( 'NONE', #272, 0.9500000000000000666 ) ;
#216 = ADVANCED_FACE ( 'NONE', ( #188, #95 ), #243, .T. ) ;
#217 = AXIS2_PLACEMENT_3D ( 'NONE', #107, #205, #81 ) ;
#218 = CARTESIAN_POINT ( 'NONE',  ( 0.000000000000000000, 0.000000000000000000, 1.500000000000000000 ) ) ;
#219 = CARTESIAN_POINT ( 'NONE',  ( 0.000000000000000000, 0.000000000000000000, 0.000000000000000000 ) ) ;
#220 = APPROVAL_STATUS ( 'not_yet_approved' ) ;
#221 = AXIS2_PLACEMENT_3D ( 'NONE', #91, #246, #267 ) ;
#222 = CARTESIAN_POINT ( 'NONE',  ( 0.9500000000000000666, 0.000000000000000000, 1.700000000000007061 ) ) ;
#223 = ORIENTED_EDGE ( 'NONE', *, *, #175, .F. ) ;
#224 = CIRCLE ( 'NONE', #72, 0.7500000000000001110 ) ;
#225 = COORDINATED_UNIVERSAL_TIME_OFFSET ( 1, 0, .AHEAD. ) ;
#226 = PERSON_AND_ORGANIZATION_ROLE ( 'design_owner' ) ;
#227 = CC_DESIGN_PERSON_AND_ORGANIZATION_ASSIGNMENT ( #53, #68, ( #82 ) ) ;
#228 = VECTOR ( 'NONE', #115, 1000.000000000000000 ) ;
#229 = AXIS2_PLACEMENT_3D ( 'NONE', #56, #136, #167 ) ;
#230 = VERTEX_POINT ( 'NONE', #162 ) ;
#231 = EDGE_LOOP ( 'NONE', ( #299, #223, #236, #208 ) ) ;
#232 = EDGE_LOOP ( 'NONE', ( #36, #211 ) ) ;
#233 = SHAPE_DEFINITION_REPRESENTATION ( #249, #242 ) ;
#234 = EDGE_CURVE ( 'NONE', #21, #19, #224, .T. ) ;
#235 = SECURITY_CLASSIFICATION ( '', '', #49 ) ;
#236 = ORIENTED_EDGE ( 'NONE', *, *, #288, .T. ) ;
#237 = ORIENTED_EDGE ( 'NONE', *, *, #75, .F. ) ;
#238 = CIRCLE ( 'NONE', #217, 1.500000000000000222 ) ;
#239 = DATE_AND_TIME ( #255, #305 ) ;
#240 = DIRECTION ( 'NONE',  ( 1.000000000000000000, 0.000000000000000000, 0.000000000000000000 ) ) ;
#241 = APPLICATION_CONTEXT ( 'configuration controlled 3d designs of mechanical parts and assemblies' ) ;
#242 = ADVANCED_BREP_SHAPE_REPRESENTATION ( 'b217', ( #7, #18 ), #141 ) ;
#243 = PLANE ( 'NONE',  #248 ) ;
#244 = CARTESIAN_POINT ( 'NONE',  ( 0.7500000000000001110, 9.184850993605150903E-17, 126.5000000000000000 ) ) ;
#245 = DATE_AND_TIME ( #73, #122 ) ;
#246 = DIRECTION ( 'NONE',  ( 0.000000000000000000, 0.000000000000000000, 1.000000000000000000 ) ) ;
#247 = AXIS2_PLACEMENT_3D ( 'NONE', #212, #62, #240 ) ;
#248 = AXIS2_PLACEMENT_3D ( 'NONE', #194, #292, #145 ) ;
#249 = PRODUCT_DEFINITION_SHAPE ( 'NONE', 'NONE',  #82 ) ;
#250 =( NAMED_UNIT ( * ) PLANE_ANGLE_UNIT ( ) SI_UNIT ( $, .RADIAN. ) );
#251 = EDGE_LOOP ( 'NONE', ( #285, #157, #138, #153 ) ) ;
#252 = DATE_AND_TIME ( #121, #301 ) ;
#253 = AXIS2_PLACEMENT_3D ( 'NONE', #214, #291, #66 ) ;
#254 = DATE_AND_TIME ( #33, #134 ) ;
#255 = CALENDAR_DATE ( 2022, 20, 6 ) ;
#256 = CIRCLE ( 'NONE', #98, 0.7500000000000001110 ) ;
#257 = ORIENTED_EDGE ( 'NONE', *, *, #11, .F. ) ;
#258 = DIRECTION ( 'NONE',  ( 0.000000000000000000, 0.000000000000000000, 1.000000000000000000 ) ) ;
#259 = ORIENTED_EDGE ( 'NONE', *, *, #133, .F. ) ;
#260 = ADVANCED_FACE ( 'NONE', ( #143 ), #52, .F. ) ;
#261 = APPROVAL_ROLE ( '' ) ;
#262 = LINE ( 'NONE', #23, #228 ) ;
#263 = APPROVAL ( #200, 'NEURÈENÝ' ) ;
#264 = CC_DESIGN_APPROVAL ( #263, ( #82 ) ) ;
#265 = CARTESIAN_POINT ( 'NONE',  ( 0.000000000000000000, 0.000000000000000000, 126.5000000000000000 ) ) ;
#266 = CYLINDRICAL_SURFACE ( 'NONE', #253, 1.500000000000000222 ) ;
#267 = DIRECTION ( 'NONE',  ( 1.000000000000000000, 0.000000000000000000, 0.000000000000000000 ) ) ;
#268 = EDGE_CURVE ( 'NONE', #32, #43, #117, .T. ) ;
#269 = DIRECTION ( 'NONE',  ( 0.000000000000000000, 0.000000000000000000, 1.000000000000000000 ) ) ;
#270 = CARTESIAN_POINT ( 'NONE',  ( -1.500000000000000222, 0.000000000000000000, 1.500000000000000000 ) ) ;
#271 = FACE_OUTER_BOUND ( 'NONE', #232, .T. ) ;
#272 = AXIS2_PLACEMENT_3D ( 'NONE', #192, #287, #298 ) ;
#273 = APPROVAL_DATE_TIME ( #252, #158 ) ;
#274 = ORIENTED_EDGE ( 'NONE', *, *, #128, .F. ) ;
#275 = EDGE_CURVE ( 'NONE', #102, #178, #12, .T. ) ;
#276 = DIRECTION ( 'NONE',  ( 1.224646799147353207E-16, 1.000000000000000000, -0.000000000000000000 ) ) ;
#277 = UNCERTAINTY_MEASURE_WITH_UNIT (LENGTH_MEASURE( 1.000000000000000082E-05 ), #97, 'distance_accuracy_value', 'NONE');
#278 = CIRCLE ( 'NONE', #77, 1.500000000000000222 ) ;
#279 =( NAMED_UNIT ( * ) SI_UNIT ( $, .STERADIAN. ) SOLID_ANGLE_UNIT ( ) );
#280 = CARTESIAN_POINT ( 'NONE',  ( 1.500000000000000222, 1.836970198721030181E-16, 0.000000000000000000 ) ) ;
#281 = CALENDAR_DATE ( 2022, 20, 6 ) ;
#282 = EDGE_LOOP ( 'NONE', ( #274, #174, #183, #41 ) ) ;
#283 = EDGE_LOOP ( 'NONE', ( #160, #172 ) ) ;
#284 = EDGE_LOOP ( 'NONE', ( #59, #14, #259, #55 ) ) ;
#285 = ORIENTED_EDGE ( 'NONE', *, *, #234, .F. ) ;
#286 = CC_DESIGN_PERSON_AND_ORGANIZATION_ASSIGNMENT ( #149, #226, ( #63 ) ) ;
#287 = DIRECTION ( 'NONE',  ( -0.000000000000000000, -0.000000000000000000, -1.000000000000000000 ) ) ;
#288 = EDGE_CURVE ( 'NONE', #40, #57, #177, .T. ) ;
#289 = DIRECTION ( 'NONE',  ( 1.000000000000000000, 0.000000000000000000, 0.000000000000000000 ) ) ;
#290 = CARTESIAN_POINT ( 'NONE',  ( 0.000000000000000000, 0.000000000000000000, 1.500000000000000000 ) ) ;
#291 = DIRECTION ( 'NONE',  ( -0.000000000000000000, -0.000000000000000000, -1.000000000000000000 ) ) ;
#292 = DIRECTION ( 'NONE',  ( 0.000000000000000000, 0.000000000000000000, 1.000000000000000000 ) ) ;
#293 = APPROVAL_ROLE ( '' ) ;
#294 = AXIS2_PLACEMENT_3D ( 'NONE', #218, #190, #13 ) ;
#295 = PERSON_AND_ORGANIZATION ( #111, #42 ) ;
#296 = ORIENTED_EDGE ( 'NONE', *, *, #275, .T. ) ;
#297 = CARTESIAN_POINT ( 'NONE',  ( 0.000000000000000000, 0.000000000000000000, 0.000000000000000000 ) ) ;
#298 = DIRECTION ( 'NONE',  ( 1.000000000000000000, 0.000000000000000000, 0.000000000000000000 ) ) ;
#299 = ORIENTED_EDGE ( 'NONE', *, *, #268, .F. ) ;
#300 = DIRECTION ( 'NONE',  ( 1.000000000000000000, 0.000000000000000000, 0.000000000000000000 ) ) ;
#301 = LOCAL_TIME ( 12, 23, 8.000000000000000000, #100 ) ;
#302 = ORIENTED_EDGE ( 'NONE', *, *, #99, .T. ) ;
#303 = DATE_TIME_ROLE ( 'classification_date' ) ;
#304 = LINE ( 'NONE', #307, #86 ) ;
#305 = LOCAL_TIME ( 12, 23, 8.000000000000000000, #76 ) ;
#306 = CYLINDRICAL_SURFACE ( 'NONE', #114, 0.7500000000000001110 ) ;
#307 = CARTESIAN_POINT ( 'NONE',  ( 1.500000000000000222, 1.836970198721030181E-16, 1.500000000000000000 ) ) ;
ENDSEC;
END-ISO-10303-21;
