ISO-10303-21;
HEADER;
FILE_DESCRIPTION (( 'STEP AP203' ),
    '1' );
FILE_NAME ('3529.STEP',
    '2022-06-20T09:28:47',
    ( '' ),
    ( '' ),
    'SwSTEP 2.0',
    'SolidWorks 2019',
    '' );
FILE_SCHEMA (( 'CONFIG_CONTROL_DESIGN' ));
ENDSEC;

DATA;
#1 = FACE_OUTER_BOUND ( 'NONE', #304, .T. ) ;
#2 = AXIS2_PLACEMENT_3D ( 'NONE', #280, #218, #70 ) ;
#3 = CIRCLE ( 'NONE', #22, 6.250000000000000000 ) ;
#4 = DIRECTION ( 'NONE',  ( 0.000000000000000000, 0.000000000000000000, 1.000000000000000000 ) ) ;
#5 = CC_DESIGN_PERSON_AND_ORGANIZATION_ASSIGNMENT ( #47, #234, ( #139 ) ) ;
#6 = CARTESIAN_POINT ( 'NONE',  ( -6.450000000000000178, 7.898971854500428692E-16, 7.000000000000006217 ) ) ;
#7 = CARTESIAN_POINT ( 'NONE',  ( 0.000000000000000000, 0.000000000000000000, 0.000000000000000000 ) ) ;
#8 = AXIS2_PLACEMENT_3D ( 'NONE', #71, #170, #149 ) ;
#9 = EDGE_CURVE ( 'NONE', #159, #49, #214, .T. ) ;
#10 = AXIS2_PLACEMENT_3D ( 'NONE', #248, #85, #62 ) ;
#11 = DIRECTION ( 'NONE',  ( 1.000000000000000000, 0.000000000000000000, 0.000000000000000000 ) ) ;
#12 = APPROVAL_ROLE ( '' ) ;
#13 = CALENDAR_DATE ( 2022, 20, 6 ) ;
#14 = ORIENTED_EDGE ( 'NONE', *, *, #84, .T. ) ;
#15 = APPROVAL_PERSON_ORGANIZATION ( #39, #21, #272 ) ;
#16 = ADVANCED_FACE ( 'NONE', ( #260 ), #95, .T. ) ;
#17 = COORDINATED_UNIVERSAL_TIME_OFFSET ( 1, 0, .AHEAD. ) ;
#18 = DIRECTION ( 'NONE',  ( 0.000000000000000000, 0.000000000000000000, 1.000000000000000000 ) ) ;
#19 = APPLICATION_CONTEXT ( 'configuration controlled 3d designs of mechanical parts and assemblies' ) ;
#20 = AXIS2_PLACEMENT_3D ( 'NONE', #56, #74, #58 ) ;
#21 = APPROVAL ( #249, 'NEURÈENÝ' ) ;
#22 = AXIS2_PLACEMENT_3D ( 'NONE', #207, #182, #108 ) ;
#23 = PERSON_AND_ORGANIZATION ( #112, #273 ) ;
#24 = ORIENTED_EDGE ( 'NONE', *, *, #103, .F. ) ;
#25 = VERTEX_POINT ( 'NONE', #98 ) ;
#26 = AXIS2_PLACEMENT_3D ( 'NONE', #72, #174, #269 ) ;
#27 = VERTEX_POINT ( 'NONE', #124 ) ;
#28 = AXIS2_PLACEMENT_3D ( 'NONE', #7, #105, #60 ) ;
#29 = CIRCLE ( 'NONE', #114, 9.000000000000000000 ) ;
#30 = ORIENTED_EDGE ( 'NONE', *, *, #205, .T. ) ;
#31 = UNCERTAINTY_MEASURE_WITH_UNIT (LENGTH_MEASURE( 1.000000000000000082E-05 ), #294, 'distance_accuracy_value', 'NONE');
#32 = CARTESIAN_POINT ( 'NONE',  ( 6.450000000000000178, 0.000000000000000000, 7.000000000000006217 ) ) ;
#33 = DIRECTION ( 'NONE',  ( 0.000000000000000000, 0.000000000000000000, 1.000000000000000000 ) ) ;
#34 = CIRCLE ( 'NONE', #104, 6.250000000000000000 ) ;
#35 = PRODUCT_RELATED_PRODUCT_CATEGORY ( 'detail', '', ( #96 ) ) ;
#36 = CARTESIAN_POINT ( 'NONE',  ( 0.000000000000000000, 0.000000000000000000, 167.0000000000000000 ) ) ;
#37 = DIRECTION ( 'NONE',  ( -0.000000000000000000, -0.000000000000000000, -1.000000000000000000 ) ) ;
#38 = ADVANCED_FACE ( 'NONE', ( #117 ), #168, .T. ) ;
#39 = PERSON_AND_ORGANIZATION ( #112, #273 ) ;
#40 = DATE_TIME_ROLE ( 'classification_date' ) ;
#41 = COORDINATED_UNIVERSAL_TIME_OFFSET ( 1, 0, .AHEAD. ) ;
#42 = ORIENTED_EDGE ( 'NONE', *, *, #300, .T. ) ;
#43 = PERSON_AND_ORGANIZATION_ROLE ( 'creator' ) ;
#44 = LOCAL_TIME ( 11, 28, 47.00000000000000000, #161 ) ;
#45 = DIRECTION ( 'NONE',  ( 1.000000000000000000, 0.000000000000000000, -0.000000000000000000 ) ) ;
#46 = ADVANCED_FACE ( 'NONE', ( #193 ), #282, .T. ) ;
#47 = PERSON_AND_ORGANIZATION ( #112, #273 ) ;
#48 = ORIENTED_EDGE ( 'NONE', *, *, #73, .F. ) ;
#49 = VERTEX_POINT ( 'NONE', #238 ) ;
#50 = APPROVAL_DATE_TIME ( #165, #119 ) ;
#51 = EDGE_CURVE ( 'NONE', #204, #192, #261, .T. ) ;
#52 = CARTESIAN_POINT ( 'NONE',  ( 0.000000000000000000, 0.000000000000000000, 167.0000000000000000 ) ) ;
#53 = ORIENTED_EDGE ( 'NONE', *, *, #176, .T. ) ;
#54 = ORIENTED_EDGE ( 'NONE', *, *, #69, .F. ) ;
#55 = LINE ( 'NONE', #181, #171 ) ;
#56 = CARTESIAN_POINT ( 'NONE',  ( 0.000000000000000000, 0.000000000000000000, 7.200000000000011724 ) ) ;
#57 = AXIS2_PLACEMENT_3D ( 'NONE', #52, #147, #306 ) ;
#58 = DIRECTION ( 'NONE',  ( 1.000000000000000000, 0.000000000000000000, 0.000000000000000000 ) ) ;
#59 = DIRECTION ( 'NONE',  ( 0.000000000000000000, 0.000000000000000000, 1.000000000000000000 ) ) ;
#60 = DIRECTION ( 'NONE',  ( 1.000000000000000000, 0.000000000000000000, 0.000000000000000000 ) ) ;
#61 = CC_DESIGN_APPROVAL ( #119, ( #228 ) ) ;
#62 = DIRECTION ( 'NONE',  ( -1.000000000000000000, 1.224646799147353454E-16, 0.000000000000000000 ) ) ;
#63 = PERSON_AND_ORGANIZATION ( #112, #273 ) ;
#64 = CARTESIAN_POINT ( 'NONE',  ( 6.250000000000000000, 7.654042494670957606E-16, 7.200000000000011724 ) ) ;
#65 = APPLICATION_CONTEXT ( 'configuration controlled 3d designs of mechanical parts and assemblies' ) ;
#66 = ORIENTED_EDGE ( 'NONE', *, *, #281, .T. ) ;
#67 = EDGE_LOOP ( 'NONE', ( #53, #97 ) ) ;
#68 = ORIENTED_EDGE ( 'NONE', *, *, #209, .T. ) ;
#69 = EDGE_CURVE ( 'NONE', #159, #213, #138, .T. ) ;
#70 = DIRECTION ( 'NONE',  ( -1.000000000000000000, 0.000000000000000000, 0.000000000000000000 ) ) ;
#71 = CARTESIAN_POINT ( 'NONE',  ( 0.000000000000000000, 0.000000000000000000, 167.0000000000000000 ) ) ;
#72 = CARTESIAN_POINT ( 'NONE',  ( 0.000000000000000000, 0.000000000000000000, 7.000000000000000000 ) ) ;
#73 = EDGE_CURVE ( 'NONE', #258, #49, #126, .T. ) ;
#74 = DIRECTION ( 'NONE',  ( 0.000000000000000000, 0.000000000000000000, 1.000000000000000000 ) ) ;
#75 = DIRECTION ( 'NONE',  ( 1.000000000000000000, 0.000000000000000000, 0.000000000000000000 ) ) ;
#76 = CARTESIAN_POINT ( 'NONE',  ( 0.000000000000000000, 0.000000000000000000, 167.0000000000000000 ) ) ;
#77 = AXIS2_PLACEMENT_3D ( 'NONE', #151, #4, #226 ) ;
#78 = EDGE_CURVE ( 'NONE', #213, #159, #34, .T. ) ;
#79 = DIRECTION ( 'NONE',  ( 1.000000000000000000, 0.000000000000000000, 0.000000000000000000 ) ) ;
#80 = CARTESIAN_POINT ( 'NONE',  ( 6.250000000000000000, 7.654042494670957606E-16, 167.0000000000000000 ) ) ;
#81 = CC_DESIGN_APPROVAL ( #21, ( #169 ) ) ;
#82 = MECHANICAL_CONTEXT ( 'NONE', #19, 'mechanical' ) ;
#83 = DIRECTION ( 'NONE',  ( 0.000000000000000000, 0.000000000000000000, 1.000000000000000000 ) ) ;
#84 = EDGE_CURVE ( 'NONE', #27, #93, #55, .T. ) ;
#85 = DIRECTION ( 'NONE',  ( 1.224646799147353207E-16, 1.000000000000000000, -0.000000000000000000 ) ) ;
#86 = AXIS2_PLACEMENT_3D ( 'NONE', #291, #289, #198 ) ;
#87 = AXIS2_PLACEMENT_3D ( 'NONE', #287, #155, #101 ) ;
#88 = LOCAL_TIME ( 11, 28, 47.00000000000000000, #92 ) ;
#89 = DATE_TIME_ROLE ( 'creation_date' ) ;
#90 = EDGE_LOOP ( 'NONE', ( #275, #24, #14, #30 ) ) ;
#91 = CARTESIAN_POINT ( 'NONE',  ( -6.250000000000000000, 0.000000000000000000, 167.0000000000000000 ) ) ;
#92 = COORDINATED_UNIVERSAL_TIME_OFFSET ( 1, 0, .AHEAD. ) ;
#93 = VERTEX_POINT ( 'NONE', #268 ) ;
#94 = CALENDAR_DATE ( 2022, 20, 6 ) ;
#95 = CYLINDRICAL_SURFACE ( 'NONE', #2, 9.000000000000000000 ) ;
#96 = PRODUCT ( '3529', '3529', '', ( #82 ) ) ;
#97 = ORIENTED_EDGE ( 'NONE', *, *, #51, .T. ) ;
#98 = CARTESIAN_POINT ( 'NONE',  ( 9.000000000000000000, 1.102182119232617714E-15, 0.000000000000000000 ) ) ;
#99 = CIRCLE ( 'NONE', #86, 9.000000000000000000 ) ;
#100 = CC_DESIGN_DATE_AND_TIME_ASSIGNMENT ( #279, #40, ( #228 ) ) ;
#101 = DIRECTION ( 'NONE',  ( 0.000000000000000000, 0.000000000000000000, -1.000000000000000000 ) ) ;
#102 = CARTESIAN_POINT ( 'NONE',  ( 9.000000000000000000, 1.102182119232617714E-15, 7.000000000000000000 ) ) ;
#103 = EDGE_CURVE ( 'NONE', #27, #115, #99, .T. ) ;
#104 = AXIS2_PLACEMENT_3D ( 'NONE', #156, #178, #75 ) ;
#105 = DIRECTION ( 'NONE',  ( 0.000000000000000000, 0.000000000000000000, 1.000000000000000000 ) ) ;
#106 = DIRECTION ( 'NONE',  ( 0.000000000000000000, 0.000000000000000000, 1.000000000000000000 ) ) ;
#107 = COORDINATED_UNIVERSAL_TIME_OFFSET ( 1, 0, .AHEAD. ) ;
#108 = DIRECTION ( 'NONE',  ( 1.000000000000000000, 0.000000000000000000, 0.000000000000000000 ) ) ;
#109 = TOROIDAL_SURFACE ( 'NONE', #148, 6.450000000000000178, 0.2000000000000000111 ) ;
#110 = PERSON_AND_ORGANIZATION ( #112, #273 ) ;
#111 = CC_DESIGN_PERSON_AND_ORGANIZATION_ASSIGNMENT ( #110, #43, ( #169 ) ) ;
#112 = PERSON ( 'NEURÈENÝ', 'NEURÈENÝ', 'NEURÈENÝ', ('NEURÈENÝ'), ('NEURÈENÝ'), ('NEURÈENÝ') ) ;
#113 = DIRECTION ( 'NONE',  ( 1.000000000000000000, 0.000000000000000000, 0.000000000000000000 ) ) ;
#114 = AXIS2_PLACEMENT_3D ( 'NONE', #130, #106, #203 ) ;
#115 = VERTEX_POINT ( 'NONE', #177 ) ;
#116 = ADVANCED_FACE ( 'NONE', ( #1 ), #197, .T. ) ;
#117 = FACE_OUTER_BOUND ( 'NONE', #136, .T. ) ;
#118 = PERSON_AND_ORGANIZATION_ROLE ( 'design_supplier' ) ;
#119 = APPROVAL ( #303, 'NEURÈENÝ' ) ;
#120 = ORIENTED_EDGE ( 'NONE', *, *, #141, .F. ) ;
#121 = DIRECTION ( 'NONE',  ( -0.000000000000000000, -0.000000000000000000, -1.000000000000000000 ) ) ;
#122 = ADVANCED_FACE ( 'NONE', ( #244 ), #271, .F. ) ;
#123 = DESIGN_CONTEXT ( 'detailed design', #65, 'design' ) ;
#124 = CARTESIAN_POINT ( 'NONE',  ( -9.000000000000000000, 0.000000000000000000, 7.000000000000000000 ) ) ;
#125 = FACE_OUTER_BOUND ( 'NONE', #307, .T. ) ;
#126 = CIRCLE ( 'NONE', #185, 6.250000000000000000 ) ;
#127 = DIRECTION ( 'NONE',  ( -0.000000000000000000, -0.000000000000000000, -1.000000000000000000 ) ) ;
#128 = CARTESIAN_POINT ( 'NONE',  ( 0.000000000000000000, 0.000000000000000000, 7.000000000000000000 ) ) ;
#129 = DIRECTION ( 'NONE',  ( 1.000000000000000000, 0.000000000000000000, -0.000000000000000000 ) ) ;
#130 = CARTESIAN_POINT ( 'NONE',  ( 0.000000000000000000, 0.000000000000000000, 0.000000000000000000 ) ) ;
#131 = CIRCLE ( 'NONE', #28, 9.000000000000000000 ) ;
#132 = CIRCLE ( 'NONE', #10, 0.1999999999999996503 ) ;
#133 = PERSON_AND_ORGANIZATION ( #112, #273 ) ;
#134 = PERSON_AND_ORGANIZATION ( #112, #273 ) ;
#135 = PLANE ( 'NONE',  #217 ) ;
#136 = EDGE_LOOP ( 'NONE', ( #237, #54, #144, #66 ) ) ;
#137 = CALENDAR_DATE ( 2022, 20, 6 ) ;
#138 = CIRCLE ( 'NONE', #200, 6.250000000000000000 ) ;
#139 = PRODUCT_DEFINITION_FORMATION_WITH_SPECIFIED_SOURCE ( 'LIBOVOLNÝ', '', #96, .NOT_KNOWN. ) ;
#140 = APPLICATION_PROTOCOL_DEFINITION ( 'international standard', 'config_control_design', 1994, #19 ) ;
#141 = EDGE_CURVE ( 'NONE', #258, #192, #216, .T. ) ;
#142 = AXIS2_PLACEMENT_3D ( 'NONE', #265, #127, #270 ) ;
#143 = ADVANCED_FACE ( 'NONE', ( #241 ), #221, .T. ) ;
#144 = ORIENTED_EDGE ( 'NONE', *, *, #9, .T. ) ;
#145 = CC_DESIGN_PERSON_AND_ORGANIZATION_ASSIGNMENT ( #23, #118, ( #139 ) ) ;
#146 = ORIENTED_EDGE ( 'NONE', *, *, #78, .T. ) ;
#147 = DIRECTION ( 'NONE',  ( -0.000000000000000000, -0.000000000000000000, -1.000000000000000000 ) ) ;
#148 = AXIS2_PLACEMENT_3D ( 'NONE', #288, #227, #11 ) ;
#149 = DIRECTION ( 'NONE',  ( -1.000000000000000000, 0.000000000000000000, 0.000000000000000000 ) ) ;
#150 = ORIENTED_EDGE ( 'NONE', *, *, #247, .T. ) ;
#151 = CARTESIAN_POINT ( 'NONE',  ( 0.000000000000000000, 0.000000000000000000, 0.000000000000000000 ) ) ;
#152 = PRODUCT_DEFINITION_SHAPE ( 'NONE', 'NONE',  #169 ) ;
#153 = DIRECTION ( 'NONE',  ( 0.000000000000000000, 0.000000000000000000, 1.000000000000000000 ) ) ;
#154 = AXIS2_PLACEMENT_3D ( 'NONE', #274, #83, #295 ) ;
#155 = DIRECTION ( 'NONE',  ( 0.000000000000000000, -1.000000000000000000, 0.000000000000000000 ) ) ;
#156 = CARTESIAN_POINT ( 'NONE',  ( 0.000000000000000000, 0.000000000000000000, 167.0000000000000000 ) ) ;
#157 = CARTESIAN_POINT ( 'NONE',  ( 6.250000000000000000, 7.654042494670957606E-16, 167.0000000000000000 ) ) ;
#158 = APPROVAL_DATE_TIME ( #299, #21 ) ;
#159 = VERTEX_POINT ( 'NONE', #242 ) ;
#160 = CARTESIAN_POINT ( 'NONE',  ( 0.000000000000000000, 0.000000000000000000, 0.000000000000000000 ) ) ;
#161 = COORDINATED_UNIVERSAL_TIME_OFFSET ( 1, 0, .AHEAD. ) ;
#162 = EDGE_LOOP ( 'NONE', ( #166, #264 ) ) ;
#163 = CC_DESIGN_DATE_AND_TIME_ASSIGNMENT ( #230, #89, ( #169 ) ) ;
#164 = EDGE_LOOP ( 'NONE', ( #239, #48, #191, #219 ) ) ;
#165 = DATE_AND_TIME ( #276, #88 ) ;
#166 = ORIENTED_EDGE ( 'NONE', *, *, #205, .F. ) ;
#167 = SHAPE_DEFINITION_REPRESENTATION ( #152, #172 ) ;
#168 = CYLINDRICAL_SURFACE ( 'NONE', #57, 6.250000000000000000 ) ;
#169 = PRODUCT_DEFINITION ( 'NEZNÁMÝ', '', #139, #123 ) ;
#170 = DIRECTION ( 'NONE',  ( -0.000000000000000000, -0.000000000000000000, -1.000000000000000000 ) ) ;
#171 = VECTOR ( 'NONE', #266, 1000.000000000000000 ) ;
#172 = ADVANCED_BREP_SHAPE_REPRESENTATION ( '3529', ( #225, #222 ), #211 ) ;
#173 = CC_DESIGN_APPROVAL ( #220, ( #139 ) ) ;
#174 = DIRECTION ( 'NONE',  ( -0.000000000000000000, -0.000000000000000000, -1.000000000000000000 ) ) ;
#175 = PLANE ( 'NONE',  #77 ) ;
#176 = EDGE_CURVE ( 'NONE', #192, #204, #290, .T. ) ;
#177 = CARTESIAN_POINT ( 'NONE',  ( 9.000000000000000000, 1.102182119232617714E-15, 7.000000000000000000 ) ) ;
#178 = DIRECTION ( 'NONE',  ( 0.000000000000000000, 0.000000000000000000, 1.000000000000000000 ) ) ;
#179 = LOCAL_TIME ( 11, 28, 47.00000000000000000, #17 ) ;
#180 = DIRECTION ( 'NONE',  ( 1.000000000000000000, 0.000000000000000000, 0.000000000000000000 ) ) ;
#181 = CARTESIAN_POINT ( 'NONE',  ( -9.000000000000000000, 0.000000000000000000, 7.000000000000000000 ) ) ;
#182 = DIRECTION ( 'NONE',  ( 0.000000000000000000, 0.000000000000000000, 1.000000000000000000 ) ) ;
#183 = CARTESIAN_POINT ( 'NONE',  ( 0.000000000000000000, 0.000000000000000000, 7.000000000000000000 ) ) ;
#184 = DIRECTION ( 'NONE',  ( -0.000000000000000000, -0.000000000000000000, -1.000000000000000000 ) ) ;
#185 = AXIS2_PLACEMENT_3D ( 'NONE', #199, #33, #79 ) ;
#186 =( NAMED_UNIT ( * ) PLANE_ANGLE_UNIT ( ) SI_UNIT ( $, .RADIAN. ) );
#187 = ADVANCED_FACE ( 'NONE', ( #223 ), #175, .F. ) ;
#188 = CALENDAR_DATE ( 2022, 20, 6 ) ;
#189 = ORIENTED_EDGE ( 'NONE', *, *, #69, .T. ) ;
#190 = SECURITY_CLASSIFICATION_LEVEL ( 'unclassified' ) ;
#191 = ORIENTED_EDGE ( 'NONE', *, *, #141, .T. ) ;
#192 = VERTEX_POINT ( 'NONE', #32 ) ;
#193 = FACE_OUTER_BOUND ( 'NONE', #212, .T. ) ;
#194 = ORIENTED_EDGE ( 'NONE', *, *, #281, .F. ) ;
#195 = AXIS2_PLACEMENT_3D ( 'NONE', #128, #37, #224 ) ;
#196 = LOCAL_TIME ( 11, 28, 47.00000000000000000, #41 ) ;
#197 = CYLINDRICAL_SURFACE ( 'NONE', #142, 9.000000000000000000 ) ;
#198 = DIRECTION ( 'NONE',  ( 1.000000000000000000, 0.000000000000000000, 0.000000000000000000 ) ) ;
#199 = CARTESIAN_POINT ( 'NONE',  ( 0.000000000000000000, 0.000000000000000000, 7.200000000000011724 ) ) ;
#200 = AXIS2_PLACEMENT_3D ( 'NONE', #76, #59, #180 ) ;
#201 = DIRECTION ( 'NONE',  ( -0.000000000000000000, -0.000000000000000000, -1.000000000000000000 ) ) ;
#202 = VECTOR ( 'NONE', #184, 1000.000000000000000 ) ;
#203 = DIRECTION ( 'NONE',  ( 1.000000000000000000, 0.000000000000000000, 0.000000000000000000 ) ) ;
#204 = VERTEX_POINT ( 'NONE', #6 ) ;
#205 = EDGE_CURVE ( 'NONE', #93, #25, #131, .T. ) ;
#206 = EDGE_LOOP ( 'NONE', ( #189, #146 ) ) ;
#207 = CARTESIAN_POINT ( 'NONE',  ( 0.000000000000000000, 0.000000000000000000, 7.200000000000011724 ) ) ;
#208 =( NAMED_UNIT ( * ) SI_UNIT ( $, .STERADIAN. ) SOLID_ANGLE_UNIT ( ) );
#209 = EDGE_CURVE ( 'NONE', #115, #25, #240, .T. ) ;
#210 = PERSON_AND_ORGANIZATION_ROLE ( 'design_owner' ) ;
#211 =( GEOMETRIC_REPRESENTATION_CONTEXT ( 3 ) GLOBAL_UNCERTAINTY_ASSIGNED_CONTEXT ( ( #31 ) ) GLOBAL_UNIT_ASSIGNED_CONTEXT ( ( #294, #186, #208 ) ) REPRESENTATION_CONTEXT ( 'NONE', 'WORKASPACE' ) );
#212 = EDGE_LOOP ( 'NONE', ( #255, #150, #236, #259 ) ) ;
#213 = VERTEX_POINT ( 'NONE', #157 ) ;
#214 = LINE ( 'NONE', #91, #250 ) ;
#215 = ADVANCED_FACE ( 'NONE', ( #125 ), #109, .F. ) ;
#216 = CIRCLE ( 'NONE', #87, 0.1999999999999996503 ) ;
#217 = AXIS2_PLACEMENT_3D ( 'NONE', #183, #251, #45 ) ;
#218 = DIRECTION ( 'NONE',  ( -0.000000000000000000, -0.000000000000000000, -1.000000000000000000 ) ) ;
#219 = ORIENTED_EDGE ( 'NONE', *, *, #51, .F. ) ;
#220 = APPROVAL ( #229, 'NEURÈENÝ' ) ;
#221 = PLANE ( 'NONE',  #262 ) ;
#222 = AXIS2_PLACEMENT_3D ( 'NONE', #160, #18, #113 ) ;
#223 = FACE_OUTER_BOUND ( 'NONE', #162, .T. ) ;
#224 = DIRECTION ( 'NONE',  ( 1.000000000000000000, 0.000000000000000000, 0.000000000000000000 ) ) ;
#225 = MANIFOLD_SOLID_BREP ( 'Zaoblit1', #285 ) ;
#226 = DIRECTION ( 'NONE',  ( 1.000000000000000000, 0.000000000000000000, -0.000000000000000000 ) ) ;
#227 = DIRECTION ( 'NONE',  ( 0.000000000000000000, 0.000000000000000000, 1.000000000000000000 ) ) ;
#228 = SECURITY_CLASSIFICATION ( '', '', #190 ) ;
#229 = APPROVAL_STATUS ( 'not_yet_approved' ) ;
#230 = DATE_AND_TIME ( #137, #196 ) ;
#231 = PERSON_AND_ORGANIZATION_ROLE ( 'classification_officer' ) ;
#232 = ORIENTED_EDGE ( 'NONE', *, *, #103, .T. ) ;
#233 = LOCAL_TIME ( 11, 28, 47.00000000000000000, #107 ) ;
#234 = PERSON_AND_ORGANIZATION_ROLE ( 'creator' ) ;
#235 = ORIENTED_EDGE ( 'NONE', *, *, #84, .F. ) ;
#236 = ORIENTED_EDGE ( 'NONE', *, *, #73, .T. ) ;
#237 = ORIENTED_EDGE ( 'NONE', *, *, #247, .F. ) ;
#238 = CARTESIAN_POINT ( 'NONE',  ( -6.250000000000000000, 0.000000000000000000, 7.200000000000011724 ) ) ;
#239 = ORIENTED_EDGE ( 'NONE', *, *, #297, .F. ) ;
#240 = LINE ( 'NONE', #102, #246 ) ;
#241 = FACE_OUTER_BOUND ( 'NONE', #206, .T. ) ;
#242 = CARTESIAN_POINT ( 'NONE',  ( -6.250000000000000000, 0.000000000000000000, 167.0000000000000000 ) ) ;
#243 = EDGE_CURVE ( 'NONE', #25, #93, #29, .T. ) ;
#244 = FACE_OUTER_BOUND ( 'NONE', #164, .T. ) ;
#245 = APPLICATION_PROTOCOL_DEFINITION ( 'international standard', 'config_control_design', 1994, #65 ) ;
#246 = VECTOR ( 'NONE', #201, 1000.000000000000000 ) ;
#247 = EDGE_CURVE ( 'NONE', #213, #258, #293, .T. ) ;
#248 = CARTESIAN_POINT ( 'NONE',  ( -6.450000000000000178, 7.898971854500428692E-16, 7.200000000000011724 ) ) ;
#249 = APPROVAL_STATUS ( 'not_yet_approved' ) ;
#250 = VECTOR ( 'NONE', #121, 1000.000000000000000 ) ;
#251 = DIRECTION ( 'NONE',  ( 0.000000000000000000, 0.000000000000000000, 1.000000000000000000 ) ) ;
#252 = APPROVAL_ROLE ( '' ) ;
#253 = ORIENTED_EDGE ( 'NONE', *, *, #243, .T. ) ;
#254 = APPROVAL_DATE_TIME ( #277, #220 ) ;
#255 = ORIENTED_EDGE ( 'NONE', *, *, #78, .F. ) ;
#256 = APPROVAL_PERSON_ORGANIZATION ( #133, #220, #12 ) ;
#257 = PERSON_AND_ORGANIZATION ( #112, #273 ) ;
#258 = VERTEX_POINT ( 'NONE', #64 ) ;
#259 = ORIENTED_EDGE ( 'NONE', *, *, #9, .F. ) ;
#260 = FACE_OUTER_BOUND ( 'NONE', #90, .T. ) ;
#261 = CIRCLE ( 'NONE', #26, 6.450000000000000178 ) ;
#262 = AXIS2_PLACEMENT_3D ( 'NONE', #36, #153, #129 ) ;
#263 = CC_DESIGN_SECURITY_CLASSIFICATION ( #228, ( #139 ) ) ;
#264 = ORIENTED_EDGE ( 'NONE', *, *, #243, .F. ) ;
#265 = CARTESIAN_POINT ( 'NONE',  ( 0.000000000000000000, 0.000000000000000000, 7.000000000000000000 ) ) ;
#266 = DIRECTION ( 'NONE',  ( -0.000000000000000000, -0.000000000000000000, -1.000000000000000000 ) ) ;
#267 = ADVANCED_FACE ( 'NONE', ( #298, #296 ), #135, .T. ) ;
#268 = CARTESIAN_POINT ( 'NONE',  ( -9.000000000000000000, 0.000000000000000000, 0.000000000000000000 ) ) ;
#269 = DIRECTION ( 'NONE',  ( 1.000000000000000000, 0.000000000000000000, 0.000000000000000000 ) ) ;
#270 = DIRECTION ( 'NONE',  ( -1.000000000000000000, 0.000000000000000000, 0.000000000000000000 ) ) ;
#271 = TOROIDAL_SURFACE ( 'NONE', #20, 6.450000000000000178, 0.2000000000000000111 ) ;
#272 = APPROVAL_ROLE ( '' ) ;
#273 = ORGANIZATION ( 'NEURÈENÝ', 'NEURÈENÝ', '' ) ;
#274 = CARTESIAN_POINT ( 'NONE',  ( 0.000000000000000000, 0.000000000000000000, 7.000000000000000000 ) ) ;
#275 = ORIENTED_EDGE ( 'NONE', *, *, #209, .F. ) ;
#276 = CALENDAR_DATE ( 2022, 20, 6 ) ;
#277 = DATE_AND_TIME ( #188, #233 ) ;
#278 = ORIENTED_EDGE ( 'NONE', *, *, #297, .T. ) ;
#279 = DATE_AND_TIME ( #94, #44 ) ;
#280 = CARTESIAN_POINT ( 'NONE',  ( 0.000000000000000000, 0.000000000000000000, 7.000000000000000000 ) ) ;
#281 = EDGE_CURVE ( 'NONE', #49, #258, #3, .T. ) ;
#282 = CYLINDRICAL_SURFACE ( 'NONE', #8, 6.250000000000000000 ) ;
#283 = CC_DESIGN_PERSON_AND_ORGANIZATION_ASSIGNMENT ( #257, #231, ( #228 ) ) ;
#284 = EDGE_LOOP ( 'NONE', ( #232, #42 ) ) ;
#285 = CLOSED_SHELL ( 'NONE', ( #215, #46, #116, #16, #267, #187, #38, #143, #122 ) ) ;
#286 = CIRCLE ( 'NONE', #154, 9.000000000000000000 ) ;
#287 = CARTESIAN_POINT ( 'NONE',  ( 6.450000000000000178, 0.000000000000000000, 7.200000000000011724 ) ) ;
#288 = CARTESIAN_POINT ( 'NONE',  ( 0.000000000000000000, 0.000000000000000000, 7.200000000000011724 ) ) ;
#289 = DIRECTION ( 'NONE',  ( 0.000000000000000000, 0.000000000000000000, 1.000000000000000000 ) ) ;
#290 = CIRCLE ( 'NONE', #195, 6.450000000000000178 ) ;
#291 = CARTESIAN_POINT ( 'NONE',  ( 0.000000000000000000, 0.000000000000000000, 7.000000000000000000 ) ) ;
#292 = CC_DESIGN_PERSON_AND_ORGANIZATION_ASSIGNMENT ( #63, #210, ( #96 ) ) ;
#293 = LINE ( 'NONE', #80, #202 ) ;
#294 =( LENGTH_UNIT ( ) NAMED_UNIT ( * ) SI_UNIT ( .MILLI., .METRE. ) );
#295 = DIRECTION ( 'NONE',  ( 1.000000000000000000, 0.000000000000000000, 0.000000000000000000 ) ) ;
#296 = FACE_OUTER_BOUND ( 'NONE', #284, .T. ) ;
#297 = EDGE_CURVE ( 'NONE', #49, #204, #132, .T. ) ;
#298 = FACE_BOUND ( 'NONE', #67, .T. ) ;
#299 = DATE_AND_TIME ( #13, #179 ) ;
#300 = EDGE_CURVE ( 'NONE', #115, #27, #286, .T. ) ;
#301 = ORIENTED_EDGE ( 'NONE', *, *, #176, .F. ) ;
#302 = ORIENTED_EDGE ( 'NONE', *, *, #300, .F. ) ;
#303 = APPROVAL_STATUS ( 'not_yet_approved' ) ;
#304 = EDGE_LOOP ( 'NONE', ( #302, #68, #253, #235 ) ) ;
#305 = APPROVAL_PERSON_ORGANIZATION ( #134, #119, #252 ) ;
#306 = DIRECTION ( 'NONE',  ( -1.000000000000000000, 0.000000000000000000, 0.000000000000000000 ) ) ;
#307 = EDGE_LOOP ( 'NONE', ( #194, #278, #301, #120 ) ) ;
ENDSEC;
END-ISO-10303-21;
