ISO-10303-21;
HEADER;
FILE_DESCRIPTION (( 'STEP AP203' ),
    '1' );
FILE_NAME ('dc6a.STEP',
    '2022-06-20T09:59:14',
    ( '' ),
    ( '' ),
    'SwSTEP 2.0',
    'SolidWorks 2019',
    '' );
FILE_SCHEMA (( 'CONFIG_CONTROL_DESIGN' ));
ENDSEC;

DATA;
#1 = ORIENTED_EDGE ( 'NONE', *, *, #280, .F. ) ;
#2 = CIRCLE ( 'NONE', #59, 2.949999999999999734 ) ;
#3 = EDGE_LOOP ( 'NONE', ( #209, #118, #159, #163 ) ) ;
#4 = ORIENTED_EDGE ( 'NONE', *, *, #176, .F. ) ;
#5 = TOROIDAL_SURFACE ( 'NONE', #227, 2.949999999999999734, 0.2000000000000000111 ) ;
#6 = VERTEX_POINT ( 'NONE', #120 ) ;
#7 = LOCAL_TIME ( 11, 59, 14.00000000000000000, #165 ) ;
#8 = ADVANCED_FACE ( 'NONE', ( #194 ), #5, .F. ) ;
#9 = FACE_OUTER_BOUND ( 'NONE', #136, .T. ) ;
#10 = DIRECTION ( 'NONE',  ( 1.000000000000000000, 0.000000000000000000, 0.000000000000000000 ) ) ;
#11 = CIRCLE ( 'NONE', #198, 2.750000000000000000 ) ;
#12 = CARTESIAN_POINT ( 'NONE',  ( 0.000000000000000000, 0.000000000000000000, 3.000000000000000000 ) ) ;
#13 = VERTEX_POINT ( 'NONE', #20 ) ;
#14 = DIRECTION ( 'NONE',  ( 0.000000000000000000, 0.000000000000000000, 1.000000000000000000 ) ) ;
#15 = ADVANCED_FACE ( 'NONE', ( #75 ), #54, .T. ) ;
#16 = DIRECTION ( 'NONE',  ( 1.000000000000000000, 0.000000000000000000, -0.000000000000000000 ) ) ;
#17 = PERSON_AND_ORGANIZATION_ROLE ( 'creator' ) ;
#18 = APPROVAL_ROLE ( '' ) ;
#19 = VECTOR ( 'NONE', #200, 1000.000000000000000 ) ;
#20 = CARTESIAN_POINT ( 'NONE',  ( -2.949999999999999734, 3.612708057484692097E-16, 2.999999999999990674 ) ) ;
#21 = DIRECTION ( 'NONE',  ( -1.000000000000000000, 0.000000000000000000, 0.000000000000000000 ) ) ;
#22 = DIRECTION ( 'NONE',  ( 0.000000000000000000, 0.000000000000000000, 1.000000000000000000 ) ) ;
#23 = ADVANCED_FACE ( 'NONE', ( #76 ), #24, .T. ) ;
#24 = CYLINDRICAL_SURFACE ( 'NONE', #291, 2.750000000000000000 ) ;
#25 = AXIS2_PLACEMENT_3D ( 'NONE', #158, #45, #192 ) ;
#26 = EDGE_CURVE ( 'NONE', #49, #90, #61, .T. ) ;
#27 = MANIFOLD_SOLID_BREP ( 'Zaoblit1', #297 ) ;
#28 = VERTEX_POINT ( 'NONE', #238 ) ;
#29 = APPROVAL_DATE_TIME ( #223, #50 ) ;
#30 = DIRECTION ( 'NONE',  ( -0.000000000000000000, -0.000000000000000000, -1.000000000000000000 ) ) ;
#31 = DIRECTION ( 'NONE',  ( 1.000000000000000000, 0.000000000000000000, 0.000000000000000000 ) ) ;
#32 = CALENDAR_DATE ( 2022, 20, 6 ) ;
#33 = EDGE_CURVE ( 'NONE', #90, #28, #166, .T. ) ;
#34 = CARTESIAN_POINT ( 'NONE',  ( 2.949999999999999734, 0.000000000000000000, 3.199999999999980638 ) ) ;
#35 = CC_DESIGN_PERSON_AND_ORGANIZATION_ASSIGNMENT ( #71, #56, ( #70 ) ) ;
#36 = CIRCLE ( 'NONE', #125, 5.000000000000000000 ) ;
#37 = CIRCLE ( 'NONE', #264, 5.000000000000000000 ) ;
#38 = DIRECTION ( 'NONE',  ( 1.000000000000000000, 0.000000000000000000, 0.000000000000000000 ) ) ;
#39 = ORIENTED_EDGE ( 'NONE', *, *, #288, .T. ) ;
#40 = DIRECTION ( 'NONE',  ( 1.000000000000000000, 0.000000000000000000, 0.000000000000000000 ) ) ;
#41 = PERSON ( 'NEURÈENÝ', 'NEURÈENÝ', 'NEURÈENÝ', ('NEURÈENÝ'), ('NEURÈENÝ'), ('NEURÈENÝ') ) ;
#42 = CIRCLE ( 'NONE', #160, 0.2000000000000000944 ) ;
#43 = DIRECTION ( 'NONE',  ( 0.000000000000000000, 0.000000000000000000, 1.000000000000000000 ) ) ;
#44 = AXIS2_PLACEMENT_3D ( 'NONE', #272, #43, #16 ) ;
#45 = DIRECTION ( 'NONE',  ( -0.000000000000000000, -0.000000000000000000, -1.000000000000000000 ) ) ;
#46 = AXIS2_PLACEMENT_3D ( 'NONE', #34, #202, #124 ) ;
#47 = ORIENTED_EDGE ( 'NONE', *, *, #176, .T. ) ;
#48 = APPROVAL_STATUS ( 'not_yet_approved' ) ;
#49 = VERTEX_POINT ( 'NONE', #72 ) ;
#50 = APPROVAL ( #141, 'NEURÈENÝ' ) ;
#51 = DIRECTION ( 'NONE',  ( 1.000000000000000000, 0.000000000000000000, 0.000000000000000000 ) ) ;
#52 = PERSON_AND_ORGANIZATION_ROLE ( 'classification_officer' ) ;
#53 = APPLICATION_CONTEXT ( 'configuration controlled 3d designs of mechanical parts and assemblies' ) ;
#54 = CYLINDRICAL_SURFACE ( 'NONE', #191, 5.000000000000000000 ) ;
#55 = ORIENTED_EDGE ( 'NONE', *, *, #83, .F. ) ;
#56 = PERSON_AND_ORGANIZATION_ROLE ( 'creator' ) ;
#57 = DIRECTION ( 'NONE',  ( 1.000000000000000000, 0.000000000000000000, 0.000000000000000000 ) ) ;
#58 = DIRECTION ( 'NONE',  ( 1.000000000000000000, 0.000000000000000000, -0.000000000000000000 ) ) ;
#59 = AXIS2_PLACEMENT_3D ( 'NONE', #250, #66, #10 ) ;
#60 = PRODUCT_DEFINITION ( 'NEZNÁMÝ', '', #70, #211 ) ;
#61 = CIRCLE ( 'NONE', #149, 2.750000000000000000 ) ;
#62 = APPROVAL_PERSON_ORGANIZATION ( #133, #117, #18 ) ;
#63 = VERTEX_POINT ( 'NONE', #115 ) ;
#64 = CARTESIAN_POINT ( 'NONE',  ( 0.000000000000000000, 0.000000000000000000, 3.000000000000000000 ) ) ;
#65 = EDGE_CURVE ( 'NONE', #110, #6, #196, .T. ) ;
#66 = DIRECTION ( 'NONE',  ( -0.000000000000000000, -0.000000000000000000, -1.000000000000000000 ) ) ;
#67 = ORIENTED_EDGE ( 'NONE', *, *, #276, .F. ) ;
#68 = APPLICATION_PROTOCOL_DEFINITION ( 'international standard', 'config_control_design', 1994, #270 ) ;
#69 = EDGE_CURVE ( 'NONE', #6, #300, #253, .T. ) ;
#70 = PRODUCT_DEFINITION_FORMATION_WITH_SPECIFIED_SOURCE ( 'LIBOVOLNÝ', '', #81, .NOT_KNOWN. ) ;
#71 = PERSON_AND_ORGANIZATION ( #41, #247 ) ;
#72 = CARTESIAN_POINT ( 'NONE',  ( -2.750000000000000000, 0.000000000000000000, 403.0000000000000000 ) ) ;
#73 = ORIENTED_EDGE ( 'NONE', *, *, #139, .F. ) ;
#74 = MECHANICAL_CONTEXT ( 'NONE', #53, 'mechanical' ) ;
#75 = FACE_OUTER_BOUND ( 'NONE', #153, .T. ) ;
#76 = FACE_OUTER_BOUND ( 'NONE', #275, .T. ) ;
#77 = PERSON_AND_ORGANIZATION ( #41, #247 ) ;
#78 = CARTESIAN_POINT ( 'NONE',  ( 5.000000000000000000, 6.123233995736766282E-16, 3.000000000000000000 ) ) ;
#79 = CARTESIAN_POINT ( 'NONE',  ( 0.000000000000000000, 0.000000000000000000, 3.000000000000000000 ) ) ;
#80 = DIRECTION ( 'NONE',  ( 1.000000000000000000, 0.000000000000000000, 0.000000000000000000 ) ) ;
#81 = PRODUCT ( 'dc6a', 'dc6a', '', ( #74 ) ) ;
#82 = PERSON_AND_ORGANIZATION_ROLE ( 'design_supplier' ) ;
#83 = EDGE_CURVE ( 'NONE', #63, #300, #138, .T. ) ;
#84 = DIRECTION ( 'NONE',  ( -0.000000000000000000, -0.000000000000000000, -1.000000000000000000 ) ) ;
#85 = AXIS2_PLACEMENT_3D ( 'NONE', #154, #151, #248 ) ;
#86 = LINE ( 'NONE', #152, #161 ) ;
#87 = ORIENTED_EDGE ( 'NONE', *, *, #220, .F. ) ;
#88 = FACE_OUTER_BOUND ( 'NONE', #121, .T. ) ;
#89 = DATE_AND_TIME ( #302, #7 ) ;
#90 = VERTEX_POINT ( 'NONE', #265 ) ;
#91 = EDGE_CURVE ( 'NONE', #300, #6, #178, .T. ) ;
#92 = EDGE_CURVE ( 'NONE', #249, #13, #42, .T. ) ;
#93 = DIRECTION ( 'NONE',  ( -0.000000000000000000, -0.000000000000000000, -1.000000000000000000 ) ) ;
#94 = VECTOR ( 'NONE', #93, 1000.000000000000000 ) ;
#95 = CALENDAR_DATE ( 2022, 20, 6 ) ;
#96 = AXIS2_PLACEMENT_3D ( 'NONE', #224, #131, #40 ) ;
#97 = CARTESIAN_POINT ( 'NONE',  ( 0.000000000000000000, 0.000000000000000000, 0.000000000000000000 ) ) ;
#98 = DATE_AND_TIME ( #174, #207 ) ;
#99 = EDGE_LOOP ( 'NONE', ( #183, #214, #4, #236 ) ) ;
#100 = PERSON_AND_ORGANIZATION ( #41, #247 ) ;
#101 = ORIENTED_EDGE ( 'NONE', *, *, #220, .T. ) ;
#102 = CARTESIAN_POINT ( 'NONE',  ( 0.000000000000000000, 0.000000000000000000, 3.000000000000000000 ) ) ;
#103 = DIRECTION ( 'NONE',  ( 1.000000000000000000, 0.000000000000000000, -0.000000000000000000 ) ) ;
#104 = CARTESIAN_POINT ( 'NONE',  ( 0.000000000000000000, 0.000000000000000000, 403.0000000000000000 ) ) ;
#105 = CC_DESIGN_DATE_AND_TIME_ASSIGNMENT ( #277, #233, ( #60 ) ) ;
#106 = DIRECTION ( 'NONE',  ( 0.000000000000000000, 0.000000000000000000, 1.000000000000000000 ) ) ;
#107 = EDGE_LOOP ( 'NONE', ( #119, #112 ) ) ;
#108 = LOCAL_TIME ( 11, 59, 14.00000000000000000, #145 ) ;
#109 = FACE_BOUND ( 'NONE', #128, .T. ) ;
#110 = VERTEX_POINT ( 'NONE', #147 ) ;
#111 = PLANE ( 'NONE',  #114 ) ;
#112 = ORIENTED_EDGE ( 'NONE', *, *, #91, .F. ) ;
#113 = PRODUCT_RELATED_PRODUCT_CATEGORY ( 'detail', '', ( #81 ) ) ;
#114 = AXIS2_PLACEMENT_3D ( 'NONE', #12, #106, #103 ) ;
#115 = CARTESIAN_POINT ( 'NONE',  ( 5.000000000000000000, 6.123233995736766282E-16, 3.000000000000000000 ) ) ;
#116 = APPLICATION_PROTOCOL_DEFINITION ( 'international standard', 'config_control_design', 1994, #53 ) ;
#117 = APPROVAL ( #235, 'NEURÈENÝ' ) ;
#118 = ORIENTED_EDGE ( 'NONE', *, *, #83, .T. ) ;
#119 = ORIENTED_EDGE ( 'NONE', *, *, #69, .F. ) ;
#120 = CARTESIAN_POINT ( 'NONE',  ( -5.000000000000000000, 0.000000000000000000, 0.000000000000000000 ) ) ;
#121 = EDGE_LOOP ( 'NONE', ( #181, #232 ) ) ;
#122 = CIRCLE ( 'NONE', #185, 2.750000000000000000 ) ;
#123 = CARTESIAN_POINT ( 'NONE',  ( 0.000000000000000000, 0.000000000000000000, 0.000000000000000000 ) ) ;
#124 = DIRECTION ( 'NONE',  ( 0.000000000000000000, 0.000000000000000000, -1.000000000000000000 ) ) ;
#125 = AXIS2_PLACEMENT_3D ( 'NONE', #79, #206, #80 ) ;
#126 = CC_DESIGN_PERSON_AND_ORGANIZATION_ASSIGNMENT ( #100, #82, ( #70 ) ) ;
#127 = CYLINDRICAL_SURFACE ( 'NONE', #85, 2.750000000000000000 ) ;
#128 = EDGE_LOOP ( 'NONE', ( #47, #257 ) ) ;
#129 = DIRECTION ( 'NONE',  ( -0.000000000000000000, -0.000000000000000000, -1.000000000000000000 ) ) ;
#130 = ORIENTED_EDGE ( 'NONE', *, *, #269, .T. ) ;
#131 = DIRECTION ( 'NONE',  ( 0.000000000000000000, 0.000000000000000000, 1.000000000000000000 ) ) ;
#132 = APPROVAL_ROLE ( '' ) ;
#133 = PERSON_AND_ORGANIZATION ( #41, #247 ) ;
#134 = CC_DESIGN_APPROVAL ( #289, ( #60 ) ) ;
#135 = ORIENTED_EDGE ( 'NONE', *, *, #33, .F. ) ;
#136 = EDGE_LOOP ( 'NONE', ( #168, #273, #240, #87 ) ) ;
#137 =( NAMED_UNIT ( * ) PLANE_ANGLE_UNIT ( ) SI_UNIT ( $, .RADIAN. ) );
#138 = LINE ( 'NONE', #78, #271 ) ;
#139 = EDGE_CURVE ( 'NONE', #13, #190, #282, .T. ) ;
#140 = DIRECTION ( 'NONE',  ( 0.000000000000000000, 0.000000000000000000, 1.000000000000000000 ) ) ;
#141 = APPROVAL_STATUS ( 'not_yet_approved' ) ;
#142 = DIRECTION ( 'NONE',  ( -1.000000000000000000, 0.000000000000000000, 0.000000000000000000 ) ) ;
#143 = SHAPE_DEFINITION_REPRESENTATION ( #148, #164 ) ;
#144 = CARTESIAN_POINT ( 'NONE',  ( 2.949999999999999734, 0.000000000000000000, 2.999999999999990674 ) ) ;
#145 = COORDINATED_UNIVERSAL_TIME_OFFSET ( 1, 0, .AHEAD. ) ;
#146 = CC_DESIGN_SECURITY_CLASSIFICATION ( #298, ( #70 ) ) ;
#147 = CARTESIAN_POINT ( 'NONE',  ( -5.000000000000000000, 0.000000000000000000, 3.000000000000000000 ) ) ;
#148 = PRODUCT_DEFINITION_SHAPE ( 'NONE', 'NONE',  #60 ) ;
#149 = AXIS2_PLACEMENT_3D ( 'NONE', #260, #140, #283 ) ;
#150 = LOCAL_TIME ( 11, 59, 14.00000000000000000, #281 ) ;
#151 = DIRECTION ( 'NONE',  ( -0.000000000000000000, -0.000000000000000000, -1.000000000000000000 ) ) ;
#152 = CARTESIAN_POINT ( 'NONE',  ( -2.750000000000000000, 0.000000000000000000, 403.0000000000000000 ) ) ;
#153 = EDGE_LOOP ( 'NONE', ( #55, #1, #303, #251 ) ) ;
#154 = CARTESIAN_POINT ( 'NONE',  ( 0.000000000000000000, 0.000000000000000000, 403.0000000000000000 ) ) ;
#155 = CIRCLE ( 'NONE', #175, 2.750000000000000000 ) ;
#156 = PERSON_AND_ORGANIZATION ( #41, #247 ) ;
#157 = COORDINATED_UNIVERSAL_TIME_OFFSET ( 1, 0, .AHEAD. ) ;
#158 = CARTESIAN_POINT ( 'NONE',  ( 0.000000000000000000, 0.000000000000000000, 3.000000000000000000 ) ) ;
#159 = ORIENTED_EDGE ( 'NONE', *, *, #91, .T. ) ;
#160 = AXIS2_PLACEMENT_3D ( 'NONE', #225, #180, #171 ) ;
#161 = VECTOR ( 'NONE', #129, 1000.000000000000000 ) ;
#162 = CARTESIAN_POINT ( 'NONE',  ( 5.000000000000000000, 6.123233995736766282E-16, 0.000000000000000000 ) ) ;
#163 = ORIENTED_EDGE ( 'NONE', *, *, #65, .F. ) ;
#164 = ADVANCED_BREP_SHAPE_REPRESENTATION ( 'dc6a', ( #27, #169 ), #258 ) ;
#165 = COORDINATED_UNIVERSAL_TIME_OFFSET ( 1, 0, .AHEAD. ) ;
#166 = LINE ( 'NONE', #262, #19 ) ;
#167 = CC_DESIGN_PERSON_AND_ORGANIZATION_ASSIGNMENT ( #267, #52, ( #298 ) ) ;
#168 = ORIENTED_EDGE ( 'NONE', *, *, #187, .F. ) ;
#169 = AXIS2_PLACEMENT_3D ( 'NONE', #188, #22, #184 ) ;
#170 = DIRECTION ( 'NONE',  ( -0.000000000000000000, -0.000000000000000000, -1.000000000000000000 ) ) ;
#171 = DIRECTION ( 'NONE',  ( -1.000000000000000000, 1.224646799147353207E-16, 0.000000000000000000 ) ) ;
#172 = FACE_OUTER_BOUND ( 'NONE', #107, .T. ) ;
#173 = CC_DESIGN_PERSON_AND_ORGANIZATION_ASSIGNMENT ( #304, #17, ( #60 ) ) ;
#174 = CALENDAR_DATE ( 2022, 20, 6 ) ;
#175 = AXIS2_PLACEMENT_3D ( 'NONE', #201, #293, #299 ) ;
#176 = EDGE_CURVE ( 'NONE', #190, #13, #2, .T. ) ;
#177 = CARTESIAN_POINT ( 'NONE',  ( 0.000000000000000000, 0.000000000000000000, 3.199999999999980638 ) ) ;
#178 = CIRCLE ( 'NONE', #222, 5.000000000000000000 ) ;
#179 = CC_DESIGN_APPROVAL ( #117, ( #70 ) ) ;
#180 = DIRECTION ( 'NONE',  ( 1.224646799147353207E-16, 1.000000000000000000, -0.000000000000000000 ) ) ;
#181 = ORIENTED_EDGE ( 'NONE', *, *, #26, .T. ) ;
#182 = PLANE ( 'NONE',  #215 ) ;
#183 = ORIENTED_EDGE ( 'NONE', *, *, #205, .F. ) ;
#184 = DIRECTION ( 'NONE',  ( 1.000000000000000000, 0.000000000000000000, 0.000000000000000000 ) ) ;
#185 = AXIS2_PLACEMENT_3D ( 'NONE', #177, #294, #252 ) ;
#186 =( NAMED_UNIT ( * ) SI_UNIT ( $, .STERADIAN. ) SOLID_ANGLE_UNIT ( ) );
#187 = EDGE_CURVE ( 'NONE', #90, #49, #11, .T. ) ;
#188 = CARTESIAN_POINT ( 'NONE',  ( 0.000000000000000000, 0.000000000000000000, 0.000000000000000000 ) ) ;
#189 = FACE_OUTER_BOUND ( 'NONE', #3, .T. ) ;
#190 = VERTEX_POINT ( 'NONE', #144 ) ;
#191 = AXIS2_PLACEMENT_3D ( 'NONE', #102, #213, #21 ) ;
#192 = DIRECTION ( 'NONE',  ( -1.000000000000000000, 0.000000000000000000, 0.000000000000000000 ) ) ;
#193 = CARTESIAN_POINT ( 'NONE',  ( 0.000000000000000000, 0.000000000000000000, 3.199999999999980638 ) ) ;
#194 = FACE_OUTER_BOUND ( 'NONE', #99, .T. ) ;
#195 = SECURITY_CLASSIFICATION_LEVEL ( 'unclassified' ) ;
#196 = LINE ( 'NONE', #290, #94 ) ;
#197 = AXIS2_PLACEMENT_3D ( 'NONE', #97, #287, #51 ) ;
#198 = AXIS2_PLACEMENT_3D ( 'NONE', #104, #14, #38 ) ;
#199 = ADVANCED_FACE ( 'NONE', ( #230 ), #296, .F. ) ;
#200 = DIRECTION ( 'NONE',  ( -0.000000000000000000, -0.000000000000000000, -1.000000000000000000 ) ) ;
#201 = CARTESIAN_POINT ( 'NONE',  ( 0.000000000000000000, 0.000000000000000000, 3.199999999999980638 ) ) ;
#202 = DIRECTION ( 'NONE',  ( 0.000000000000000000, -1.000000000000000000, 0.000000000000000000 ) ) ;
#203 = AXIS2_PLACEMENT_3D ( 'NONE', #244, #84, #57 ) ;
#204 = APPROVAL_PERSON_ORGANIZATION ( #256, #289, #132 ) ;
#205 = EDGE_CURVE ( 'NONE', #249, #28, #122, .T. ) ;
#206 = DIRECTION ( 'NONE',  ( 0.000000000000000000, 0.000000000000000000, 1.000000000000000000 ) ) ;
#207 = LOCAL_TIME ( 11, 59, 14.00000000000000000, #218 ) ;
#208 = DIRECTION ( 'NONE',  ( 0.000000000000000000, 0.000000000000000000, 1.000000000000000000 ) ) ;
#209 = ORIENTED_EDGE ( 'NONE', *, *, #269, .F. ) ;
#210 = ORIENTED_EDGE ( 'NONE', *, *, #280, .T. ) ;
#211 = DESIGN_CONTEXT ( 'detailed design', #270, 'design' ) ;
#212 = CC_DESIGN_PERSON_AND_ORGANIZATION_ASSIGNMENT ( #156, #307, ( #81 ) ) ;
#213 = DIRECTION ( 'NONE',  ( -0.000000000000000000, -0.000000000000000000, -1.000000000000000000 ) ) ;
#214 = ORIENTED_EDGE ( 'NONE', *, *, #92, .T. ) ;
#215 = AXIS2_PLACEMENT_3D ( 'NONE', #246, #268, #58 ) ;
#216 = DATE_TIME_ROLE ( 'classification_date' ) ;
#217 = ORIENTED_EDGE ( 'NONE', *, *, #92, .F. ) ;
#218 = COORDINATED_UNIVERSAL_TIME_OFFSET ( 1, 0, .AHEAD. ) ;
#219 = ORIENTED_EDGE ( 'NONE', *, *, #205, .T. ) ;
#220 = EDGE_CURVE ( 'NONE', #49, #249, #86, .T. ) ;
#221 = DIRECTION ( 'NONE',  ( 1.000000000000000000, 0.000000000000000000, 0.000000000000000000 ) ) ;
#222 = AXIS2_PLACEMENT_3D ( 'NONE', #123, #274, #295 ) ;
#223 = DATE_AND_TIME ( #32, #108 ) ;
#224 = CARTESIAN_POINT ( 'NONE',  ( 0.000000000000000000, 0.000000000000000000, 3.199999999999980638 ) ) ;
#225 = CARTESIAN_POINT ( 'NONE',  ( -2.949999999999999734, 3.612708057484692097E-16, 3.199999999999980638 ) ) ;
#226 = ADVANCED_FACE ( 'NONE', ( #88 ), #266, .T. ) ;
#227 = AXIS2_PLACEMENT_3D ( 'NONE', #193, #263, #221 ) ;
#228 = CARTESIAN_POINT ( 'NONE',  ( -2.750000000000000000, 0.000000000000000000, 3.199999999999980638 ) ) ;
#229 = EDGE_LOOP ( 'NONE', ( #210, #130 ) ) ;
#230 = FACE_OUTER_BOUND ( 'NONE', #243, .T. ) ;
#231 = FACE_OUTER_BOUND ( 'NONE', #229, .T. ) ;
#232 = ORIENTED_EDGE ( 'NONE', *, *, #187, .T. ) ;
#233 = DATE_TIME_ROLE ( 'creation_date' ) ;
#234 = CC_DESIGN_DATE_AND_TIME_ASSIGNMENT ( #98, #216, ( #298 ) ) ;
#235 = APPROVAL_STATUS ( 'not_yet_approved' ) ;
#236 = ORIENTED_EDGE ( 'NONE', *, *, #288, .F. ) ;
#237 = APPROVAL_DATE_TIME ( #261, #289 ) ;
#238 = CARTESIAN_POINT ( 'NONE',  ( 2.750000000000000000, 3.367778697655221012E-16, 3.199999999999980638 ) ) ;
#239 = ORIENTED_EDGE ( 'NONE', *, *, #26, .F. ) ;
#240 = ORIENTED_EDGE ( 'NONE', *, *, #276, .T. ) ;
#241 = ADVANCED_FACE ( 'NONE', ( #9 ), #127, .T. ) ;
#242 = APPROVAL_ROLE ( '' ) ;
#243 = EDGE_LOOP ( 'NONE', ( #217, #67, #39, #73 ) ) ;
#244 = CARTESIAN_POINT ( 'NONE',  ( 0.000000000000000000, 0.000000000000000000, 3.000000000000000000 ) ) ;
#245 = APPROVAL_PERSON_ORGANIZATION ( #77, #50, #242 ) ;
#246 = CARTESIAN_POINT ( 'NONE',  ( 0.000000000000000000, 0.000000000000000000, 0.000000000000000000 ) ) ;
#247 = ORGANIZATION ( 'NEURÈENÝ', 'NEURÈENÝ', '' ) ;
#248 = DIRECTION ( 'NONE',  ( -1.000000000000000000, 0.000000000000000000, 0.000000000000000000 ) ) ;
#249 = VERTEX_POINT ( 'NONE', #228 ) ;
#250 = CARTESIAN_POINT ( 'NONE',  ( 0.000000000000000000, 0.000000000000000000, 3.000000000000000000 ) ) ;
#251 = ORIENTED_EDGE ( 'NONE', *, *, #69, .T. ) ;
#252 = DIRECTION ( 'NONE',  ( 1.000000000000000000, 0.000000000000000000, 0.000000000000000000 ) ) ;
#253 = CIRCLE ( 'NONE', #197, 5.000000000000000000 ) ;
#254 = CIRCLE ( 'NONE', #46, 0.2000000000000000944 ) ;
#255 = CALENDAR_DATE ( 2022, 20, 6 ) ;
#256 = PERSON_AND_ORGANIZATION ( #41, #247 ) ;
#257 = ORIENTED_EDGE ( 'NONE', *, *, #139, .T. ) ;
#258 =( GEOMETRIC_REPRESENTATION_CONTEXT ( 3 ) GLOBAL_UNCERTAINTY_ASSIGNED_CONTEXT ( ( #279 ) ) GLOBAL_UNIT_ASSIGNED_CONTEXT ( ( #286, #137, #186 ) ) REPRESENTATION_CONTEXT ( 'NONE', 'WORKASPACE' ) );
#259 = ADVANCED_FACE ( 'NONE', ( #109, #231 ), #111, .T. ) ;
#260 = CARTESIAN_POINT ( 'NONE',  ( 0.000000000000000000, 0.000000000000000000, 403.0000000000000000 ) ) ;
#261 = DATE_AND_TIME ( #255, #292 ) ;
#262 = CARTESIAN_POINT ( 'NONE',  ( 2.750000000000000000, 3.367778697655221012E-16, 403.0000000000000000 ) ) ;
#263 = DIRECTION ( 'NONE',  ( 0.000000000000000000, 0.000000000000000000, 1.000000000000000000 ) ) ;
#264 = AXIS2_PLACEMENT_3D ( 'NONE', #64, #208, #31 ) ;
#265 = CARTESIAN_POINT ( 'NONE',  ( 2.750000000000000000, 3.367778697655221012E-16, 403.0000000000000000 ) ) ;
#266 = PLANE ( 'NONE',  #44 ) ;
#267 = PERSON_AND_ORGANIZATION ( #41, #247 ) ;
#268 = DIRECTION ( 'NONE',  ( 0.000000000000000000, 0.000000000000000000, 1.000000000000000000 ) ) ;
#269 = EDGE_CURVE ( 'NONE', #63, #110, #37, .T. ) ;
#270 = APPLICATION_CONTEXT ( 'configuration controlled 3d designs of mechanical parts and assemblies' ) ;
#271 = VECTOR ( 'NONE', #170, 1000.000000000000000 ) ;
#272 = CARTESIAN_POINT ( 'NONE',  ( 0.000000000000000000, 0.000000000000000000, 403.0000000000000000 ) ) ;
#273 = ORIENTED_EDGE ( 'NONE', *, *, #33, .T. ) ;
#274 = DIRECTION ( 'NONE',  ( 0.000000000000000000, 0.000000000000000000, 1.000000000000000000 ) ) ;
#275 = EDGE_LOOP ( 'NONE', ( #135, #239, #101, #219 ) ) ;
#276 = EDGE_CURVE ( 'NONE', #28, #249, #155, .T. ) ;
#277 = DATE_AND_TIME ( #95, #150 ) ;
#278 = APPROVAL_DATE_TIME ( #89, #117 ) ;
#279 = UNCERTAINTY_MEASURE_WITH_UNIT (LENGTH_MEASURE( 1.000000000000000082E-05 ), #286, 'distance_accuracy_value', 'NONE');
#280 = EDGE_CURVE ( 'NONE', #110, #63, #36, .T. ) ;
#281 = COORDINATED_UNIVERSAL_TIME_OFFSET ( 1, 0, .AHEAD. ) ;
#282 = CIRCLE ( 'NONE', #203, 2.949999999999999734 ) ;
#283 = DIRECTION ( 'NONE',  ( 1.000000000000000000, 0.000000000000000000, 0.000000000000000000 ) ) ;
#284 = CC_DESIGN_APPROVAL ( #50, ( #298 ) ) ;
#285 = ADVANCED_FACE ( 'NONE', ( #172 ), #182, .F. ) ;
#286 =( LENGTH_UNIT ( ) NAMED_UNIT ( * ) SI_UNIT ( .MILLI., .METRE. ) );
#287 = DIRECTION ( 'NONE',  ( 0.000000000000000000, 0.000000000000000000, 1.000000000000000000 ) ) ;
#288 = EDGE_CURVE ( 'NONE', #28, #190, #254, .T. ) ;
#289 = APPROVAL ( #48, 'NEURÈENÝ' ) ;
#290 = CARTESIAN_POINT ( 'NONE',  ( -5.000000000000000000, 0.000000000000000000, 3.000000000000000000 ) ) ;
#291 = AXIS2_PLACEMENT_3D ( 'NONE', #306, #30, #142 ) ;
#292 = LOCAL_TIME ( 11, 59, 14.00000000000000000, #157 ) ;
#293 = DIRECTION ( 'NONE',  ( 0.000000000000000000, 0.000000000000000000, 1.000000000000000000 ) ) ;
#294 = DIRECTION ( 'NONE',  ( 0.000000000000000000, 0.000000000000000000, 1.000000000000000000 ) ) ;
#295 = DIRECTION ( 'NONE',  ( 1.000000000000000000, 0.000000000000000000, 0.000000000000000000 ) ) ;
#296 = TOROIDAL_SURFACE ( 'NONE', #96, 2.949999999999999734, 0.2000000000000000111 ) ;
#297 = CLOSED_SHELL ( 'NONE', ( #8, #241, #301, #15, #259, #285, #23, #226, #199 ) ) ;
#298 = SECURITY_CLASSIFICATION ( '', '', #195 ) ;
#299 = DIRECTION ( 'NONE',  ( 1.000000000000000000, 0.000000000000000000, 0.000000000000000000 ) ) ;
#300 = VERTEX_POINT ( 'NONE', #162 ) ;
#301 = ADVANCED_FACE ( 'NONE', ( #189 ), #305, .T. ) ;
#302 = CALENDAR_DATE ( 2022, 20, 6 ) ;
#303 = ORIENTED_EDGE ( 'NONE', *, *, #65, .T. ) ;
#304 = PERSON_AND_ORGANIZATION ( #41, #247 ) ;
#305 = CYLINDRICAL_SURFACE ( 'NONE', #25, 5.000000000000000000 ) ;
#306 = CARTESIAN_POINT ( 'NONE',  ( 0.000000000000000000, 0.000000000000000000, 403.0000000000000000 ) ) ;
#307 = PERSON_AND_ORGANIZATION_ROLE ( 'design_owner' ) ;
ENDSEC;
END-ISO-10303-21;
