ISO-10303-21;
HEADER;
FILE_DESCRIPTION (( 'STEP AP203' ),
    '1' );
FILE_NAME ('e80d.STEP',
    '2022-06-20T10:04:07',
    ( '' ),
    ( '' ),
    'SwSTEP 2.0',
    'SolidWorks 2019',
    '' );
FILE_SCHEMA (( 'CONFIG_CONTROL_DESIGN' ));
ENDSEC;

DATA;
#1 = DIRECTION ( 'NONE',  ( 1.000000000000000000, 0.000000000000000000, 0.000000000000000000 ) ) ;
#2 = DIRECTION ( 'NONE',  ( 0.000000000000000000, 0.000000000000000000, 1.000000000000000000 ) ) ;
#3 = CARTESIAN_POINT ( 'NONE',  ( 0.000000000000000000, 0.000000000000000000, 3.000000000000000000 ) ) ;
#4 = PLANE ( 'NONE',  #158 ) ;
#5 = ADVANCED_FACE ( 'NONE', ( #20 ), #209, .F. ) ;
#6 = DIRECTION ( 'NONE',  ( 1.000000000000000000, 0.000000000000000000, 0.000000000000000000 ) ) ;
#7 = APPROVAL_STATUS ( 'not_yet_approved' ) ;
#8 = PERSON_AND_ORGANIZATION ( #282, #70 ) ;
#9 = EDGE_LOOP ( 'NONE', ( #149, #56, #264, #246 ) ) ;
#10 = CIRCLE ( 'NONE', #21, 2.500000000000000000 ) ;
#11 = PERSON_AND_ORGANIZATION_ROLE ( 'design_supplier' ) ;
#12 = APPROVAL_ROLE ( '' ) ;
#13 = ORIENTED_EDGE ( 'NONE', *, *, #272, .F. ) ;
#14 = AXIS2_PLACEMENT_3D ( 'NONE', #30, #215, #6 ) ;
#15 = AXIS2_PLACEMENT_3D ( 'NONE', #262, #257, #173 ) ;
#16 = VERTEX_POINT ( 'NONE', #300 ) ;
#17 = ADVANCED_FACE ( 'NONE', ( #302 ), #61, .T. ) ;
#18 = ORIENTED_EDGE ( 'NONE', *, *, #191, .F. ) ;
#19 = CIRCLE ( 'NONE', #195, 5.000000000000000000 ) ;
#20 = FACE_OUTER_BOUND ( 'NONE', #126, .T. ) ;
#21 = AXIS2_PLACEMENT_3D ( 'NONE', #145, #219, #1 ) ;
#22 = EDGE_LOOP ( 'NONE', ( #18, #289, #184, #275 ) ) ;
#23 = DIRECTION ( 'NONE',  ( 1.000000000000000000, 0.000000000000000000, -0.000000000000000000 ) ) ;
#24 = ADVANCED_FACE ( 'NONE', ( #133 ), #233, .T. ) ;
#25 = DIRECTION ( 'NONE',  ( 0.000000000000000000, 0.000000000000000000, 1.000000000000000000 ) ) ;
#26 = PRODUCT_RELATED_PRODUCT_CATEGORY ( 'detail', '', ( #78 ) ) ;
#27 = CYLINDRICAL_SURFACE ( 'NONE', #229, 5.000000000000000000 ) ;
#28 = VECTOR ( 'NONE', #29, 1000.000000000000000 ) ;
#29 = DIRECTION ( 'NONE',  ( -0.000000000000000000, -0.000000000000000000, -1.000000000000000000 ) ) ;
#30 = CARTESIAN_POINT ( 'NONE',  ( 0.000000000000000000, 0.000000000000000000, 3.200000000000008171 ) ) ;
#31 = CC_DESIGN_PERSON_AND_ORGANIZATION_ASSIGNMENT ( #76, #176, ( #143 ) ) ;
#32 = COORDINATED_UNIVERSAL_TIME_OFFSET ( 1, 0, .AHEAD. ) ;
#33 = EDGE_CURVE ( 'NONE', #175, #181, #182, .T. ) ;
#34 = PERSON_AND_ORGANIZATION_ROLE ( 'creator' ) ;
#35 = AXIS2_PLACEMENT_3D ( 'NONE', #249, #231, #23 ) ;
#36 = APPROVAL_ROLE ( '' ) ;
#37 = CC_DESIGN_PERSON_AND_ORGANIZATION_ASSIGNMENT ( #293, #34, ( #91 ) ) ;
#38 = ORIENTED_EDGE ( 'NONE', *, *, #119, .F. ) ;
#39 = ORIENTED_EDGE ( 'NONE', *, *, #80, .F. ) ;
#40 = CC_DESIGN_PERSON_AND_ORGANIZATION_ASSIGNMENT ( #221, #291, ( #78 ) ) ;
#41 = SHAPE_DEFINITION_REPRESENTATION ( #284, #256 ) ;
#42 = DIRECTION ( 'NONE',  ( -0.000000000000000000, -0.000000000000000000, -1.000000000000000000 ) ) ;
#43 = ORIENTED_EDGE ( 'NONE', *, *, #121, .F. ) ;
#44 = VERTEX_POINT ( 'NONE', #155 ) ;
#45 = CARTESIAN_POINT ( 'NONE',  ( 0.000000000000000000, 0.000000000000000000, 3.000000000000000000 ) ) ;
#46 = CARTESIAN_POINT ( 'NONE',  ( -2.500000000000000000, 0.000000000000000000, 3.200000000000008171 ) ) ;
#47 = CARTESIAN_POINT ( 'NONE',  ( 2.500000000000000000, 3.061616997868383141E-16, 163.0000000000000000 ) ) ;
#48 = DIRECTION ( 'NONE',  ( 1.000000000000000000, 0.000000000000000000, 0.000000000000000000 ) ) ;
#49 = DIRECTION ( 'NONE',  ( 1.000000000000000000, 0.000000000000000000, 0.000000000000000000 ) ) ;
#50 = COORDINATED_UNIVERSAL_TIME_OFFSET ( 1, 0, .AHEAD. ) ;
#51 = EDGE_LOOP ( 'NONE', ( #177, #113 ) ) ;
#52 = SECURITY_CLASSIFICATION ( '', '', #263 ) ;
#53 = DATE_TIME_ROLE ( 'creation_date' ) ;
#54 = ORIENTED_EDGE ( 'NONE', *, *, #200, .T. ) ;
#55 = CALENDAR_DATE ( 2022, 20, 6 ) ;
#56 = ORIENTED_EDGE ( 'NONE', *, *, #272, .T. ) ;
#57 = CALENDAR_DATE ( 2022, 20, 6 ) ;
#58 = ORIENTED_EDGE ( 'NONE', *, *, #191, .T. ) ;
#59 = LOCAL_TIME ( 12, 4, 7.000000000000000000, #178 ) ;
#60 = DIRECTION ( 'NONE',  ( 0.000000000000000000, 0.000000000000000000, 1.000000000000000000 ) ) ;
#61 = CYLINDRICAL_SURFACE ( 'NONE', #290, 2.500000000000000000 ) ;
#62 = VERTEX_POINT ( 'NONE', #138 ) ;
#63 = FACE_OUTER_BOUND ( 'NONE', #228, .T. ) ;
#64 = DIRECTION ( 'NONE',  ( -1.000000000000000000, 0.000000000000000000, 0.000000000000000000 ) ) ;
#65 = VERTEX_POINT ( 'NONE', #86 ) ;
#66 = DIRECTION ( 'NONE',  ( 0.000000000000000000, 0.000000000000000000, 1.000000000000000000 ) ) ;
#67 = CARTESIAN_POINT ( 'NONE',  ( 0.000000000000000000, 0.000000000000000000, 163.0000000000000000 ) ) ;
#68 = CARTESIAN_POINT ( 'NONE',  ( 0.000000000000000000, 0.000000000000000000, 3.000000000000000000 ) ) ;
#69 = DIRECTION ( 'NONE',  ( -0.000000000000000000, -0.000000000000000000, -1.000000000000000000 ) ) ;
#70 = ORGANIZATION ( 'NEURÈENÝ', 'NEURÈENÝ', '' ) ;
#71 = DIRECTION ( 'NONE',  ( 1.000000000000000000, 0.000000000000000000, 0.000000000000000000 ) ) ;
#72 = CLOSED_SHELL ( 'NONE', ( #171, #17, #24, #232, #94, #5, #77, #283, #303 ) ) ;
#73 = AXIS2_PLACEMENT_3D ( 'NONE', #286, #66, #239 ) ;
#74 = APPROVAL_STATUS ( 'not_yet_approved' ) ;
#75 = ORIENTED_EDGE ( 'NONE', *, *, #166, .T. ) ;
#76 = PERSON_AND_ORGANIZATION ( #282, #70 ) ;
#77 = ADVANCED_FACE ( 'NONE', ( #63 ), #278, .T. ) ;
#78 = PRODUCT ( 'e80d', 'e80d', '', ( #245 ) ) ;
#79 = CARTESIAN_POINT ( 'NONE',  ( 0.000000000000000000, 0.000000000000000000, 0.000000000000000000 ) ) ;
#80 = EDGE_CURVE ( 'NONE', #151, #16, #301, .T. ) ;
#81 = PERSON_AND_ORGANIZATION_ROLE ( 'classification_officer' ) ;
#82 = DIRECTION ( 'NONE',  ( -1.000000000000000000, 0.000000000000000000, 0.000000000000000000 ) ) ;
#83 = CALENDAR_DATE ( 2022, 20, 6 ) ;
#84 = EDGE_CURVE ( 'NONE', #107, #16, #137, .T. ) ;
#85 = CARTESIAN_POINT ( 'NONE',  ( 0.000000000000000000, 0.000000000000000000, 3.000000000000000000 ) ) ;
#86 = CARTESIAN_POINT ( 'NONE',  ( -5.000000000000000000, 0.000000000000000000, 3.000000000000000000 ) ) ;
#87 = AXIS2_PLACEMENT_3D ( 'NONE', #122, #258, #49 ) ;
#88 = ORIENTED_EDGE ( 'NONE', *, *, #111, .F. ) ;
#89 = ORIENTED_EDGE ( 'NONE', *, *, #119, .T. ) ;
#90 = DIRECTION ( 'NONE',  ( -0.000000000000000000, -0.000000000000000000, -1.000000000000000000 ) ) ;
#91 = PRODUCT_DEFINITION_FORMATION_WITH_SPECIFIED_SOURCE ( 'LIBOVOLNÝ', '', #78, .NOT_KNOWN. ) ;
#92 = FACE_OUTER_BOUND ( 'NONE', #307, .T. ) ;
#93 = CARTESIAN_POINT ( 'NONE',  ( 5.000000000000000000, 6.123233995736766282E-16, 3.000000000000000000 ) ) ;
#94 = ADVANCED_FACE ( 'NONE', ( #234, #235 ), #299, .T. ) ;
#95 = LINE ( 'NONE', #240, #28 ) ;
#96 = CARTESIAN_POINT ( 'NONE',  ( 2.500000000000000000, 3.061616997868383141E-16, 3.200000000000008171 ) ) ;
#97 = APPROVAL_ROLE ( '' ) ;
#98 = APPROVAL ( #124, 'NEURÈENÝ' ) ;
#99 =( LENGTH_UNIT ( ) NAMED_UNIT ( * ) SI_UNIT ( .MILLI., .METRE. ) );
#100 = APPLICATION_PROTOCOL_DEFINITION ( 'international standard', 'config_control_design', 1994, #160 ) ;
#101 = UNCERTAINTY_MEASURE_WITH_UNIT (LENGTH_MEASURE( 1.000000000000000082E-05 ), #99, 'distance_accuracy_value', 'NONE');
#102 = AXIS2_PLACEMENT_3D ( 'NONE', #153, #60, #131 ) ;
#103 = VERTEX_POINT ( 'NONE', #47 ) ;
#104 = CALENDAR_DATE ( 2022, 20, 6 ) ;
#105 = ORIENTED_EDGE ( 'NONE', *, *, #127, .F. ) ;
#106 = VERTEX_POINT ( 'NONE', #93 ) ;
#107 = VERTEX_POINT ( 'NONE', #123 ) ;
#108 = EDGE_LOOP ( 'NONE', ( #296, #205, #236, #157 ) ) ;
#109 = AXIS2_PLACEMENT_3D ( 'NONE', #172, #2, #288 ) ;
#110 = DIRECTION ( 'NONE',  ( -0.000000000000000000, -0.000000000000000000, -1.000000000000000000 ) ) ;
#111 = EDGE_CURVE ( 'NONE', #175, #103, #210, .T. ) ;
#112 = LOCAL_TIME ( 12, 4, 7.000000000000000000, #32 ) ;
#113 = ORIENTED_EDGE ( 'NONE', *, *, #84, .T. ) ;
#114 = MANIFOLD_SOLID_BREP ( 'Zaoblit1', #72 ) ;
#115 = APPROVAL ( #7, 'NEURÈENÝ' ) ;
#116 = DIRECTION ( 'NONE',  ( 0.000000000000000000, 0.000000000000000000, 1.000000000000000000 ) ) ;
#117 = CARTESIAN_POINT ( 'NONE',  ( -2.500000000000000000, 0.000000000000000000, 163.0000000000000000 ) ) ;
#118 = CC_DESIGN_APPROVAL ( #115, ( #52 ) ) ;
#119 = EDGE_CURVE ( 'NONE', #65, #106, #19, .T. ) ;
#120 = CARTESIAN_POINT ( 'NONE',  ( 0.000000000000000000, 0.000000000000000000, 3.000000000000000000 ) ) ;
#121 = EDGE_CURVE ( 'NONE', #44, #62, #180, .T. ) ;
#122 = CARTESIAN_POINT ( 'NONE',  ( 0.000000000000000000, 0.000000000000000000, 163.0000000000000000 ) ) ;
#123 = CARTESIAN_POINT ( 'NONE',  ( -2.700000000000000178, 3.306546357697853733E-16, 3.000000000000004441 ) ) ;
#124 = APPROVAL_STATUS ( 'not_yet_approved' ) ;
#125 = CC_DESIGN_DATE_AND_TIME_ASSIGNMENT ( #295, #270, ( #52 ) ) ;
#126 = EDGE_LOOP ( 'NONE', ( #43, #211 ) ) ;
#127 = EDGE_CURVE ( 'NONE', #16, #107, #201, .T. ) ;
#128 = COORDINATED_UNIVERSAL_TIME_OFFSET ( 1, 0, .AHEAD. ) ;
#129 = AXIS2_PLACEMENT_3D ( 'NONE', #139, #163, #64 ) ;
#130 = CC_DESIGN_PERSON_AND_ORGANIZATION_ASSIGNMENT ( #226, #11, ( #91 ) ) ;
#131 = DIRECTION ( 'NONE',  ( 1.000000000000000000, 0.000000000000000000, 0.000000000000000000 ) ) ;
#132 = ORIENTED_EDGE ( 'NONE', *, *, #276, .T. ) ;
#133 = FACE_OUTER_BOUND ( 'NONE', #9, .T. ) ;
#134 = CIRCLE ( 'NONE', #241, 5.000000000000000000 ) ;
#135 = DIRECTION ( 'NONE',  ( 0.000000000000000000, 0.000000000000000000, 1.000000000000000000 ) ) ;
#136 = DIRECTION ( 'NONE',  ( -0.000000000000000000, -0.000000000000000000, -1.000000000000000000 ) ) ;
#137 = CIRCLE ( 'NONE', #168, 2.700000000000000178 ) ;
#138 = CARTESIAN_POINT ( 'NONE',  ( 5.000000000000000000, 6.123233995736766282E-16, 0.000000000000000000 ) ) ;
#139 = CARTESIAN_POINT ( 'NONE',  ( 0.000000000000000000, 0.000000000000000000, 163.0000000000000000 ) ) ;
#140 = DIRECTION ( 'NONE',  ( 1.224646799147353207E-16, 1.000000000000000000, -0.000000000000000000 ) ) ;
#141 = VECTOR ( 'NONE', #252, 1000.000000000000000 ) ;
#142 = DIRECTION ( 'NONE',  ( 1.000000000000000000, 0.000000000000000000, -0.000000000000000000 ) ) ;
#143 = PRODUCT_DEFINITION ( 'NEZNÁMÝ', '', #91, #294 ) ;
#144 = AXIS2_PLACEMENT_3D ( 'NONE', #68, #69, #71 ) ;
#145 = CARTESIAN_POINT ( 'NONE',  ( 0.000000000000000000, 0.000000000000000000, 3.200000000000008171 ) ) ;
#146 = FACE_OUTER_BOUND ( 'NONE', #225, .T. ) ;
#147 = AXIS2_PLACEMENT_3D ( 'NONE', #207, #162, #161 ) ;
#148 = CIRCLE ( 'NONE', #87, 2.500000000000000000 ) ;
#149 = ORIENTED_EDGE ( 'NONE', *, *, #276, .F. ) ;
#150 = PERSON_AND_ORGANIZATION ( #282, #70 ) ;
#151 = VERTEX_POINT ( 'NONE', #96 ) ;
#152 = DATE_AND_TIME ( #174, #112 ) ;
#153 = CARTESIAN_POINT ( 'NONE',  ( 0.000000000000000000, 0.000000000000000000, 3.200000000000008171 ) ) ;
#154 = CIRCLE ( 'NONE', #217, 0.2000000000000000944 ) ;
#155 = CARTESIAN_POINT ( 'NONE',  ( -5.000000000000000000, 0.000000000000000000, 0.000000000000000000 ) ) ;
#156 = AXIS2_PLACEMENT_3D ( 'NONE', #85, #110, #82 ) ;
#157 = ORIENTED_EDGE ( 'NONE', *, *, #84, .F. ) ;
#158 = AXIS2_PLACEMENT_3D ( 'NONE', #67, #169, #142 ) ;
#159 = DATE_AND_TIME ( #83, #213 ) ;
#160 = APPLICATION_CONTEXT ( 'configuration controlled 3d designs of mechanical parts and assemblies' ) ;
#161 = DIRECTION ( 'NONE',  ( 0.000000000000000000, 0.000000000000000000, -1.000000000000000000 ) ) ;
#162 = DIRECTION ( 'NONE',  ( 0.000000000000000000, -1.000000000000000000, 0.000000000000000000 ) ) ;
#163 = DIRECTION ( 'NONE',  ( -0.000000000000000000, -0.000000000000000000, -1.000000000000000000 ) ) ;
#164 = TOROIDAL_SURFACE ( 'NONE', #250, 2.700000000000000178, 0.2000000000000000111 ) ;
#165 = DIRECTION ( 'NONE',  ( 1.000000000000000000, 0.000000000000000000, 0.000000000000000000 ) ) ;
#166 = EDGE_CURVE ( 'NONE', #181, #107, #154, .T. ) ;
#167 = DIRECTION ( 'NONE',  ( -0.000000000000000000, -0.000000000000000000, -1.000000000000000000 ) ) ;
#168 = AXIS2_PLACEMENT_3D ( 'NONE', #254, #136, #274 ) ;
#169 = DIRECTION ( 'NONE',  ( 0.000000000000000000, 0.000000000000000000, 1.000000000000000000 ) ) ;
#170 =( GEOMETRIC_REPRESENTATION_CONTEXT ( 3 ) GLOBAL_UNCERTAINTY_ASSIGNED_CONTEXT ( ( #101 ) ) GLOBAL_UNIT_ASSIGNED_CONTEXT ( ( #99, #197, #199 ) ) REPRESENTATION_CONTEXT ( 'NONE', 'WORKASPACE' ) );
#171 = ADVANCED_FACE ( 'NONE', ( #146 ), #164, .F. ) ;
#172 = CARTESIAN_POINT ( 'NONE',  ( 0.000000000000000000, 0.000000000000000000, 163.0000000000000000 ) ) ;
#173 = DIRECTION ( 'NONE',  ( 1.000000000000000000, 0.000000000000000000, 0.000000000000000000 ) ) ;
#174 = CALENDAR_DATE ( 2022, 20, 6 ) ;
#175 = VERTEX_POINT ( 'NONE', #117 ) ;
#176 = PERSON_AND_ORGANIZATION_ROLE ( 'creator' ) ;
#177 = ORIENTED_EDGE ( 'NONE', *, *, #127, .T. ) ;
#178 = COORDINATED_UNIVERSAL_TIME_OFFSET ( 1, 0, .AHEAD. ) ;
#179 = APPROVAL_DATE_TIME ( #267, #98 ) ;
#180 = CIRCLE ( 'NONE', #73, 5.000000000000000000 ) ;
#181 = VERTEX_POINT ( 'NONE', #46 ) ;
#182 = LINE ( 'NONE', #273, #141 ) ;
#183 = EDGE_CURVE ( 'NONE', #62, #44, #185, .T. ) ;
#184 = ORIENTED_EDGE ( 'NONE', *, *, #194, .T. ) ;
#185 = CIRCLE ( 'NONE', #15, 5.000000000000000000 ) ;
#186 = LOCAL_TIME ( 12, 4, 7.000000000000000000, #128 ) ;
#187 = CARTESIAN_POINT ( 'NONE',  ( 0.000000000000000000, 0.000000000000000000, 0.000000000000000000 ) ) ;
#188 = DIRECTION ( 'NONE',  ( 1.000000000000000000, 0.000000000000000000, -0.000000000000000000 ) ) ;
#189 = DIRECTION ( 'NONE',  ( -1.000000000000000000, 0.000000000000000000, 0.000000000000000000 ) ) ;
#190 = VECTOR ( 'NONE', #90, 1000.000000000000000 ) ;
#191 = EDGE_CURVE ( 'NONE', #103, #175, #148, .T. ) ;
#192 = LINE ( 'NONE', #193, #190 ) ;
#193 = CARTESIAN_POINT ( 'NONE',  ( -5.000000000000000000, 0.000000000000000000, 3.000000000000000000 ) ) ;
#194 = EDGE_CURVE ( 'NONE', #151, #181, #10, .T. ) ;
#195 = AXIS2_PLACEMENT_3D ( 'NONE', #120, #242, #165 ) ;
#196 = FACE_OUTER_BOUND ( 'NONE', #214, .T. ) ;
#197 =( NAMED_UNIT ( * ) PLANE_ANGLE_UNIT ( ) SI_UNIT ( $, .RADIAN. ) );
#198 = EDGE_LOOP ( 'NONE', ( #89, #132 ) ) ;
#199 =( NAMED_UNIT ( * ) SI_UNIT ( $, .STERADIAN. ) SOLID_ANGLE_UNIT ( ) );
#200 = EDGE_CURVE ( 'NONE', #181, #151, #260, .T. ) ;
#201 = CIRCLE ( 'NONE', #144, 2.700000000000000178 ) ;
#202 = APPROVAL_DATE_TIME ( #152, #237 ) ;
#203 = CC_DESIGN_PERSON_AND_ORGANIZATION_ASSIGNMENT ( #243, #81, ( #52 ) ) ;
#204 = DATE_AND_TIME ( #55, #59 ) ;
#205 = ORIENTED_EDGE ( 'NONE', *, *, #194, .F. ) ;
#206 = DIRECTION ( 'NONE',  ( 1.000000000000000000, 0.000000000000000000, 0.000000000000000000 ) ) ;
#207 = CARTESIAN_POINT ( 'NONE',  ( 2.700000000000000178, 0.000000000000000000, 3.200000000000008171 ) ) ;
#208 = ORIENTED_EDGE ( 'NONE', *, *, #111, .T. ) ;
#209 = PLANE ( 'NONE',  #279 ) ;
#210 = CIRCLE ( 'NONE', #109, 2.500000000000000000 ) ;
#211 = ORIENTED_EDGE ( 'NONE', *, *, #183, .F. ) ;
#212 = AXIS2_PLACEMENT_3D ( 'NONE', #79, #223, #206 ) ;
#213 = LOCAL_TIME ( 12, 4, 7.000000000000000000, #50 ) ;
#214 = EDGE_LOOP ( 'NONE', ( #13, #38, #244, #268 ) ) ;
#215 = DIRECTION ( 'NONE',  ( 0.000000000000000000, 0.000000000000000000, 1.000000000000000000 ) ) ;
#216 = DIRECTION ( 'NONE',  ( 1.000000000000000000, 0.000000000000000000, 0.000000000000000000 ) ) ;
#217 = AXIS2_PLACEMENT_3D ( 'NONE', #280, #140, #220 ) ;
#218 = LINE ( 'NONE', #281, #265 ) ;
#219 = DIRECTION ( 'NONE',  ( 0.000000000000000000, 0.000000000000000000, 1.000000000000000000 ) ) ;
#220 = DIRECTION ( 'NONE',  ( -1.000000000000000000, 1.224646799147353207E-16, 0.000000000000000000 ) ) ;
#221 = PERSON_AND_ORGANIZATION ( #282, #70 ) ;
#222 = EDGE_CURVE ( 'NONE', #65, #44, #192, .T. ) ;
#223 = DIRECTION ( 'NONE',  ( 0.000000000000000000, 0.000000000000000000, 1.000000000000000000 ) ) ;
#224 = ORIENTED_EDGE ( 'NONE', *, *, #200, .F. ) ;
#225 = EDGE_LOOP ( 'NONE', ( #224, #75, #105, #39 ) ) ;
#226 = PERSON_AND_ORGANIZATION ( #282, #70 ) ;
#227 = APPLICATION_PROTOCOL_DEFINITION ( 'international standard', 'config_control_design', 1994, #238 ) ;
#228 = EDGE_LOOP ( 'NONE', ( #306, #88, #277, #54 ) ) ;
#229 = AXIS2_PLACEMENT_3D ( 'NONE', #3, #167, #189 ) ;
#230 = APPROVAL_PERSON_ORGANIZATION ( #271, #115, #97 ) ;
#231 = DIRECTION ( 'NONE',  ( 0.000000000000000000, 0.000000000000000000, 1.000000000000000000 ) ) ;
#232 = ADVANCED_FACE ( 'NONE', ( #196 ), #27, .T. ) ;
#233 = CYLINDRICAL_SURFACE ( 'NONE', #156, 5.000000000000000000 ) ;
#234 = FACE_BOUND ( 'NONE', #51, .T. ) ;
#235 = FACE_OUTER_BOUND ( 'NONE', #198, .T. ) ;
#236 = ORIENTED_EDGE ( 'NONE', *, *, #80, .T. ) ;
#237 = APPROVAL ( #74, 'NEURÈENÝ' ) ;
#238 = APPLICATION_CONTEXT ( 'configuration controlled 3d designs of mechanical parts and assemblies' ) ;
#239 = DIRECTION ( 'NONE',  ( 1.000000000000000000, 0.000000000000000000, 0.000000000000000000 ) ) ;
#240 = CARTESIAN_POINT ( 'NONE',  ( 2.500000000000000000, 3.061616997868383141E-16, 163.0000000000000000 ) ) ;
#241 = AXIS2_PLACEMENT_3D ( 'NONE', #45, #25, #216 ) ;
#242 = DIRECTION ( 'NONE',  ( 0.000000000000000000, 0.000000000000000000, 1.000000000000000000 ) ) ;
#243 = PERSON_AND_ORGANIZATION ( #282, #70 ) ;
#244 = ORIENTED_EDGE ( 'NONE', *, *, #222, .T. ) ;
#245 = MECHANICAL_CONTEXT ( 'NONE', #238, 'mechanical' ) ;
#246 = ORIENTED_EDGE ( 'NONE', *, *, #222, .F. ) ;
#247 = APPROVAL_PERSON_ORGANIZATION ( #150, #237, #12 ) ;
#248 = CC_DESIGN_SECURITY_CLASSIFICATION ( #52, ( #91 ) ) ;
#249 = CARTESIAN_POINT ( 'NONE',  ( 0.000000000000000000, 0.000000000000000000, 3.000000000000000000 ) ) ;
#250 = AXIS2_PLACEMENT_3D ( 'NONE', #261, #116, #48 ) ;
#251 = CARTESIAN_POINT ( 'NONE',  ( 0.000000000000000000, 0.000000000000000000, 163.0000000000000000 ) ) ;
#252 = DIRECTION ( 'NONE',  ( -0.000000000000000000, -0.000000000000000000, -1.000000000000000000 ) ) ;
#253 = APPROVAL_DATE_TIME ( #159, #115 ) ;
#254 = CARTESIAN_POINT ( 'NONE',  ( 0.000000000000000000, 0.000000000000000000, 3.000000000000000000 ) ) ;
#255 = DIRECTION ( 'NONE',  ( -1.000000000000000000, 0.000000000000000000, 0.000000000000000000 ) ) ;
#256 = ADVANCED_BREP_SHAPE_REPRESENTATION ( 'e80d', ( #114, #212 ), #170 ) ;
#257 = DIRECTION ( 'NONE',  ( 0.000000000000000000, 0.000000000000000000, 1.000000000000000000 ) ) ;
#258 = DIRECTION ( 'NONE',  ( 0.000000000000000000, 0.000000000000000000, 1.000000000000000000 ) ) ;
#259 = FACE_OUTER_BOUND ( 'NONE', #108, .T. ) ;
#260 = CIRCLE ( 'NONE', #14, 2.500000000000000000 ) ;
#261 = CARTESIAN_POINT ( 'NONE',  ( 0.000000000000000000, 0.000000000000000000, 3.200000000000008171 ) ) ;
#262 = CARTESIAN_POINT ( 'NONE',  ( 0.000000000000000000, 0.000000000000000000, 0.000000000000000000 ) ) ;
#263 = SECURITY_CLASSIFICATION_LEVEL ( 'unclassified' ) ;
#264 = ORIENTED_EDGE ( 'NONE', *, *, #183, .T. ) ;
#265 = VECTOR ( 'NONE', #285, 1000.000000000000000 ) ;
#266 = APPROVAL_PERSON_ORGANIZATION ( #8, #98, #36 ) ;
#267 = DATE_AND_TIME ( #57, #305 ) ;
#268 = ORIENTED_EDGE ( 'NONE', *, *, #121, .T. ) ;
#269 = CC_DESIGN_DATE_AND_TIME_ASSIGNMENT ( #204, #53, ( #143 ) ) ;
#270 = DATE_TIME_ROLE ( 'classification_date' ) ;
#271 = PERSON_AND_ORGANIZATION ( #282, #70 ) ;
#272 = EDGE_CURVE ( 'NONE', #106, #62, #218, .T. ) ;
#273 = CARTESIAN_POINT ( 'NONE',  ( -2.500000000000000000, 0.000000000000000000, 163.0000000000000000 ) ) ;
#274 = DIRECTION ( 'NONE',  ( 1.000000000000000000, 0.000000000000000000, 0.000000000000000000 ) ) ;
#275 = ORIENTED_EDGE ( 'NONE', *, *, #33, .F. ) ;
#276 = EDGE_CURVE ( 'NONE', #106, #65, #134, .T. ) ;
#277 = ORIENTED_EDGE ( 'NONE', *, *, #33, .T. ) ;
#278 = CYLINDRICAL_SURFACE ( 'NONE', #129, 2.500000000000000000 ) ;
#279 = AXIS2_PLACEMENT_3D ( 'NONE', #187, #135, #188 ) ;
#280 = CARTESIAN_POINT ( 'NONE',  ( -2.700000000000000178, 3.306546357697853733E-16, 3.200000000000008171 ) ) ;
#281 = CARTESIAN_POINT ( 'NONE',  ( 5.000000000000000000, 6.123233995736766282E-16, 3.000000000000000000 ) ) ;
#282 = PERSON ( 'NEURÈENÝ', 'NEURÈENÝ', 'NEURÈENÝ', ('NEURÈENÝ'), ('NEURÈENÝ'), ('NEURÈENÝ') ) ;
#283 = ADVANCED_FACE ( 'NONE', ( #92 ), #4, .T. ) ;
#284 = PRODUCT_DEFINITION_SHAPE ( 'NONE', 'NONE',  #143 ) ;
#285 = DIRECTION ( 'NONE',  ( -0.000000000000000000, -0.000000000000000000, -1.000000000000000000 ) ) ;
#286 = CARTESIAN_POINT ( 'NONE',  ( 0.000000000000000000, 0.000000000000000000, 0.000000000000000000 ) ) ;
#287 = CC_DESIGN_APPROVAL ( #237, ( #143 ) ) ;
#288 = DIRECTION ( 'NONE',  ( 1.000000000000000000, 0.000000000000000000, 0.000000000000000000 ) ) ;
#289 = ORIENTED_EDGE ( 'NONE', *, *, #298, .T. ) ;
#290 = AXIS2_PLACEMENT_3D ( 'NONE', #251, #42, #255 ) ;
#291 = PERSON_AND_ORGANIZATION_ROLE ( 'design_owner' ) ;
#292 = CC_DESIGN_APPROVAL ( #98, ( #91 ) ) ;
#293 = PERSON_AND_ORGANIZATION ( #282, #70 ) ;
#294 = DESIGN_CONTEXT ( 'detailed design', #160, 'design' ) ;
#295 = DATE_AND_TIME ( #104, #186 ) ;
#296 = ORIENTED_EDGE ( 'NONE', *, *, #166, .F. ) ;
#297 = COORDINATED_UNIVERSAL_TIME_OFFSET ( 1, 0, .AHEAD. ) ;
#298 = EDGE_CURVE ( 'NONE', #103, #151, #95, .T. ) ;
#299 = PLANE ( 'NONE',  #35 ) ;
#300 = CARTESIAN_POINT ( 'NONE',  ( 2.700000000000000178, 0.000000000000000000, 3.000000000000004441 ) ) ;
#301 = CIRCLE ( 'NONE', #147, 0.2000000000000000944 ) ;
#302 = FACE_OUTER_BOUND ( 'NONE', #22, .T. ) ;
#303 = ADVANCED_FACE ( 'NONE', ( #259 ), #304, .F. ) ;
#304 = TOROIDAL_SURFACE ( 'NONE', #102, 2.700000000000000178, 0.2000000000000000111 ) ;
#305 = LOCAL_TIME ( 12, 4, 7.000000000000000000, #297 ) ;
#306 = ORIENTED_EDGE ( 'NONE', *, *, #298, .F. ) ;
#307 = EDGE_LOOP ( 'NONE', ( #208, #58 ) ) ;
ENDSEC;
END-ISO-10303-21;
