ISO-10303-21;
HEADER;
FILE_DESCRIPTION (( 'STEP AP203' ),
    '1' );
FILE_NAME ('bc8d.STEP',
    '2022-06-20T09:41:34',
    ( '' ),
    ( '' ),
    'SwSTEP 2.0',
    'SolidWorks 2019',
    '' );
FILE_SCHEMA (( 'CONFIG_CONTROL_DESIGN' ));
ENDSEC;

DATA;
#1 = ORIENTED_EDGE ( 'NONE', *, *, #71, .F. ) ;
#2 = CC_DESIGN_PERSON_AND_ORGANIZATION_ASSIGNMENT ( #272, #211, ( #251 ) ) ;
#3 = ADVANCED_BREP_SHAPE_REPRESENTATION ( 'bc8d', ( #129, #121 ), #214 ) ;
#4 = DIRECTION ( 'NONE',  ( -0.000000000000000000, -0.000000000000000000, -1.000000000000000000 ) ) ;
#5 = ADVANCED_FACE ( 'NONE', ( #247, #111 ), #63, .T. ) ;
#6 = DIRECTION ( 'NONE',  ( 1.000000000000000000, 0.000000000000000000, 0.000000000000000000 ) ) ;
#7 = LOCAL_TIME ( 11, 41, 34.00000000000000000, #110 ) ;
#8 = DIRECTION ( 'NONE',  ( -0.000000000000000000, -0.000000000000000000, -1.000000000000000000 ) ) ;
#9 = DIRECTION ( 'NONE',  ( 0.000000000000000000, 0.000000000000000000, 1.000000000000000000 ) ) ;
#10 = ORIENTED_EDGE ( 'NONE', *, *, #237, .T. ) ;
#11 = CARTESIAN_POINT ( 'NONE',  ( -8.000000000000000000, 0.000000000000000000, 5.000000000000000000 ) ) ;
#12 = APPROVAL ( #291, 'NEURÈENÝ' ) ;
#13 = VERTEX_POINT ( 'NONE', #267 ) ;
#14 = AXIS2_PLACEMENT_3D ( 'NONE', #209, #22, #142 ) ;
#15 = APPLICATION_PROTOCOL_DEFINITION ( 'international standard', 'config_control_design', 1994, #117 ) ;
#16 = CARTESIAN_POINT ( 'NONE',  ( 0.000000000000000000, 0.000000000000000000, 5.200000000000009948 ) ) ;
#17 = PERSON_AND_ORGANIZATION_ROLE ( 'creator' ) ;
#18 = VERTEX_POINT ( 'NONE', #207 ) ;
#19 = EDGE_LOOP ( 'NONE', ( #40, #178, #184, #269 ) ) ;
#20 = VECTOR ( 'NONE', #4, 1000.000000000000000 ) ;
#21 = PRODUCT_DEFINITION_FORMATION_WITH_SPECIFIED_SOURCE ( 'LIBOVOLNÝ', '', #108, .NOT_KNOWN. ) ;
#22 = DIRECTION ( 'NONE',  ( 0.000000000000000000, 0.000000000000000000, 1.000000000000000000 ) ) ;
#23 = APPLICATION_PROTOCOL_DEFINITION ( 'international standard', 'config_control_design', 1994, #84 ) ;
#24 = AXIS2_PLACEMENT_3D ( 'NONE', #53, #60, #198 ) ;
#25 = AXIS2_PLACEMENT_3D ( 'NONE', #57, #182, #6 ) ;
#26 = CARTESIAN_POINT ( 'NONE',  ( 0.000000000000000000, 0.000000000000000000, 0.000000000000000000 ) ) ;
#27 = EDGE_CURVE ( 'NONE', #156, #191, #249, .T. ) ;
#28 = CARTESIAN_POINT ( 'NONE',  ( -5.200000000000001066, 6.368163355566237368E-16, 5.000000000000005329 ) ) ;
#29 = AXIS2_PLACEMENT_3D ( 'NONE', #257, #145, #299 ) ;
#30 = PLANE ( 'NONE',  #162 ) ;
#31 = CARTESIAN_POINT ( 'NONE',  ( -5.000000000000000888, 0.000000000000000000, 5.200000000000009948 ) ) ;
#32 = CC_DESIGN_SECURITY_CLASSIFICATION ( #251, ( #21 ) ) ;
#33 = ORIENTED_EDGE ( 'NONE', *, *, #190, .F. ) ;
#34 = CARTESIAN_POINT ( 'NONE',  ( 0.000000000000000000, 0.000000000000000000, 0.000000000000000000 ) ) ;
#35 = ORIENTED_EDGE ( 'NONE', *, *, #124, .T. ) ;
#36 = DIRECTION ( 'NONE',  ( -0.000000000000000000, -0.000000000000000000, -1.000000000000000000 ) ) ;
#37 = APPROVAL ( #112, 'NEURÈENÝ' ) ;
#38 = DIRECTION ( 'NONE',  ( -1.000000000000000000, 1.224646799147353454E-16, 0.000000000000000000 ) ) ;
#39 = PRODUCT_DEFINITION_SHAPE ( 'NONE', 'NONE',  #79 ) ;
#40 = ORIENTED_EDGE ( 'NONE', *, *, #196, .F. ) ;
#41 = APPROVAL_DATE_TIME ( #159, #37 ) ;
#42 = ORIENTED_EDGE ( 'NONE', *, *, #165, .F. ) ;
#43 = COORDINATED_UNIVERSAL_TIME_OFFSET ( 1, 0, .AHEAD. ) ;
#44 = DIRECTION ( 'NONE',  ( 1.000000000000000000, 0.000000000000000000, 0.000000000000000000 ) ) ;
#45 = EDGE_CURVE ( 'NONE', #174, #156, #223, .T. ) ;
#46 = PERSON_AND_ORGANIZATION_ROLE ( 'design_supplier' ) ;
#47 = DIRECTION ( 'NONE',  ( 1.000000000000000000, 0.000000000000000000, 0.000000000000000000 ) ) ;
#48 = AXIS2_PLACEMENT_3D ( 'NONE', #179, #36, #197 ) ;
#49 = TOROIDAL_SURFACE ( 'NONE', #307, 5.200000000000001066, 0.2000000000000000111 ) ;
#50 = ADVANCED_FACE ( 'NONE', ( #202 ), #49, .F. ) ;
#51 = APPROVAL_ROLE ( '' ) ;
#52 = CIRCLE ( 'NONE', #25, 5.000000000000000888 ) ;
#53 = CARTESIAN_POINT ( 'NONE',  ( 0.000000000000000000, 0.000000000000000000, 5.000000000000000000 ) ) ;
#54 = EDGE_LOOP ( 'NONE', ( #150, #147, #229, #260 ) ) ;
#55 = CARTESIAN_POINT ( 'NONE',  ( -8.000000000000000000, 0.000000000000000000, 5.000000000000000000 ) ) ;
#56 = EDGE_CURVE ( 'NONE', #13, #284, #125, .T. ) ;
#57 = CARTESIAN_POINT ( 'NONE',  ( 0.000000000000000000, 0.000000000000000000, 165.0000000000000000 ) ) ;
#58 = AXIS2_PLACEMENT_3D ( 'NONE', #89, #136, #38 ) ;
#59 = DIRECTION ( 'NONE',  ( 1.000000000000000000, 0.000000000000000000, -0.000000000000000000 ) ) ;
#60 = DIRECTION ( 'NONE',  ( -0.000000000000000000, -0.000000000000000000, -1.000000000000000000 ) ) ;
#61 = DIRECTION ( 'NONE',  ( 0.000000000000000000, 0.000000000000000000, 1.000000000000000000 ) ) ;
#62 = DIRECTION ( 'NONE',  ( -0.000000000000000000, -0.000000000000000000, -1.000000000000000000 ) ) ;
#63 = PLANE ( 'NONE',  #212 ) ;
#64 = CARTESIAN_POINT ( 'NONE',  ( 0.000000000000000000, 0.000000000000000000, 0.000000000000000000 ) ) ;
#65 = EDGE_CURVE ( 'NONE', #174, #292, #93, .T. ) ;
#66 = ORIENTED_EDGE ( 'NONE', *, *, #199, .F. ) ;
#67 = ORIENTED_EDGE ( 'NONE', *, *, #236, .T. ) ;
#68 = COORDINATED_UNIVERSAL_TIME_OFFSET ( 1, 0, .AHEAD. ) ;
#69 = DIRECTION ( 'NONE',  ( 0.000000000000000000, 0.000000000000000000, 1.000000000000000000 ) ) ;
#70 = LOCAL_TIME ( 11, 41, 34.00000000000000000, #43 ) ;
#71 = EDGE_CURVE ( 'NONE', #292, #174, #296, .T. ) ;
#72 = PERSON_AND_ORGANIZATION ( #102, #168 ) ;
#73 = AXIS2_PLACEMENT_3D ( 'NONE', #34, #99, #288 ) ;
#74 = CARTESIAN_POINT ( 'NONE',  ( 5.000000000000000888, 6.123233995736767268E-16, 165.0000000000000000 ) ) ;
#75 = EDGE_LOOP ( 'NONE', ( #87, #88, #222, #220 ) ) ;
#76 = PRODUCT_RELATED_PRODUCT_CATEGORY ( 'detail', '', ( #108 ) ) ;
#77 = CARTESIAN_POINT ( 'NONE',  ( 5.200000000000001066, 0.000000000000000000, 5.000000000000005329 ) ) ;
#78 =( NAMED_UNIT ( * ) PLANE_ANGLE_UNIT ( ) SI_UNIT ( $, .RADIAN. ) );
#79 = PRODUCT_DEFINITION ( 'NEZNÁMÝ', '', #21, #290 ) ;
#80 = DIRECTION ( 'NONE',  ( -0.000000000000000000, -0.000000000000000000, -1.000000000000000000 ) ) ;
#81 = DIRECTION ( 'NONE',  ( 1.000000000000000000, 0.000000000000000000, -0.000000000000000000 ) ) ;
#82 = AXIS2_PLACEMENT_3D ( 'NONE', #208, #80, #253 ) ;
#83 = DIRECTION ( 'NONE',  ( 0.000000000000000000, 0.000000000000000000, 1.000000000000000000 ) ) ;
#84 = APPLICATION_CONTEXT ( 'configuration controlled 3d designs of mechanical parts and assemblies' ) ;
#85 = UNCERTAINTY_MEASURE_WITH_UNIT (LENGTH_MEASURE( 1.000000000000000082E-05 ), #123, 'distance_accuracy_value', 'NONE');
#86 = CARTESIAN_POINT ( 'NONE',  ( 5.000000000000000888, 6.123233995736767268E-16, 5.200000000000009948 ) ) ;
#87 = ORIENTED_EDGE ( 'NONE', *, *, #124, .F. ) ;
#88 = ORIENTED_EDGE ( 'NONE', *, *, #199, .T. ) ;
#89 = CARTESIAN_POINT ( 'NONE',  ( -5.200000000000001066, 6.368163355566237368E-16, 5.200000000000009948 ) ) ;
#90 = APPROVAL_PERSON_ORGANIZATION ( #72, #122, #51 ) ;
#91 = CALENDAR_DATE ( 2022, 20, 6 ) ;
#92 = PERSON_AND_ORGANIZATION ( #102, #168 ) ;
#93 = CIRCLE ( 'NONE', #144, 5.000000000000000888 ) ;
#94 = COORDINATED_UNIVERSAL_TIME_OFFSET ( 1, 0, .AHEAD. ) ;
#95 = EDGE_CURVE ( 'NONE', #292, #191, #280, .T. ) ;
#96 = DIRECTION ( 'NONE',  ( 0.000000000000000000, 0.000000000000000000, 1.000000000000000000 ) ) ;
#97 = ADVANCED_FACE ( 'NONE', ( #302 ), #193, .T. ) ;
#98 = CARTESIAN_POINT ( 'NONE',  ( -5.000000000000000888, 0.000000000000000000, 165.0000000000000000 ) ) ;
#99 = DIRECTION ( 'NONE',  ( 0.000000000000000000, 0.000000000000000000, 1.000000000000000000 ) ) ;
#100 = EDGE_CURVE ( 'NONE', #284, #13, #148, .T. ) ;
#101 = DIRECTION ( 'NONE',  ( -0.000000000000000000, -0.000000000000000000, -1.000000000000000000 ) ) ;
#102 = PERSON ( 'NEURÈENÝ', 'NEURÈENÝ', 'NEURÈENÝ', ('NEURÈENÝ'), ('NEURÈENÝ'), ('NEURÈENÝ') ) ;
#103 = CARTESIAN_POINT ( 'NONE',  ( 0.000000000000000000, 0.000000000000000000, 5.000000000000000000 ) ) ;
#104 = CARTESIAN_POINT ( 'NONE',  ( -8.000000000000000000, 0.000000000000000000, 0.000000000000000000 ) ) ;
#105 = VECTOR ( 'NONE', #153, 1000.000000000000000 ) ;
#106 = ORIENTED_EDGE ( 'NONE', *, *, #65, .T. ) ;
#107 = DATE_TIME_ROLE ( 'creation_date' ) ;
#108 = PRODUCT ( 'bc8d', 'bc8d', '', ( #293 ) ) ;
#109 = DIRECTION ( 'NONE',  ( 1.000000000000000000, 0.000000000000000000, 0.000000000000000000 ) ) ;
#110 = COORDINATED_UNIVERSAL_TIME_OFFSET ( 1, 0, .AHEAD. ) ;
#111 = FACE_OUTER_BOUND ( 'NONE', #138, .T. ) ;
#112 = APPROVAL_STATUS ( 'not_yet_approved' ) ;
#113 = PERSON_AND_ORGANIZATION ( #102, #168 ) ;
#114 = DATE_AND_TIME ( #304, #183 ) ;
#115 = FACE_OUTER_BOUND ( 'NONE', #163, .T. ) ;
#116 = CALENDAR_DATE ( 2022, 20, 6 ) ;
#117 = APPLICATION_CONTEXT ( 'configuration controlled 3d designs of mechanical parts and assemblies' ) ;
#118 = LOCAL_TIME ( 11, 41, 34.00000000000000000, #68 ) ;
#119 = EDGE_CURVE ( 'NONE', #289, #18, #217, .T. ) ;
#120 = CYLINDRICAL_SURFACE ( 'NONE', #48, 8.000000000000000000 ) ;
#121 = AXIS2_PLACEMENT_3D ( 'NONE', #64, #228, #194 ) ;
#122 = APPROVAL ( #248, 'NEURÈENÝ' ) ;
#123 =( LENGTH_UNIT ( ) NAMED_UNIT ( * ) SI_UNIT ( .MILLI., .METRE. ) );
#124 = EDGE_CURVE ( 'NONE', #241, #205, #242, .T. ) ;
#125 = CIRCLE ( 'NONE', #181, 8.000000000000000000 ) ;
#126 = DIRECTION ( 'NONE',  ( -0.000000000000000000, -0.000000000000000000, -1.000000000000000000 ) ) ;
#127 = ORIENTED_EDGE ( 'NONE', *, *, #27, .T. ) ;
#128 = CYLINDRICAL_SURFACE ( 'NONE', #233, 8.000000000000000000 ) ;
#129 = MANIFOLD_SOLID_BREP ( 'Zaoblit1', #255 ) ;
#130 = EDGE_LOOP ( 'NONE', ( #215, #127 ) ) ;
#131 = LINE ( 'NONE', #98, #259 ) ;
#132 = ADVANCED_FACE ( 'NONE', ( #115 ), #170, .T. ) ;
#133 = DIRECTION ( 'NONE',  ( 1.000000000000000000, 0.000000000000000000, 0.000000000000000000 ) ) ;
#134 = CALENDAR_DATE ( 2022, 20, 6 ) ;
#135 = AXIS2_PLACEMENT_3D ( 'NONE', #195, #305, #274 ) ;
#136 = DIRECTION ( 'NONE',  ( 1.224646799147353207E-16, 1.000000000000000000, -0.000000000000000000 ) ) ;
#137 = PERSON_AND_ORGANIZATION ( #102, #168 ) ;
#138 = EDGE_LOOP ( 'NONE', ( #140, #265 ) ) ;
#139 = APPROVAL_ROLE ( '' ) ;
#140 = ORIENTED_EDGE ( 'NONE', *, *, #100, .T. ) ;
#141 = CC_DESIGN_PERSON_AND_ORGANIZATION_ASSIGNMENT ( #250, #226, ( #108 ) ) ;
#142 = DIRECTION ( 'NONE',  ( 1.000000000000000000, 0.000000000000000000, 0.000000000000000000 ) ) ;
#143 = DATE_AND_TIME ( #167, #118 ) ;
#144 = AXIS2_PLACEMENT_3D ( 'NONE', #188, #83, #133 ) ;
#145 = DIRECTION ( 'NONE',  ( 0.000000000000000000, -1.000000000000000000, 0.000000000000000000 ) ) ;
#146 = ADVANCED_FACE ( 'NONE', ( #155 ), #30, .F. ) ;
#147 = ORIENTED_EDGE ( 'NONE', *, *, #45, .T. ) ;
#148 = CIRCLE ( 'NONE', #14, 8.000000000000000000 ) ;
#149 = CARTESIAN_POINT ( 'NONE',  ( 0.000000000000000000, 0.000000000000000000, 5.200000000000009948 ) ) ;
#150 = ORIENTED_EDGE ( 'NONE', *, *, #65, .F. ) ;
#151 = DIRECTION ( 'NONE',  ( -1.000000000000000000, 0.000000000000000000, 0.000000000000000000 ) ) ;
#152 = VECTOR ( 'NONE', #243, 1000.000000000000000 ) ;
#153 = DIRECTION ( 'NONE',  ( -0.000000000000000000, -0.000000000000000000, -1.000000000000000000 ) ) ;
#154 = CARTESIAN_POINT ( 'NONE',  ( 0.000000000000000000, 0.000000000000000000, 5.000000000000000000 ) ) ;
#155 = FACE_OUTER_BOUND ( 'NONE', #180, .T. ) ;
#156 = VERTEX_POINT ( 'NONE', #28 ) ;
#157 = CARTESIAN_POINT ( 'NONE',  ( 0.000000000000000000, 0.000000000000000000, 0.000000000000000000 ) ) ;
#158 = ORIENTED_EDGE ( 'NONE', *, *, #190, .T. ) ;
#159 = DATE_AND_TIME ( #134, #70 ) ;
#160 = CIRCLE ( 'NONE', #73, 8.000000000000000000 ) ;
#161 = CC_DESIGN_DATE_AND_TIME_ASSIGNMENT ( #143, #300, ( #251 ) ) ;
#162 = AXIS2_PLACEMENT_3D ( 'NONE', #157, #240, #81 ) ;
#163 = EDGE_LOOP ( 'NONE', ( #66, #33, #10, #106 ) ) ;
#164 = ORIENTED_EDGE ( 'NONE', *, *, #27, .F. ) ;
#165 = EDGE_CURVE ( 'NONE', #284, #289, #282, .T. ) ;
#166 = APPROVAL_DATE_TIME ( #192, #12 ) ;
#167 = CALENDAR_DATE ( 2022, 20, 6 ) ;
#168 = ORGANIZATION ( 'NEURÈENÝ', 'NEURÈENÝ', '' ) ;
#169 = APPROVAL_PERSON_ORGANIZATION ( #206, #12, #139 ) ;
#170 = CYLINDRICAL_SURFACE ( 'NONE', #275, 5.000000000000000888 ) ;
#171 = CARTESIAN_POINT ( 'NONE',  ( 0.000000000000000000, 0.000000000000000000, 5.200000000000009948 ) ) ;
#172 = AXIS2_PLACEMENT_3D ( 'NONE', #235, #96, #273 ) ;
#173 = CC_DESIGN_APPROVAL ( #122, ( #251 ) ) ;
#174 = VERTEX_POINT ( 'NONE', #31 ) ;
#175 = AXIS2_PLACEMENT_3D ( 'NONE', #149, #9, #239 ) ;
#176 = CC_DESIGN_APPROVAL ( #12, ( #21 ) ) ;
#177 = FACE_OUTER_BOUND ( 'NONE', #281, .T. ) ;
#178 = ORIENTED_EDGE ( 'NONE', *, *, #100, .F. ) ;
#179 = CARTESIAN_POINT ( 'NONE',  ( 0.000000000000000000, 0.000000000000000000, 5.000000000000000000 ) ) ;
#180 = EDGE_LOOP ( 'NONE', ( #252, #200 ) ) ;
#181 = AXIS2_PLACEMENT_3D ( 'NONE', #154, #225, #109 ) ;
#182 = DIRECTION ( 'NONE',  ( 0.000000000000000000, 0.000000000000000000, 1.000000000000000000 ) ) ;
#183 = LOCAL_TIME ( 11, 41, 34.00000000000000000, #94 ) ;
#184 = ORIENTED_EDGE ( 'NONE', *, *, #165, .T. ) ;
#185 = CC_DESIGN_DATE_AND_TIME_ASSIGNMENT ( #232, #107, ( #79 ) ) ;
#186 = CARTESIAN_POINT ( 'NONE',  ( 0.000000000000000000, 0.000000000000000000, 165.0000000000000000 ) ) ;
#187 = EDGE_LOOP ( 'NONE', ( #158, #35 ) ) ;
#188 = CARTESIAN_POINT ( 'NONE',  ( 0.000000000000000000, 0.000000000000000000, 5.200000000000009948 ) ) ;
#189 = CC_DESIGN_APPROVAL ( #37, ( #79 ) ) ;
#190 = EDGE_CURVE ( 'NONE', #205, #241, #52, .T. ) ;
#191 = VERTEX_POINT ( 'NONE', #77 ) ;
#192 = DATE_AND_TIME ( #91, #234 ) ;
#193 = PLANE ( 'NONE',  #172 ) ;
#194 = DIRECTION ( 'NONE',  ( 1.000000000000000000, 0.000000000000000000, 0.000000000000000000 ) ) ;
#195 = CARTESIAN_POINT ( 'NONE',  ( 0.000000000000000000, 0.000000000000000000, 165.0000000000000000 ) ) ;
#196 = EDGE_CURVE ( 'NONE', #13, #18, #264, .T. ) ;
#197 = DIRECTION ( 'NONE',  ( -1.000000000000000000, 0.000000000000000000, 0.000000000000000000 ) ) ;
#198 = DIRECTION ( 'NONE',  ( 1.000000000000000000, 0.000000000000000000, 0.000000000000000000 ) ) ;
#199 = EDGE_CURVE ( 'NONE', #241, #292, #261, .T. ) ;
#200 = ORIENTED_EDGE ( 'NONE', *, *, #236, .F. ) ;
#201 = CARTESIAN_POINT ( 'NONE',  ( 8.000000000000000000, 9.797174393178825657E-16, 5.000000000000000000 ) ) ;
#202 = FACE_OUTER_BOUND ( 'NONE', #54, .T. ) ;
#203 = APPROVAL_PERSON_ORGANIZATION ( #92, #37, #268 ) ;
#204 = CARTESIAN_POINT ( 'NONE',  ( -5.000000000000000888, 0.000000000000000000, 165.0000000000000000 ) ) ;
#205 = VERTEX_POINT ( 'NONE', #204 ) ;
#206 = PERSON_AND_ORGANIZATION ( #102, #168 ) ;
#207 = CARTESIAN_POINT ( 'NONE',  ( 8.000000000000000000, 9.797174393178825657E-16, 0.000000000000000000 ) ) ;
#208 = CARTESIAN_POINT ( 'NONE',  ( 0.000000000000000000, 0.000000000000000000, 5.000000000000000000 ) ) ;
#209 = CARTESIAN_POINT ( 'NONE',  ( 0.000000000000000000, 0.000000000000000000, 5.000000000000000000 ) ) ;
#210 = SECURITY_CLASSIFICATION_LEVEL ( 'unclassified' ) ;
#211 = PERSON_AND_ORGANIZATION_ROLE ( 'classification_officer' ) ;
#212 = AXIS2_PLACEMENT_3D ( 'NONE', #103, #61, #59 ) ;
#213 = DIRECTION ( 'NONE',  ( 0.000000000000000000, 0.000000000000000000, 1.000000000000000000 ) ) ;
#214 =( GEOMETRIC_REPRESENTATION_CONTEXT ( 3 ) GLOBAL_UNCERTAINTY_ASSIGNED_CONTEXT ( ( #85 ) ) GLOBAL_UNIT_ASSIGNED_CONTEXT ( ( #123, #78, #224 ) ) REPRESENTATION_CONTEXT ( 'NONE', 'WORKASPACE' ) );
#215 = ORIENTED_EDGE ( 'NONE', *, *, #256, .T. ) ;
#216 = CARTESIAN_POINT ( 'NONE',  ( 5.000000000000000888, 6.123233995736767268E-16, 165.0000000000000000 ) ) ;
#217 = CIRCLE ( 'NONE', #287, 8.000000000000000000 ) ;
#218 = CYLINDRICAL_SURFACE ( 'NONE', #303, 5.000000000000000888 ) ;
#219 = FACE_OUTER_BOUND ( 'NONE', #75, .T. ) ;
#220 = ORIENTED_EDGE ( 'NONE', *, *, #237, .F. ) ;
#221 = FACE_OUTER_BOUND ( 'NONE', #19, .T. ) ;
#222 = ORIENTED_EDGE ( 'NONE', *, *, #71, .T. ) ;
#223 = CIRCLE ( 'NONE', #58, 0.1999999999999996503 ) ;
#224 =( NAMED_UNIT ( * ) SI_UNIT ( $, .STERADIAN. ) SOLID_ANGLE_UNIT ( ) );
#225 = DIRECTION ( 'NONE',  ( 0.000000000000000000, 0.000000000000000000, 1.000000000000000000 ) ) ;
#226 = PERSON_AND_ORGANIZATION_ROLE ( 'design_owner' ) ;
#227 = ORIENTED_EDGE ( 'NONE', *, *, #95, .T. ) ;
#228 = DIRECTION ( 'NONE',  ( 0.000000000000000000, 0.000000000000000000, 1.000000000000000000 ) ) ;
#229 = ORIENTED_EDGE ( 'NONE', *, *, #256, .F. ) ;
#230 = CIRCLE ( 'NONE', #24, 5.200000000000001066 ) ;
#231 = DIRECTION ( 'NONE',  ( 1.000000000000000000, 0.000000000000000000, 0.000000000000000000 ) ) ;
#232 = DATE_AND_TIME ( #116, #7 ) ;
#233 = AXIS2_PLACEMENT_3D ( 'NONE', #285, #126, #151 ) ;
#234 = LOCAL_TIME ( 11, 41, 34.00000000000000000, #298 ) ;
#235 = CARTESIAN_POINT ( 'NONE',  ( 0.000000000000000000, 0.000000000000000000, 165.0000000000000000 ) ) ;
#236 = EDGE_CURVE ( 'NONE', #18, #289, #160, .T. ) ;
#237 = EDGE_CURVE ( 'NONE', #205, #174, #131, .T. ) ;
#238 = AXIS2_PLACEMENT_3D ( 'NONE', #171, #213, #47 ) ;
#239 = DIRECTION ( 'NONE',  ( 1.000000000000000000, 0.000000000000000000, 0.000000000000000000 ) ) ;
#240 = DIRECTION ( 'NONE',  ( 0.000000000000000000, 0.000000000000000000, 1.000000000000000000 ) ) ;
#241 = VERTEX_POINT ( 'NONE', #74 ) ;
#242 = CIRCLE ( 'NONE', #135, 5.000000000000000888 ) ;
#243 = DIRECTION ( 'NONE',  ( -0.000000000000000000, -0.000000000000000000, -1.000000000000000000 ) ) ;
#244 = ORIENTED_EDGE ( 'NONE', *, *, #56, .F. ) ;
#245 = CC_DESIGN_PERSON_AND_ORGANIZATION_ASSIGNMENT ( #254, #46, ( #21 ) ) ;
#246 = FACE_OUTER_BOUND ( 'NONE', #277, .T. ) ;
#247 = FACE_BOUND ( 'NONE', #130, .T. ) ;
#248 = APPROVAL_STATUS ( 'not_yet_approved' ) ;
#249 = CIRCLE ( 'NONE', #82, 5.200000000000001066 ) ;
#250 = PERSON_AND_ORGANIZATION ( #102, #168 ) ;
#251 = SECURITY_CLASSIFICATION ( '', '', #210 ) ;
#252 = ORIENTED_EDGE ( 'NONE', *, *, #119, .F. ) ;
#253 = DIRECTION ( 'NONE',  ( 1.000000000000000000, 0.000000000000000000, 0.000000000000000000 ) ) ;
#254 = PERSON_AND_ORGANIZATION ( #102, #168 ) ;
#255 = CLOSED_SHELL ( 'NONE', ( #50, #297, #276, #283, #5, #146, #132, #97, #306 ) ) ;
#256 = EDGE_CURVE ( 'NONE', #191, #156, #230, .T. ) ;
#257 = CARTESIAN_POINT ( 'NONE',  ( 5.200000000000001066, 0.000000000000000000, 5.200000000000009948 ) ) ;
#258 = CC_DESIGN_PERSON_AND_ORGANIZATION_ASSIGNMENT ( #113, #271, ( #21 ) ) ;
#259 = VECTOR ( 'NONE', #101, 1000.000000000000000 ) ;
#260 = ORIENTED_EDGE ( 'NONE', *, *, #95, .F. ) ;
#261 = LINE ( 'NONE', #216, #20 ) ;
#262 = DIRECTION ( 'NONE',  ( -1.000000000000000000, 0.000000000000000000, 0.000000000000000000 ) ) ;
#263 = TOROIDAL_SURFACE ( 'NONE', #175, 5.200000000000001066, 0.2000000000000000111 ) ;
#264 = LINE ( 'NONE', #201, #152 ) ;
#265 = ORIENTED_EDGE ( 'NONE', *, *, #56, .T. ) ;
#266 = CARTESIAN_POINT ( 'NONE',  ( 0.000000000000000000, 0.000000000000000000, 165.0000000000000000 ) ) ;
#267 = CARTESIAN_POINT ( 'NONE',  ( 8.000000000000000000, 9.797174393178825657E-16, 5.000000000000000000 ) ) ;
#268 = APPROVAL_ROLE ( '' ) ;
#269 = ORIENTED_EDGE ( 'NONE', *, *, #119, .T. ) ;
#270 = ORIENTED_EDGE ( 'NONE', *, *, #196, .T. ) ;
#271 = PERSON_AND_ORGANIZATION_ROLE ( 'creator' ) ;
#272 = PERSON_AND_ORGANIZATION ( #102, #168 ) ;
#273 = DIRECTION ( 'NONE',  ( 1.000000000000000000, 0.000000000000000000, -0.000000000000000000 ) ) ;
#274 = DIRECTION ( 'NONE',  ( 1.000000000000000000, 0.000000000000000000, 0.000000000000000000 ) ) ;
#275 = AXIS2_PLACEMENT_3D ( 'NONE', #266, #62, #262 ) ;
#276 = ADVANCED_FACE ( 'NONE', ( #246 ), #128, .T. ) ;
#277 = EDGE_LOOP ( 'NONE', ( #244, #270, #67, #42 ) ) ;
#278 = CC_DESIGN_PERSON_AND_ORGANIZATION_ASSIGNMENT ( #137, #17, ( #79 ) ) ;
#279 = DIRECTION ( 'NONE',  ( -1.000000000000000000, 0.000000000000000000, 0.000000000000000000 ) ) ;
#280 = CIRCLE ( 'NONE', #29, 0.1999999999999996503 ) ;
#281 = EDGE_LOOP ( 'NONE', ( #295, #1, #227, #164 ) ) ;
#282 = LINE ( 'NONE', #55, #105 ) ;
#283 = ADVANCED_FACE ( 'NONE', ( #221 ), #120, .T. ) ;
#284 = VERTEX_POINT ( 'NONE', #11 ) ;
#285 = CARTESIAN_POINT ( 'NONE',  ( 0.000000000000000000, 0.000000000000000000, 5.000000000000000000 ) ) ;
#286 = DIRECTION ( 'NONE',  ( 0.000000000000000000, 0.000000000000000000, 1.000000000000000000 ) ) ;
#287 = AXIS2_PLACEMENT_3D ( 'NONE', #26, #69, #231 ) ;
#288 = DIRECTION ( 'NONE',  ( 1.000000000000000000, 0.000000000000000000, 0.000000000000000000 ) ) ;
#289 = VERTEX_POINT ( 'NONE', #104 ) ;
#290 = DESIGN_CONTEXT ( 'detailed design', #117, 'design' ) ;
#291 = APPROVAL_STATUS ( 'not_yet_approved' ) ;
#292 = VERTEX_POINT ( 'NONE', #86 ) ;
#293 = MECHANICAL_CONTEXT ( 'NONE', #84, 'mechanical' ) ;
#294 = SHAPE_DEFINITION_REPRESENTATION ( #39, #3 ) ;
#295 = ORIENTED_EDGE ( 'NONE', *, *, #45, .F. ) ;
#296 = CIRCLE ( 'NONE', #238, 5.000000000000000888 ) ;
#297 = ADVANCED_FACE ( 'NONE', ( #219 ), #218, .T. ) ;
#298 = COORDINATED_UNIVERSAL_TIME_OFFSET ( 1, 0, .AHEAD. ) ;
#299 = DIRECTION ( 'NONE',  ( 0.000000000000000000, 0.000000000000000000, -1.000000000000000000 ) ) ;
#300 = DATE_TIME_ROLE ( 'classification_date' ) ;
#301 = APPROVAL_DATE_TIME ( #114, #122 ) ;
#302 = FACE_OUTER_BOUND ( 'NONE', #187, .T. ) ;
#303 = AXIS2_PLACEMENT_3D ( 'NONE', #186, #8, #279 ) ;
#304 = CALENDAR_DATE ( 2022, 20, 6 ) ;
#305 = DIRECTION ( 'NONE',  ( 0.000000000000000000, 0.000000000000000000, 1.000000000000000000 ) ) ;
#306 = ADVANCED_FACE ( 'NONE', ( #177 ), #263, .F. ) ;
#307 = AXIS2_PLACEMENT_3D ( 'NONE', #16, #286, #44 ) ;
ENDSEC;
END-ISO-10303-21;
