ISO-10303-21;
HEADER;
FILE_DESCRIPTION (( 'STEP AP203' ),
    '1' );
FILE_NAME ('4f79.STEP',
    '2022-06-20T09:50:33',
    ( '' ),
    ( '' ),
    'SwSTEP 2.0',
    'SolidWorks 2019',
    '' );
FILE_SCHEMA (( 'CONFIG_CONTROL_DESIGN' ));
ENDSEC;

DATA;
#1 = DIRECTION ( 'NONE',  ( -0.000000000000000000, -0.000000000000000000, -1.000000000000000000 ) ) ;
#2 = APPLICATION_CONTEXT ( 'configuration controlled 3d designs of mechanical parts and assemblies' ) ;
#3 = ADVANCED_FACE ( 'NONE', ( #276 ), #298, .T. ) ;
#4 =( NAMED_UNIT ( * ) PLANE_ANGLE_UNIT ( ) SI_UNIT ( $, .RADIAN. ) );
#5 = CARTESIAN_POINT ( 'NONE',  ( 0.000000000000000000, 0.000000000000000000, 405.0000000000000000 ) ) ;
#6 = CIRCLE ( 'NONE', #84, 6.000000000000000888 ) ;
#7 = ORIENTED_EDGE ( 'NONE', *, *, #195, .F. ) ;
#8 = CIRCLE ( 'NONE', #183, 6.000000000000000888 ) ;
#9 = VERTEX_POINT ( 'NONE', #88 ) ;
#10 = ORIENTED_EDGE ( 'NONE', *, *, #101, .F. ) ;
#11 = VERTEX_POINT ( 'NONE', #185 ) ;
#12 = EDGE_LOOP ( 'NONE', ( #252, #178, #85, #269 ) ) ;
#13 = CARTESIAN_POINT ( 'NONE',  ( 3.949999999999999734, 0.000000000000000000, 4.999999999999991118 ) ) ;
#14 = FACE_OUTER_BOUND ( 'NONE', #57, .T. ) ;
#15 = EDGE_CURVE ( 'NONE', #18, #30, #272, .T. ) ;
#16 = APPROVAL_DATE_TIME ( #23, #27 ) ;
#17 = SECURITY_CLASSIFICATION ( '', '', #120 ) ;
#18 = VERTEX_POINT ( 'NONE', #260 ) ;
#19 = APPROVAL_ROLE ( '' ) ;
#20 = DIRECTION ( 'NONE',  ( 0.000000000000000000, 0.000000000000000000, 1.000000000000000000 ) ) ;
#21 = APPROVAL_ROLE ( '' ) ;
#22 = DIRECTION ( 'NONE',  ( 0.000000000000000000, 0.000000000000000000, 1.000000000000000000 ) ) ;
#23 = DATE_AND_TIME ( #65, #190 ) ;
#24 = CARTESIAN_POINT ( 'NONE',  ( 0.000000000000000000, 0.000000000000000000, 5.199999999999982414 ) ) ;
#25 = CARTESIAN_POINT ( 'NONE',  ( 6.000000000000000888, 7.347880794884120722E-16, 5.000000000000000000 ) ) ;
#26 = DIRECTION ( 'NONE',  ( 1.000000000000000000, 0.000000000000000000, 0.000000000000000000 ) ) ;
#27 = APPROVAL ( #259, 'NEURÈENÝ' ) ;
#28 = FACE_OUTER_BOUND ( 'NONE', #266, .T. ) ;
#29 = PRODUCT_DEFINITION_FORMATION_WITH_SPECIFIED_SOURCE ( 'LIBOVOLNÝ', '', #177, .NOT_KNOWN. ) ;
#30 = VERTEX_POINT ( 'NONE', #13 ) ;
#31 = ORIENTED_EDGE ( 'NONE', *, *, #107, .F. ) ;
#32 = AXIS2_PLACEMENT_3D ( 'NONE', #204, #296, #132 ) ;
#33 = ORIENTED_EDGE ( 'NONE', *, *, #50, .T. ) ;
#34 = ORIENTED_EDGE ( 'NONE', *, *, #70, .F. ) ;
#35 = COORDINATED_UNIVERSAL_TIME_OFFSET ( 1, 0, .AHEAD. ) ;
#36 = DIRECTION ( 'NONE',  ( 0.000000000000000000, 0.000000000000000000, 1.000000000000000000 ) ) ;
#37 = CIRCLE ( 'NONE', #80, 3.750000000000000000 ) ;
#38 = DIRECTION ( 'NONE',  ( -0.000000000000000000, -0.000000000000000000, -1.000000000000000000 ) ) ;
#39 = APPROVAL_DATE_TIME ( #257, #180 ) ;
#40 = PLANE ( 'NONE',  #131 ) ;
#41 = PERSON_AND_ORGANIZATION ( #102, #157 ) ;
#42 = CYLINDRICAL_SURFACE ( 'NONE', #246, 6.000000000000000888 ) ;
#43 = PRODUCT_DEFINITION ( 'NEZNÁMÝ', '', #29, #292 ) ;
#44 = APPROVAL_STATUS ( 'not_yet_approved' ) ;
#45 = FACE_OUTER_BOUND ( 'NONE', #197, .T. ) ;
#46 = CIRCLE ( 'NONE', #68, 3.750000000000000000 ) ;
#47 = CARTESIAN_POINT ( 'NONE',  ( 0.000000000000000000, 0.000000000000000000, 5.000000000000000000 ) ) ;
#48 = LOCAL_TIME ( 11, 50, 33.00000000000000000, #167 ) ;
#49 = DIRECTION ( 'NONE',  ( 1.000000000000000000, 0.000000000000000000, 0.000000000000000000 ) ) ;
#50 = EDGE_CURVE ( 'NONE', #130, #129, #37, .T. ) ;
#51 = AXIS2_PLACEMENT_3D ( 'NONE', #69, #155, #112 ) ;
#52 = CARTESIAN_POINT ( 'NONE',  ( 0.000000000000000000, 0.000000000000000000, 5.000000000000000000 ) ) ;
#53 = VERTEX_POINT ( 'NONE', #181 ) ;
#54 = ADVANCED_FACE ( 'NONE', ( #14 ), #42, .T. ) ;
#55 = ORIENTED_EDGE ( 'NONE', *, *, #161, .T. ) ;
#56 = EDGE_CURVE ( 'NONE', #9, #130, #86, .T. ) ;
#57 = EDGE_LOOP ( 'NONE', ( #10, #7, #179, #55 ) ) ;
#58 = CIRCLE ( 'NONE', #77, 3.750000000000000000 ) ;
#59 = CARTESIAN_POINT ( 'NONE',  ( 0.000000000000000000, 0.000000000000000000, 5.000000000000000000 ) ) ;
#60 = APPROVAL ( #299, 'NEURÈENÝ' ) ;
#61 = PERSON_AND_ORGANIZATION ( #102, #157 ) ;
#62 = CARTESIAN_POINT ( 'NONE',  ( 0.000000000000000000, 0.000000000000000000, 5.199999999999982414 ) ) ;
#63 = DATE_AND_TIME ( #241, #105 ) ;
#64 = DIRECTION ( 'NONE',  ( -0.000000000000000000, -0.000000000000000000, -1.000000000000000000 ) ) ;
#65 = CALENDAR_DATE ( 2022, 20, 6 ) ;
#66 = DIRECTION ( 'NONE',  ( 1.224646799147353207E-16, 1.000000000000000000, -0.000000000000000000 ) ) ;
#67 = PERSON_AND_ORGANIZATION_ROLE ( 'creator' ) ;
#68 = AXIS2_PLACEMENT_3D ( 'NONE', #5, #196, #76 ) ;
#69 = CARTESIAN_POINT ( 'NONE',  ( 0.000000000000000000, 0.000000000000000000, 405.0000000000000000 ) ) ;
#70 = EDGE_CURVE ( 'NONE', #228, #129, #242, .T. ) ;
#71 = AXIS2_PLACEMENT_3D ( 'NONE', #182, #118, #232 ) ;
#72 = DIRECTION ( 'NONE',  ( 0.000000000000000000, 0.000000000000000000, 1.000000000000000000 ) ) ;
#73 = ADVANCED_FACE ( 'NONE', ( #253 ), #166, .T. ) ;
#74 = AXIS2_PLACEMENT_3D ( 'NONE', #24, #168, #142 ) ;
#75 = CARTESIAN_POINT ( 'NONE',  ( 0.000000000000000000, 0.000000000000000000, 0.000000000000000000 ) ) ;
#76 = DIRECTION ( 'NONE',  ( 1.000000000000000000, 0.000000000000000000, 0.000000000000000000 ) ) ;
#77 = AXIS2_PLACEMENT_3D ( 'NONE', #254, #36, #281 ) ;
#78 = AXIS2_PLACEMENT_3D ( 'NONE', #193, #263, #288 ) ;
#79 = ORIENTED_EDGE ( 'NONE', *, *, #225, .T. ) ;
#80 = AXIS2_PLACEMENT_3D ( 'NONE', #62, #121, #256 ) ;
#81 = ORIENTED_EDGE ( 'NONE', *, *, #15, .T. ) ;
#82 = CC_DESIGN_PERSON_AND_ORGANIZATION_ASSIGNMENT ( #214, #94, ( #177 ) ) ;
#83 = ORIENTED_EDGE ( 'NONE', *, *, #50, .F. ) ;
#84 = AXIS2_PLACEMENT_3D ( 'NONE', #146, #72, #216 ) ;
#85 = ORIENTED_EDGE ( 'NONE', *, *, #124, .T. ) ;
#86 = LINE ( 'NONE', #134, #108 ) ;
#87 = COORDINATED_UNIVERSAL_TIME_OFFSET ( 1, 0, .AHEAD. ) ;
#88 = CARTESIAN_POINT ( 'NONE',  ( -3.750000000000000000, 0.000000000000000000, 405.0000000000000000 ) ) ;
#89 = CC_DESIGN_APPROVAL ( #180, ( #29 ) ) ;
#90 = CC_DESIGN_APPROVAL ( #27, ( #43 ) ) ;
#91 = CALENDAR_DATE ( 2022, 20, 6 ) ;
#92 = UNCERTAINTY_MEASURE_WITH_UNIT (LENGTH_MEASURE( 1.000000000000000082E-05 ), #221, 'distance_accuracy_value', 'NONE');
#93 = ORIENTED_EDGE ( 'NONE', *, *, #107, .T. ) ;
#94 = PERSON_AND_ORGANIZATION_ROLE ( 'design_owner' ) ;
#95 = FACE_OUTER_BOUND ( 'NONE', #293, .T. ) ;
#96 = CALENDAR_DATE ( 2022, 20, 6 ) ;
#97 = DIRECTION ( 'NONE',  ( -0.000000000000000000, -0.000000000000000000, -1.000000000000000000 ) ) ;
#98 = CALENDAR_DATE ( 2022, 20, 6 ) ;
#99 = CARTESIAN_POINT ( 'NONE',  ( -6.000000000000000888, 0.000000000000000000, 5.000000000000000000 ) ) ;
#100 = CARTESIAN_POINT ( 'NONE',  ( 0.000000000000000000, 0.000000000000000000, 5.199999999999982414 ) ) ;
#101 = EDGE_CURVE ( 'NONE', #248, #53, #139, .T. ) ;
#102 = PERSON ( 'NEURÈENÝ', 'NEURÈENÝ', 'NEURÈENÝ', ('NEURÈENÝ'), ('NEURÈENÝ'), ('NEURÈENÝ') ) ;
#103 = AXIS2_PLACEMENT_3D ( 'NONE', #245, #223, #127 ) ;
#104 = EDGE_LOOP ( 'NONE', ( #83, #199, #203, #31 ) ) ;
#105 = LOCAL_TIME ( 11, 50, 33.00000000000000000, #35 ) ;
#106 = ORIENTED_EDGE ( 'NONE', *, *, #124, .F. ) ;
#107 = EDGE_CURVE ( 'NONE', #129, #30, #186, .T. ) ;
#108 = VECTOR ( 'NONE', #38, 1000.000000000000000 ) ;
#109 = ORIENTED_EDGE ( 'NONE', *, *, #136, .T. ) ;
#110 =( GEOMETRIC_REPRESENTATION_CONTEXT ( 3 ) GLOBAL_UNCERTAINTY_ASSIGNED_CONTEXT ( ( #92 ) ) GLOBAL_UNIT_ASSIGNED_CONTEXT ( ( #221, #4, #171 ) ) REPRESENTATION_CONTEXT ( 'NONE', 'WORKASPACE' ) );
#111 = DIRECTION ( 'NONE',  ( -1.000000000000000000, 0.000000000000000000, 0.000000000000000000 ) ) ;
#112 = DIRECTION ( 'NONE',  ( -1.000000000000000000, 0.000000000000000000, 0.000000000000000000 ) ) ;
#113 = EDGE_CURVE ( 'NONE', #229, #11, #273, .T. ) ;
#114 = DIRECTION ( 'NONE',  ( 0.000000000000000000, 0.000000000000000000, 1.000000000000000000 ) ) ;
#115 = AXIS2_PLACEMENT_3D ( 'NONE', #100, #306, #264 ) ;
#116 = APPROVAL_PERSON_ORGANIZATION ( #165, #180, #302 ) ;
#117 = DATE_AND_TIME ( #91, #202 ) ;
#118 = DIRECTION ( 'NONE',  ( -0.000000000000000000, -0.000000000000000000, -1.000000000000000000 ) ) ;
#119 = PRODUCT_RELATED_PRODUCT_CATEGORY ( 'detail', '', ( #177 ) ) ;
#120 = SECURITY_CLASSIFICATION_LEVEL ( 'unclassified' ) ;
#121 = DIRECTION ( 'NONE',  ( 0.000000000000000000, 0.000000000000000000, 1.000000000000000000 ) ) ;
#122 = APPROVAL_DATE_TIME ( #188, #60 ) ;
#123 = DIRECTION ( 'NONE',  ( 1.000000000000000000, 0.000000000000000000, -0.000000000000000000 ) ) ;
#124 = EDGE_CURVE ( 'NONE', #129, #130, #58, .T. ) ;
#125 = FACE_OUTER_BOUND ( 'NONE', #104, .T. ) ;
#126 = TOROIDAL_SURFACE ( 'NONE', #115, 3.949999999999999734, 0.2000000000000000111 ) ;
#127 = DIRECTION ( 'NONE',  ( -1.000000000000000000, 0.000000000000000000, 0.000000000000000000 ) ) ;
#128 = CC_DESIGN_PERSON_AND_ORGANIZATION_ASSIGNMENT ( #61, #137, ( #29 ) ) ;
#129 = VERTEX_POINT ( 'NONE', #258 ) ;
#130 = VERTEX_POINT ( 'NONE', #187 ) ;
#131 = AXIS2_PLACEMENT_3D ( 'NONE', #138, #20, #213 ) ;
#132 = DIRECTION ( 'NONE',  ( 0.000000000000000000, 0.000000000000000000, -1.000000000000000000 ) ) ;
#133 = MANIFOLD_SOLID_BREP ( 'Zaoblit1', #205 ) ;
#134 = CARTESIAN_POINT ( 'NONE',  ( -3.750000000000000000, 0.000000000000000000, 405.0000000000000000 ) ) ;
#135 = CARTESIAN_POINT ( 'NONE',  ( 0.000000000000000000, 0.000000000000000000, 0.000000000000000000 ) ) ;
#136 = EDGE_CURVE ( 'NONE', #53, #11, #289, .T. ) ;
#137 = PERSON_AND_ORGANIZATION_ROLE ( 'creator' ) ;
#138 = CARTESIAN_POINT ( 'NONE',  ( 0.000000000000000000, 0.000000000000000000, 5.000000000000000000 ) ) ;
#139 = LINE ( 'NONE', #164, #194 ) ;
#140 = AXIS2_PLACEMENT_3D ( 'NONE', #283, #97, #111 ) ;
#141 = CARTESIAN_POINT ( 'NONE',  ( 0.000000000000000000, 0.000000000000000000, 0.000000000000000000 ) ) ;
#142 = DIRECTION ( 'NONE',  ( 1.000000000000000000, 0.000000000000000000, 0.000000000000000000 ) ) ;
#143 = CC_DESIGN_APPROVAL ( #60, ( #17 ) ) ;
#144 = EDGE_CURVE ( 'NONE', #130, #18, #237, .T. ) ;
#145 = CARTESIAN_POINT ( 'NONE',  ( 3.750000000000000000, 4.592425496802573972E-16, 405.0000000000000000 ) ) ;
#146 = CARTESIAN_POINT ( 'NONE',  ( 0.000000000000000000, 0.000000000000000000, 0.000000000000000000 ) ) ;
#147 = PLANE ( 'NONE',  #78 ) ;
#148 = ADVANCED_FACE ( 'NONE', ( #303, #95 ), #40, .T. ) ;
#149 = AXIS2_PLACEMENT_3D ( 'NONE', #135, #114, #207 ) ;
#150 = ADVANCED_FACE ( 'NONE', ( #305 ), #147, .T. ) ;
#151 = ORIENTED_EDGE ( 'NONE', *, *, #195, .T. ) ;
#152 = ORIENTED_EDGE ( 'NONE', *, *, #101, .T. ) ;
#153 = ORIENTED_EDGE ( 'NONE', *, *, #215, .T. ) ;
#154 = CC_DESIGN_DATE_AND_TIME_ASSIGNMENT ( #117, #158, ( #43 ) ) ;
#155 = DIRECTION ( 'NONE',  ( -0.000000000000000000, -0.000000000000000000, -1.000000000000000000 ) ) ;
#156 = AXIS2_PLACEMENT_3D ( 'NONE', #47, #1, #49 ) ;
#157 = ORGANIZATION ( 'NEURÈENÝ', 'NEURÈENÝ', '' ) ;
#158 = DATE_TIME_ROLE ( 'creation_date' ) ;
#159 = DIRECTION ( 'NONE',  ( -0.000000000000000000, -0.000000000000000000, -1.000000000000000000 ) ) ;
#160 = APPLICATION_PROTOCOL_DEFINITION ( 'international standard', 'config_control_design', 1994, #287 ) ;
#161 = EDGE_CURVE ( 'NONE', #11, #53, #6, .T. ) ;
#162 = DIRECTION ( 'NONE',  ( -0.000000000000000000, -0.000000000000000000, -1.000000000000000000 ) ) ;
#163 = COORDINATED_UNIVERSAL_TIME_OFFSET ( 1, 0, .AHEAD. ) ;
#164 = CARTESIAN_POINT ( 'NONE',  ( 6.000000000000000888, 7.347880794884120722E-16, 5.000000000000000000 ) ) ;
#165 = PERSON_AND_ORGANIZATION ( #102, #157 ) ;
#166 = CYLINDRICAL_SURFACE ( 'NONE', #140, 6.000000000000000888 ) ;
#167 = COORDINATED_UNIVERSAL_TIME_OFFSET ( 1, 0, .AHEAD. ) ;
#168 = DIRECTION ( 'NONE',  ( 0.000000000000000000, 0.000000000000000000, 1.000000000000000000 ) ) ;
#169 = ADVANCED_FACE ( 'NONE', ( #28 ), #261, .T. ) ;
#170 = DIRECTION ( 'NONE',  ( 0.000000000000000000, 0.000000000000000000, 1.000000000000000000 ) ) ;
#171 =( NAMED_UNIT ( * ) SI_UNIT ( $, .STERADIAN. ) SOLID_ANGLE_UNIT ( ) );
#172 = DIRECTION ( 'NONE',  ( 1.000000000000000000, 0.000000000000000000, 0.000000000000000000 ) ) ;
#173 = CC_DESIGN_DATE_AND_TIME_ASSIGNMENT ( #63, #284, ( #17 ) ) ;
#174 = ADVANCED_FACE ( 'NONE', ( #45 ), #126, .F. ) ;
#175 = ORIENTED_EDGE ( 'NONE', *, *, #136, .F. ) ;
#176 = CIRCLE ( 'NONE', #156, 3.949999999999999734 ) ;
#177 = PRODUCT ( '4f79', '4f79', '', ( #235 ) ) ;
#178 = ORIENTED_EDGE ( 'NONE', *, *, #70, .T. ) ;
#179 = ORIENTED_EDGE ( 'NONE', *, *, #113, .T. ) ;
#180 = APPROVAL ( #44, 'NEURÈENÝ' ) ;
#181 = CARTESIAN_POINT ( 'NONE',  ( 6.000000000000000888, 7.347880794884120722E-16, 0.000000000000000000 ) ) ;
#182 = CARTESIAN_POINT ( 'NONE',  ( 0.000000000000000000, 0.000000000000000000, 5.000000000000000000 ) ) ;
#183 = AXIS2_PLACEMENT_3D ( 'NONE', #52, #262, #286 ) ;
#184 = PERSON_AND_ORGANIZATION_ROLE ( 'design_supplier' ) ;
#185 = CARTESIAN_POINT ( 'NONE',  ( -6.000000000000000888, 0.000000000000000000, 0.000000000000000000 ) ) ;
#186 = CIRCLE ( 'NONE', #32, 0.1999999999999996503 ) ;
#187 = CARTESIAN_POINT ( 'NONE',  ( -3.750000000000000000, 0.000000000000000000, 5.199999999999982414 ) ) ;
#188 = DATE_AND_TIME ( #96, #48 ) ;
#189 = CARTESIAN_POINT ( 'NONE',  ( 3.750000000000000000, 4.592425496802573972E-16, 405.0000000000000000 ) ) ;
#190 = LOCAL_TIME ( 11, 50, 33.00000000000000000, #87 ) ;
#191 = SHAPE_DEFINITION_REPRESENTATION ( #220, #218 ) ;
#192 = CARTESIAN_POINT ( 'NONE',  ( 0.000000000000000000, 0.000000000000000000, 405.0000000000000000 ) ) ;
#193 = CARTESIAN_POINT ( 'NONE',  ( 0.000000000000000000, 0.000000000000000000, 405.0000000000000000 ) ) ;
#194 = VECTOR ( 'NONE', #162, 1000.000000000000000 ) ;
#195 = EDGE_CURVE ( 'NONE', #229, #248, #270, .T. ) ;
#196 = DIRECTION ( 'NONE',  ( 0.000000000000000000, 0.000000000000000000, 1.000000000000000000 ) ) ;
#197 = EDGE_LOOP ( 'NONE', ( #295, #106, #93, #249 ) ) ;
#198 = AXIS2_PLACEMENT_3D ( 'NONE', #236, #66, #210 ) ;
#199 = ORIENTED_EDGE ( 'NONE', *, *, #144, .T. ) ;
#200 = ORIENTED_EDGE ( 'NONE', *, *, #161, .F. ) ;
#201 = ORIENTED_EDGE ( 'NONE', *, *, #56, .T. ) ;
#202 = LOCAL_TIME ( 11, 50, 33.00000000000000000, #163 ) ;
#203 = ORIENTED_EDGE ( 'NONE', *, *, #215, .F. ) ;
#204 = CARTESIAN_POINT ( 'NONE',  ( 3.949999999999999734, 0.000000000000000000, 5.199999999999982414 ) ) ;
#205 = CLOSED_SHELL ( 'NONE', ( #268, #3, #73, #54, #148, #265, #169, #150, #174 ) ) ;
#206 = EDGE_LOOP ( 'NONE', ( #79, #267 ) ) ;
#207 = DIRECTION ( 'NONE',  ( 1.000000000000000000, 0.000000000000000000, 0.000000000000000000 ) ) ;
#208 = TOROIDAL_SURFACE ( 'NONE', #74, 3.949999999999999734, 0.2000000000000000111 ) ;
#209 = APPLICATION_PROTOCOL_DEFINITION ( 'international standard', 'config_control_design', 1994, #2 ) ;
#210 = DIRECTION ( 'NONE',  ( -1.000000000000000000, 1.224646799147353454E-16, 0.000000000000000000 ) ) ;
#211 = PERSON_AND_ORGANIZATION_ROLE ( 'classification_officer' ) ;
#212 = VECTOR ( 'NONE', #159, 1000.000000000000000 ) ;
#213 = DIRECTION ( 'NONE',  ( 1.000000000000000000, 0.000000000000000000, -0.000000000000000000 ) ) ;
#214 = PERSON_AND_ORGANIZATION ( #102, #157 ) ;
#215 = EDGE_CURVE ( 'NONE', #30, #18, #176, .T. ) ;
#216 = DIRECTION ( 'NONE',  ( 1.000000000000000000, 0.000000000000000000, 0.000000000000000000 ) ) ;
#217 = AXIS2_PLACEMENT_3D ( 'NONE', #141, #255, #243 ) ;
#218 = ADVANCED_BREP_SHAPE_REPRESENTATION ( '4f79', ( #133, #217 ), #110 ) ;
#219 = PLANE ( 'NONE',  #300 ) ;
#220 = PRODUCT_DEFINITION_SHAPE ( 'NONE', 'NONE',  #43 ) ;
#221 =( LENGTH_UNIT ( ) NAMED_UNIT ( * ) SI_UNIT ( .MILLI., .METRE. ) );
#222 = EDGE_CURVE ( 'NONE', #228, #9, #46, .T. ) ;
#223 = DIRECTION ( 'NONE',  ( -0.000000000000000000, -0.000000000000000000, -1.000000000000000000 ) ) ;
#224 = CIRCLE ( 'NONE', #226, 3.750000000000000000 ) ;
#225 = EDGE_CURVE ( 'NONE', #9, #228, #224, .T. ) ;
#226 = AXIS2_PLACEMENT_3D ( 'NONE', #192, #244, #172 ) ;
#227 = APPROVAL_PERSON_ORGANIZATION ( #304, #60, #21 ) ;
#228 = VERTEX_POINT ( 'NONE', #145 ) ;
#229 = VERTEX_POINT ( 'NONE', #99 ) ;
#230 = ORIENTED_EDGE ( 'NONE', *, *, #113, .F. ) ;
#231 = ORIENTED_EDGE ( 'NONE', *, *, #250, .T. ) ;
#232 = DIRECTION ( 'NONE',  ( 1.000000000000000000, 0.000000000000000000, 0.000000000000000000 ) ) ;
#233 = PERSON_AND_ORGANIZATION ( #102, #157 ) ;
#234 = DIRECTION ( 'NONE',  ( -1.000000000000000000, 0.000000000000000000, 0.000000000000000000 ) ) ;
#235 = MECHANICAL_CONTEXT ( 'NONE', #2, 'mechanical' ) ;
#236 = CARTESIAN_POINT ( 'NONE',  ( -3.949999999999999734, 4.837354856632044071E-16, 5.199999999999982414 ) ) ;
#237 = CIRCLE ( 'NONE', #198, 0.1999999999999996503 ) ;
#238 = PERSON_AND_ORGANIZATION ( #102, #157 ) ;
#239 = CARTESIAN_POINT ( 'NONE',  ( -6.000000000000000888, 0.000000000000000000, 5.000000000000000000 ) ) ;
#240 = CC_DESIGN_PERSON_AND_ORGANIZATION_ASSIGNMENT ( #233, #67, ( #43 ) ) ;
#241 = CALENDAR_DATE ( 2022, 20, 6 ) ;
#242 = LINE ( 'NONE', #189, #278 ) ;
#243 = DIRECTION ( 'NONE',  ( 1.000000000000000000, 0.000000000000000000, 0.000000000000000000 ) ) ;
#244 = DIRECTION ( 'NONE',  ( 0.000000000000000000, 0.000000000000000000, 1.000000000000000000 ) ) ;
#245 = CARTESIAN_POINT ( 'NONE',  ( 0.000000000000000000, 0.000000000000000000, 405.0000000000000000 ) ) ;
#246 = AXIS2_PLACEMENT_3D ( 'NONE', #59, #277, #234 ) ;
#247 = FACE_OUTER_BOUND ( 'NONE', #291, .T. ) ;
#248 = VERTEX_POINT ( 'NONE', #25 ) ;
#249 = ORIENTED_EDGE ( 'NONE', *, *, #15, .F. ) ;
#250 = EDGE_CURVE ( 'NONE', #248, #229, #8, .T. ) ;
#251 = ORIENTED_EDGE ( 'NONE', *, *, #225, .F. ) ;
#252 = ORIENTED_EDGE ( 'NONE', *, *, #222, .F. ) ;
#253 = FACE_OUTER_BOUND ( 'NONE', #290, .T. ) ;
#254 = CARTESIAN_POINT ( 'NONE',  ( 0.000000000000000000, 0.000000000000000000, 5.199999999999982414 ) ) ;
#255 = DIRECTION ( 'NONE',  ( 0.000000000000000000, 0.000000000000000000, 1.000000000000000000 ) ) ;
#256 = DIRECTION ( 'NONE',  ( 1.000000000000000000, 0.000000000000000000, 0.000000000000000000 ) ) ;
#257 = DATE_AND_TIME ( #98, #275 ) ;
#258 = CARTESIAN_POINT ( 'NONE',  ( 3.750000000000000000, 4.592425496802573972E-16, 5.199999999999982414 ) ) ;
#259 = APPROVAL_STATUS ( 'not_yet_approved' ) ;
#260 = CARTESIAN_POINT ( 'NONE',  ( -3.949999999999999734, 4.837354856632044071E-16, 4.999999999999991118 ) ) ;
#261 = CYLINDRICAL_SURFACE ( 'NONE', #103, 3.750000000000000000 ) ;
#262 = DIRECTION ( 'NONE',  ( 0.000000000000000000, 0.000000000000000000, 1.000000000000000000 ) ) ;
#263 = DIRECTION ( 'NONE',  ( 0.000000000000000000, 0.000000000000000000, 1.000000000000000000 ) ) ;
#264 = DIRECTION ( 'NONE',  ( 1.000000000000000000, 0.000000000000000000, 0.000000000000000000 ) ) ;
#265 = ADVANCED_FACE ( 'NONE', ( #247 ), #219, .F. ) ;
#266 = EDGE_LOOP ( 'NONE', ( #34, #251, #201, #33 ) ) ;
#267 = ORIENTED_EDGE ( 'NONE', *, *, #222, .T. ) ;
#268 = ADVANCED_FACE ( 'NONE', ( #125 ), #208, .F. ) ;
#269 = ORIENTED_EDGE ( 'NONE', *, *, #56, .F. ) ;
#270 = CIRCLE ( 'NONE', #274, 6.000000000000000888 ) ;
#271 = CC_DESIGN_SECURITY_CLASSIFICATION ( #17, ( #29 ) ) ;
#272 = CIRCLE ( 'NONE', #71, 3.949999999999999734 ) ;
#273 = LINE ( 'NONE', #239, #212 ) ;
#274 = AXIS2_PLACEMENT_3D ( 'NONE', #285, #170, #26 ) ;
#275 = LOCAL_TIME ( 11, 50, 33.00000000000000000, #282 ) ;
#276 = FACE_OUTER_BOUND ( 'NONE', #12, .T. ) ;
#277 = DIRECTION ( 'NONE',  ( -0.000000000000000000, -0.000000000000000000, -1.000000000000000000 ) ) ;
#278 = VECTOR ( 'NONE', #64, 1000.000000000000000 ) ;
#279 = PERSON_AND_ORGANIZATION ( #102, #157 ) ;
#280 = CC_DESIGN_PERSON_AND_ORGANIZATION_ASSIGNMENT ( #41, #211, ( #17 ) ) ;
#281 = DIRECTION ( 'NONE',  ( 1.000000000000000000, 0.000000000000000000, 0.000000000000000000 ) ) ;
#282 = COORDINATED_UNIVERSAL_TIME_OFFSET ( 1, 0, .AHEAD. ) ;
#283 = CARTESIAN_POINT ( 'NONE',  ( 0.000000000000000000, 0.000000000000000000, 5.000000000000000000 ) ) ;
#284 = DATE_TIME_ROLE ( 'classification_date' ) ;
#285 = CARTESIAN_POINT ( 'NONE',  ( 0.000000000000000000, 0.000000000000000000, 5.000000000000000000 ) ) ;
#286 = DIRECTION ( 'NONE',  ( 1.000000000000000000, 0.000000000000000000, 0.000000000000000000 ) ) ;
#287 = APPLICATION_CONTEXT ( 'configuration controlled 3d designs of mechanical parts and assemblies' ) ;
#288 = DIRECTION ( 'NONE',  ( 1.000000000000000000, 0.000000000000000000, -0.000000000000000000 ) ) ;
#289 = CIRCLE ( 'NONE', #149, 6.000000000000000888 ) ;
#290 = EDGE_LOOP ( 'NONE', ( #301, #152, #109, #230 ) ) ;
#291 = EDGE_LOOP ( 'NONE', ( #200, #175 ) ) ;
#292 = DESIGN_CONTEXT ( 'detailed design', #287, 'design' ) ;
#293 = EDGE_LOOP ( 'NONE', ( #151, #231 ) ) ;
#294 = EDGE_LOOP ( 'NONE', ( #153, #81 ) ) ;
#295 = ORIENTED_EDGE ( 'NONE', *, *, #144, .F. ) ;
#296 = DIRECTION ( 'NONE',  ( 0.000000000000000000, -1.000000000000000000, 0.000000000000000000 ) ) ;
#297 = CC_DESIGN_PERSON_AND_ORGANIZATION_ASSIGNMENT ( #238, #184, ( #29 ) ) ;
#298 = CYLINDRICAL_SURFACE ( 'NONE', #51, 3.750000000000000000 ) ;
#299 = APPROVAL_STATUS ( 'not_yet_approved' ) ;
#300 = AXIS2_PLACEMENT_3D ( 'NONE', #75, #22, #123 ) ;
#301 = ORIENTED_EDGE ( 'NONE', *, *, #250, .F. ) ;
#302 = APPROVAL_ROLE ( '' ) ;
#303 = FACE_BOUND ( 'NONE', #294, .T. ) ;
#304 = PERSON_AND_ORGANIZATION ( #102, #157 ) ;
#305 = FACE_OUTER_BOUND ( 'NONE', #206, .T. ) ;
#306 = DIRECTION ( 'NONE',  ( 0.000000000000000000, 0.000000000000000000, 1.000000000000000000 ) ) ;
#307 = APPROVAL_PERSON_ORGANIZATION ( #279, #27, #19 ) ;
ENDSEC;
END-ISO-10303-21;
