ISO-10303-21;
HEADER;
FILE_DESCRIPTION (( 'STEP AP203' ),
    '1' );
FILE_NAME ('f598.STEP',
    '2024-01-02T22:03:22',
    ( '' ),
    ( '' ),
    'SwSTEP 2.0',
    'SolidWorks 2019',
    '' );
FILE_SCHEMA (( 'CONFIG_CONTROL_DESIGN' ));
ENDSEC;

DATA;
#1 = DIRECTION ( 'NONE',  ( -0.000000000000000000, -0.000000000000000000, 1.000000000000000000 ) ) ;
#2 = AXIS2_PLACEMENT_3D ( 'NONE', #266, #263, #75 ) ;
#3 = AXIS2_PLACEMENT_3D ( 'NONE', #206, #210, #337 ) ;
#4 = AXIS2_PLACEMENT_3D ( 'NONE', #36, #111, #185 ) ;
#5 = ADVANCED_FACE ( 'NONE', ( #139 ), #278, .F. ) ;
#6 = CARTESIAN_POINT ( 'NONE',  ( 0.000000000000000000, 0.000000000000000000, -6.000000000000000000 ) ) ;
#7 = EDGE_CURVE ( 'NONE', #211, #53, #109, .T. ) ;
#8 = DIRECTION ( 'NONE',  ( 0.000000000000000000, 0.000000000000000000, -1.000000000000000000 ) ) ;
#9 = DIRECTION ( 'NONE',  ( 1.000000000000000000, 0.000000000000000000, 0.000000000000000000 ) ) ;
#10 = APPROVAL_PERSON_ORGANIZATION ( #194, #144, #326 ) ;
#11 = EDGE_CURVE ( 'NONE', #176, #371, #372, .T. ) ;
#12 = ORIENTED_EDGE ( 'NONE', *, *, #193, .T. ) ;
#13 = CALENDAR_DATE ( 2024, 2, 1 ) ;
#14 = DIRECTION ( 'NONE',  ( -0.000000000000000000, -0.000000000000000000, 1.000000000000000000 ) ) ;
#15 = EDGE_LOOP ( 'NONE', ( #47, #141 ) ) ;
#16 = EDGE_CURVE ( 'NONE', #52, #371, #327, .T. ) ;
#17 = EDGE_LOOP ( 'NONE', ( #317, #297 ) ) ;
#18 = CC_DESIGN_DATE_AND_TIME_ASSIGNMENT ( #96, #94, ( #99 ) ) ;
#19 =( NAMED_UNIT ( * ) SI_UNIT ( $, .STERADIAN. ) SOLID_ANGLE_UNIT ( ) );
#20 = CARTESIAN_POINT ( 'NONE',  ( -11.00000000000000000, 1.347111479062088405E-15, 0.000000000000000000 ) ) ;
#21 = DIRECTION ( 'NONE',  ( 1.000000000000000000, 0.000000000000000000, 0.000000000000000000 ) ) ;
#22 = CARTESIAN_POINT ( 'NONE',  ( 0.000000000000000000, 0.000000000000000000, -5.500000000000000000 ) ) ;
#23 = CARTESIAN_POINT ( 'NONE',  ( 0.000000000000000000, 0.000000000000000000, 0.000000000000000000 ) ) ;
#24 = AXIS2_PLACEMENT_3D ( 'NONE', #340, #397, #276 ) ;
#25 = DIRECTION ( 'NONE',  ( -1.000000000000000000, 1.224646799147353454E-16, 0.000000000000000000 ) ) ;
#26 = ORIENTED_EDGE ( 'NONE', *, *, #32, .T. ) ;
#27 = DIRECTION ( 'NONE',  ( -0.000000000000000000, -0.000000000000000000, 1.000000000000000000 ) ) ;
#28 = EDGE_LOOP ( 'NONE', ( #361, #26 ) ) ;
#29 = CALENDAR_DATE ( 2024, 2, 1 ) ;
#30 = DIRECTION ( 'NONE',  ( 1.224646799147353207E-16, 1.000000000000000000, 0.000000000000000000 ) ) ;
#31 = ORIENTED_EDGE ( 'NONE', *, *, #148, .T. ) ;
#32 = EDGE_CURVE ( 'NONE', #312, #330, #57, .T. ) ;
#33 = PERSON_AND_ORGANIZATION ( #175, #279 ) ;
#34 = CARTESIAN_POINT ( 'NONE',  ( 9.000000000000000000, 0.000000000000000000, -6.000000000000000000 ) ) ;
#35 = AXIS2_PLACEMENT_3D ( 'NONE', #199, #192, #72 ) ;
#36 = CARTESIAN_POINT ( 'NONE',  ( 0.000000000000000000, 0.000000000000000000, 0.000000000000000000 ) ) ;
#37 = CARTESIAN_POINT ( 'NONE',  ( 0.000000000000000000, 0.000000000000000000, -15.00000000000000000 ) ) ;
#38 = DIRECTION ( 'NONE',  ( 0.000000000000000000, -1.000000000000000000, 0.000000000000000000 ) ) ;
#39 = CARTESIAN_POINT ( 'NONE',  ( -11.00000000000000000, 1.347111479062088405E-15, -0.5000000000000004441 ) ) ;
#40 = APPLICATION_PROTOCOL_DEFINITION ( 'international standard', 'config_control_design', 1994, #119 ) ;
#41 = CIRCLE ( 'NONE', #3, 10.50000000000000533 ) ;
#42 = DIRECTION ( 'NONE',  ( -0.000000000000000000, -0.000000000000000000, 1.000000000000000000 ) ) ;
#43 = APPROVAL_DATE_TIME ( #78, #144 ) ;
#44 = EDGE_LOOP ( 'NONE', ( #358, #392, #93, #127 ) ) ;
#45 = ORIENTED_EDGE ( 'NONE', *, *, #352, .F. ) ;
#46 =( LENGTH_UNIT ( ) NAMED_UNIT ( * ) SI_UNIT ( .MILLI., .METRE. ) );
#47 = ORIENTED_EDGE ( 'NONE', *, *, #374, .T. ) ;
#48 = DIRECTION ( 'NONE',  ( 0.000000000000000000, 0.000000000000000000, -1.000000000000000000 ) ) ;
#49 = EDGE_CURVE ( 'NONE', #367, #271, #156, .T. ) ;
#50 = ORIENTED_EDGE ( 'NONE', *, *, #32, .F. ) ;
#51 = AXIS2_PLACEMENT_3D ( 'NONE', #212, #375, #21 ) ;
#52 = VERTEX_POINT ( 'NONE', #87 ) ;
#53 = VERTEX_POINT ( 'NONE', #403 ) ;
#54 = ORIENTED_EDGE ( 'NONE', *, *, #187, .T. ) ;
#55 = LOCAL_TIME ( 23, 3, 22.00000000000000000, #283 ) ;
#56 = CARTESIAN_POINT ( 'NONE',  ( 0.000000000000000000, 0.000000000000000000, -5.000000000000000000 ) ) ;
#57 = CIRCLE ( 'NONE', #66, 9.000000000000000000 ) ;
#58 = DIRECTION ( 'NONE',  ( 0.000000000000000000, 0.000000000000000000, -1.000000000000000000 ) ) ;
#59 = EDGE_LOOP ( 'NONE', ( #328, #335, #264, #76 ) ) ;
#60 = CARTESIAN_POINT ( 'NONE',  ( 0.000000000000000000, 0.000000000000000000, -5.000000000000000000 ) ) ;
#61 = ORIENTED_EDGE ( 'NONE', *, *, #362, .F. ) ;
#62 = PERSON_AND_ORGANIZATION_ROLE ( 'creator' ) ;
#63 = FACE_OUTER_BOUND ( 'NONE', #59, .T. ) ;
#64 = DIRECTION ( 'NONE',  ( -1.000000000000000000, 0.000000000000000000, 0.000000000000000000 ) ) ;
#65 = AXIS2_PLACEMENT_3D ( 'NONE', #128, #354, #253 ) ;
#66 = AXIS2_PLACEMENT_3D ( 'NONE', #56, #125, #347 ) ;
#67 = CARTESIAN_POINT ( 'NONE',  ( 11.00000000000000000, 0.000000000000000000, 0.000000000000000000 ) ) ;
#68 = CARTESIAN_POINT ( 'NONE',  ( 9.000000000000000000, 0.000000000000000000, 0.000000000000000000 ) ) ;
#69 = DIRECTION ( 'NONE',  ( -0.000000000000000000, -0.000000000000000000, 1.000000000000000000 ) ) ;
#70 = CIRCLE ( 'NONE', #307, 9.000000000000000000 ) ;
#71 = PERSON_AND_ORGANIZATION ( #175, #279 ) ;
#72 = DIRECTION ( 'NONE',  ( 0.000000000000000000, 0.000000000000000000, -1.000000000000000000 ) ) ;
#73 = EDGE_LOOP ( 'NONE', ( #143, #234, #45, #281 ) ) ;
#74 = CARTESIAN_POINT ( 'NONE',  ( 0.000000000000000000, 0.000000000000000000, 0.000000000000000000 ) ) ;
#75 = DIRECTION ( 'NONE',  ( 1.000000000000000000, 0.000000000000000000, 0.000000000000000000 ) ) ;
#76 = ORIENTED_EDGE ( 'NONE', *, *, #131, .T. ) ;
#77 = AXIS2_PLACEMENT_3D ( 'NONE', #386, #14, #9 ) ;
#78 = DATE_AND_TIME ( #364, #261 ) ;
#79 = DIRECTION ( 'NONE',  ( 0.000000000000000000, 0.000000000000000000, -1.000000000000000000 ) ) ;
#80 = ADVANCED_FACE ( 'NONE', ( #310 ), #248, .T. ) ;
#81 = FACE_OUTER_BOUND ( 'NONE', #73, .T. ) ;
#82 = DIRECTION ( 'NONE',  ( 0.7071067811865426878, 8.659560562354874926E-17, -0.7071067811865524577 ) ) ;
#83 = CARTESIAN_POINT ( 'NONE',  ( -9.000000000000000000, 1.102182119232617714E-15, -6.000000000000000000 ) ) ;
#84 = EDGE_LOOP ( 'NONE', ( #31, #89, #179, #300 ) ) ;
#85 = AXIS2_PLACEMENT_3D ( 'NONE', #37, #1, #163 ) ;
#86 = DIRECTION ( 'NONE',  ( 1.000000000000000000, 0.000000000000000000, 0.000000000000000000 ) ) ;
#87 = CARTESIAN_POINT ( 'NONE',  ( -8.499999999999998224, 1.071565949253933927E-15, -5.500000000000000000 ) ) ;
#88 = FACE_OUTER_BOUND ( 'NONE', #44, .T. ) ;
#89 = ORIENTED_EDGE ( 'NONE', *, *, #362, .T. ) ;
#90 = AXIS2_PLACEMENT_3D ( 'NONE', #166, #258, #355 ) ;
#91 = PERSON_AND_ORGANIZATION ( #175, #279 ) ;
#92 = DIRECTION ( 'NONE',  ( 0.000000000000000000, 0.000000000000000000, -1.000000000000000000 ) ) ;
#93 = ORIENTED_EDGE ( 'NONE', *, *, #349, .F. ) ;
#94 = DATE_TIME_ROLE ( 'creation_date' ) ;
#95 = FACE_OUTER_BOUND ( 'NONE', #84, .T. ) ;
#96 = DATE_AND_TIME ( #402, #55 ) ;
#97 = CARTESIAN_POINT ( 'NONE',  ( 9.000000000000000000, 0.000000000000000000, -15.00000000000000000 ) ) ;
#98 = AXIS2_PLACEMENT_3D ( 'NONE', #178, #334, #275 ) ;
#99 = PRODUCT_DEFINITION ( 'NEZNÁMÝ', '', #104, #138 ) ;
#100 = ADVANCED_FACE ( 'NONE', ( #95 ), #304, .T. ) ;
#101 = ADVANCED_FACE ( 'NONE', ( #342 ), #198, .F. ) ;
#102 = FACE_OUTER_BOUND ( 'NONE', #240, .T. ) ;
#103 = CIRCLE ( 'NONE', #336, 0.5000000000000004441 ) ;
#104 = PRODUCT_DEFINITION_FORMATION_WITH_SPECIFIED_SOURCE ( 'LIBOVOLNÝ', '', #186, .NOT_KNOWN. ) ;
#105 = ADVANCED_FACE ( 'NONE', ( #63 ), #147, .T. ) ;
#106 = CIRCLE ( 'NONE', #24, 11.00000000000000000 ) ;
#107 = VERTEX_POINT ( 'NONE', #373 ) ;
#108 = VERTEX_POINT ( 'NONE', #393 ) ;
#109 = LINE ( 'NONE', #269, #353 ) ;
#110 = CC_DESIGN_APPROVAL ( #398, ( #104 ) ) ;
#111 = DIRECTION ( 'NONE',  ( 0.000000000000000000, 0.000000000000000000, 1.000000000000000000 ) ) ;
#112 = CLOSED_SHELL ( 'NONE', ( #155, #368, #101, #100, #80, #318, #241, #105, #267, #309, #208, #5, #174 ) ) ;
#113 = ORIENTED_EDGE ( 'NONE', *, *, #382, .F. ) ;
#114 = CARTESIAN_POINT ( 'NONE',  ( 8.499999999999998224, 0.000000000000000000, -5.500000000000000000 ) ) ;
#115 = AXIS2_PLACEMENT_3D ( 'NONE', #145, #182, #86 ) ;
#116 = DIRECTION ( 'NONE',  ( -0.000000000000000000, -0.000000000000000000, 1.000000000000000000 ) ) ;
#117 = VERTEX_POINT ( 'NONE', #114 ) ;
#118 = DIRECTION ( 'NONE',  ( -0.000000000000000000, -0.000000000000000000, 1.000000000000000000 ) ) ;
#119 = APPLICATION_CONTEXT ( 'configuration controlled 3d designs of mechanical parts and assemblies' ) ;
#120 = CARTESIAN_POINT ( 'NONE',  ( 0.000000000000000000, 0.000000000000000000, 0.000000000000000000 ) ) ;
#121 = EDGE_LOOP ( 'NONE', ( #220, #184, #54, #242 ) ) ;
#122 = CIRCLE ( 'NONE', #149, 9.000000000000000000 ) ;
#123 = APPROVAL_DATE_TIME ( #224, #196 ) ;
#124 =( GEOMETRIC_REPRESENTATION_CONTEXT ( 3 ) GLOBAL_UNCERTAINTY_ASSIGNED_CONTEXT ( ( #164 ) ) GLOBAL_UNIT_ASSIGNED_CONTEXT ( ( #46, #177, #19 ) ) REPRESENTATION_CONTEXT ( 'NONE', 'WORKASPACE' ) );
#125 = DIRECTION ( 'NONE',  ( -0.000000000000000000, -0.000000000000000000, 1.000000000000000000 ) ) ;
#126 = CALENDAR_DATE ( 2024, 2, 1 ) ;
#127 = ORIENTED_EDGE ( 'NONE', *, *, #345, .F. ) ;
#128 = CARTESIAN_POINT ( 'NONE',  ( 0.000000000000000000, 0.000000000000000000, -5.500000000000000000 ) ) ;
#129 = CARTESIAN_POINT ( 'NONE',  ( 0.000000000000000000, 11.00000000000000000, -5.000000000000000000 ) ) ;
#130 = CIRCLE ( 'NONE', #77, 8.499999999999998224 ) ;
#131 = EDGE_CURVE ( 'NONE', #53, #271, #106, .T. ) ;
#132 = PERSON_AND_ORGANIZATION_ROLE ( 'creator' ) ;
#133 = EDGE_CURVE ( 'NONE', #367, #108, #363, .T. ) ;
#134 = FACE_OUTER_BOUND ( 'NONE', #15, .T. ) ;
#135 = VECTOR ( 'NONE', #366, 1000.000000000000000 ) ;
#136 = ORIENTED_EDGE ( 'NONE', *, *, #345, .T. ) ;
#137 = COORDINATED_UNIVERSAL_TIME_OFFSET ( 1, 0, .AHEAD. ) ;
#138 = DESIGN_CONTEXT ( 'detailed design', #119, 'design' ) ;
#139 = FACE_OUTER_BOUND ( 'NONE', #390, .T. ) ;
#140 = LINE ( 'NONE', #238, #135 ) ;
#141 = ORIENTED_EDGE ( 'NONE', *, *, #161, .T. ) ;
#142 = TOROIDAL_SURFACE ( 'NONE', #343, 9.000000000000000000, 0.5000000000000000000 ) ;
#143 = ORIENTED_EDGE ( 'NONE', *, *, #329, .T. ) ;
#144 = APPROVAL ( #265, 'NEURÈENÝ' ) ;
#145 = CARTESIAN_POINT ( 'NONE',  ( 0.000000000000000000, 0.000000000000000000, -5.500000000000000000 ) ) ;
#146 = DIRECTION ( 'NONE',  ( -1.000000000000000000, 0.000000000000000000, 0.000000000000000000 ) ) ;
#147 = CYLINDRICAL_SURFACE ( 'NONE', #339, 11.00000000000000000 ) ;
#148 = EDGE_CURVE ( 'NONE', #173, #107, #70, .T. ) ;
#149 = AXIS2_PLACEMENT_3D ( 'NONE', #6, #190, #323 ) ;
#150 = CC_DESIGN_SECURITY_CLASSIFICATION ( #332, ( #104 ) ) ;
#151 = DIRECTION ( 'NONE',  ( -0.000000000000000000, -0.000000000000000000, 1.000000000000000000 ) ) ;
#152 = ORIENTED_EDGE ( 'NONE', *, *, #237, .F. ) ;
#153 = CARTESIAN_POINT ( 'NONE',  ( 0.000000000000000000, 0.000000000000000000, 0.000000000000000000 ) ) ;
#154 = PERSON_AND_ORGANIZATION ( #175, #279 ) ;
#155 = ADVANCED_FACE ( 'NONE', ( #88 ), #404, .T. ) ;
#156 = LINE ( 'NONE', #20, #191 ) ;
#157 = DIRECTION ( 'NONE',  ( 1.000000000000000000, 0.000000000000000000, 0.000000000000000000 ) ) ;
#158 = AXIS2_PLACEMENT_3D ( 'NONE', #60, #189, #157 ) ;
#159 = APPROVAL_ROLE ( '' ) ;
#160 = ORIENTED_EDGE ( 'NONE', *, *, #133, .F. ) ;
#161 = EDGE_CURVE ( 'NONE', #211, #333, #268, .T. ) ;
#162 = APPROVAL_DATE_TIME ( #252, #398 ) ;
#163 = DIRECTION ( 'NONE',  ( 1.000000000000000000, 0.000000000000000000, 0.000000000000000000 ) ) ;
#164 = UNCERTAINTY_MEASURE_WITH_UNIT (LENGTH_MEASURE( 1.000000000000000082E-05 ), #46, 'distance_accuracy_value', 'NONE');
#165 = ORIENTED_EDGE ( 'NONE', *, *, #7, .F. ) ;
#166 = CARTESIAN_POINT ( 'NONE',  ( 0.000000000000000000, 0.000000000000000000, 0.000000000000000000 ) ) ;
#167 = EDGE_CURVE ( 'NONE', #173, #176, #168, .T. ) ;
#168 = LINE ( 'NONE', #68, #325 ) ;
#169 = LINE ( 'NONE', #294, #365 ) ;
#170 = ORIENTED_EDGE ( 'NONE', *, *, #349, .T. ) ;
#171 = EDGE_CURVE ( 'NONE', #117, #52, #195, .T. ) ;
#172 = ORIENTED_EDGE ( 'NONE', *, *, #171, .T. ) ;
#173 = VERTEX_POINT ( 'NONE', #97 ) ;
#174 = ADVANCED_FACE ( 'NONE', ( #290 ), #284, .T. ) ;
#175 = PERSON ( 'NEURÈENÝ', 'NEURÈENÝ', 'NEURÈENÝ', ('NEURÈENÝ'), ('NEURÈENÝ'), ('NEURÈENÝ') ) ;
#176 = VERTEX_POINT ( 'NONE', #34 ) ;
#177 =( NAMED_UNIT ( * ) PLANE_ANGLE_UNIT ( ) SI_UNIT ( $, .RADIAN. ) );
#178 = CARTESIAN_POINT ( 'NONE',  ( 9.000000000000000000, 1.102182119232617714E-15, -5.500000000000000000 ) ) ;
#179 = ORIENTED_EDGE ( 'NONE', *, *, #11, .F. ) ;
#180 = CIRCLE ( 'NONE', #2, 11.00000000000000000 ) ;
#181 = LOCAL_TIME ( 23, 3, 22.00000000000000000, #315 ) ;
#182 = DIRECTION ( 'NONE',  ( -0.000000000000000000, -0.000000000000000000, 1.000000000000000000 ) ) ;
#183 = FACE_OUTER_BOUND ( 'NONE', #405, .T. ) ;
#184 = ORIENTED_EDGE ( 'NONE', *, *, #16, .T. ) ;
#185 = DIRECTION ( 'NONE',  ( 1.000000000000000000, 0.000000000000000000, 0.000000000000000000 ) ) ;
#186 = PRODUCT ( 'f598', 'f598', '', ( #313 ) ) ;
#187 = EDGE_CURVE ( 'NONE', #371, #176, #122, .T. ) ;
#188 = APPROVAL_ROLE ( '' ) ;
#189 = DIRECTION ( 'NONE',  ( -0.000000000000000000, -0.000000000000000000, 1.000000000000000000 ) ) ;
#190 = DIRECTION ( 'NONE',  ( -0.000000000000000000, -0.000000000000000000, 1.000000000000000000 ) ) ;
#191 = VECTOR ( 'NONE', #243, 1000.000000000000000 ) ;
#192 = DIRECTION ( 'NONE',  ( -0.000000000000000000, -1.000000000000000000, -0.000000000000000000 ) ) ;
#193 = EDGE_CURVE ( 'NONE', #107, #173, #231, .T. ) ;
#194 = PERSON_AND_ORGANIZATION ( #175, #279 ) ;
#195 = CIRCLE ( 'NONE', #244, 8.499999999999998224 ) ;
#196 = APPROVAL ( #346, 'NEURÈENÝ' ) ;
#197 = PLANE ( 'NONE',  #213 ) ;
#198 = TOROIDAL_SURFACE ( 'NONE', #115, 9.000000000000000000, 0.5000000000000000000 ) ;
#199 = CARTESIAN_POINT ( 'NONE',  ( -9.000000000000000000, 0.000000000000000000, -5.500000000000000000 ) ) ;
#200 = APPLICATION_CONTEXT ( 'configuration controlled 3d designs of mechanical parts and assemblies' ) ;
#201 = PERSON_AND_ORGANIZATION ( #175, #279 ) ;
#202 = DIRECTION ( 'NONE',  ( -0.7071067811865426878, 0.000000000000000000, -0.7071067811865524577 ) ) ;
#203 = CARTESIAN_POINT ( 'NONE',  ( 0.000000000000000000, 0.000000000000000000, -5.000000000000000000 ) ) ;
#204 = AXIS2_PLACEMENT_3D ( 'NONE', #203, #69, #324 ) ;
#205 = SHAPE_DEFINITION_REPRESENTATION ( #305, #370 ) ;
#206 = CARTESIAN_POINT ( 'NONE',  ( 0.000000000000000000, 0.000000000000000000, 0.000000000000000000 ) ) ;
#207 = DIRECTION ( 'NONE',  ( -1.000000000000000000, 0.000000000000000000, 0.000000000000000000 ) ) ;
#208 = ADVANCED_FACE ( 'NONE', ( #381 ), #277, .F. ) ;
#209 = CARTESIAN_POINT ( 'NONE',  ( 0.000000000000000000, 0.000000000000000000, -6.000000000000000000 ) ) ;
#210 = DIRECTION ( 'NONE',  ( -0.000000000000000000, -0.000000000000000000, 1.000000000000000000 ) ) ;
#211 = VERTEX_POINT ( 'NONE', #408 ) ;
#212 = CARTESIAN_POINT ( 'NONE',  ( 0.000000000000000000, 0.000000000000000000, 0.000000000000000000 ) ) ;
#213 = AXIS2_PLACEMENT_3D ( 'NONE', #291, #8, #259 ) ;
#214 = DIRECTION ( 'NONE',  ( -0.000000000000000000, -0.000000000000000000, 1.000000000000000000 ) ) ;
#215 = CARTESIAN_POINT ( 'NONE',  ( -11.00000000000000000, 1.347111479062088405E-15, -5.000000000000000000 ) ) ;
#216 = DIRECTION ( 'NONE',  ( 1.000000000000000000, 0.000000000000000000, 0.000000000000000000 ) ) ;
#217 = ORIENTED_EDGE ( 'NONE', *, *, #272, .F. ) ;
#218 = CC_DESIGN_PERSON_AND_ORGANIZATION_ASSIGNMENT ( #154, #62, ( #99 ) ) ;
#219 = DIRECTION ( 'NONE',  ( 1.000000000000000000, 0.000000000000000000, 0.000000000000000000 ) ) ;
#220 = ORIENTED_EDGE ( 'NONE', *, *, #329, .F. ) ;
#221 = CARTESIAN_POINT ( 'NONE',  ( -9.000000000000000000, 1.102182119232617714E-15, -5.500000000000000000 ) ) ;
#222 = CC_DESIGN_PERSON_AND_ORGANIZATION_ASSIGNMENT ( #388, #229, ( #104 ) ) ;
#223 = AXIS2_PLACEMENT_3D ( 'NONE', #320, #385, #357 ) ;
#224 = DATE_AND_TIME ( #29, #181 ) ;
#225 = DIRECTION ( 'NONE',  ( -1.000000000000000000, 0.000000000000000000, -0.000000000000000000 ) ) ;
#226 = CARTESIAN_POINT ( 'NONE',  ( -9.000000000000000000, 0.000000000000000000, -4.999999999999999112 ) ) ;
#227 = CC_DESIGN_DATE_AND_TIME_ASSIGNMENT ( #384, #293, ( #332 ) ) ;
#228 = DIRECTION ( 'NONE',  ( -0.000000000000000000, -0.000000000000000000, 1.000000000000000000 ) ) ;
#229 = PERSON_AND_ORGANIZATION_ROLE ( 'design_supplier' ) ;
#230 = MANIFOLD_SOLID_BREP ( 'Zkosení1', #112 ) ;
#231 = CIRCLE ( 'NONE', #85, 9.000000000000000000 ) ;
#232 = CARTESIAN_POINT ( 'NONE',  ( -10.50000000000000533, 0.000000000000000000, 0.000000000000000000 ) ) ;
#233 = CYLINDRICAL_SURFACE ( 'NONE', #387, 9.000000000000000000 ) ;
#234 = ORIENTED_EDGE ( 'NONE', *, *, #382, .T. ) ;
#235 = CARTESIAN_POINT ( 'NONE',  ( 9.000000000000000000, 0.000000000000000000, -5.500000000000000000 ) ) ;
#236 = DIRECTION ( 'NONE',  ( 1.000000000000000000, 0.000000000000000000, 0.000000000000000000 ) ) ;
#237 = EDGE_CURVE ( 'NONE', #108, #53, #254, .T. ) ;
#238 = CARTESIAN_POINT ( 'NONE',  ( -9.000000000000000000, 1.102182119232617714E-15, 0.000000000000000000 ) ) ;
#239 = CARTESIAN_POINT ( 'NONE',  ( 0.000000000000000000, 0.000000000000000000, -5.500000000000000000 ) ) ;
#240 = EDGE_LOOP ( 'NONE', ( #61, #12, #401, #262 ) ) ;
#241 = ADVANCED_FACE ( 'NONE', ( #134 ), #260, .T. ) ;
#242 = ORIENTED_EDGE ( 'NONE', *, *, #251, .F. ) ;
#243 = DIRECTION ( 'NONE',  ( -0.000000000000000000, -0.000000000000000000, 1.000000000000000000 ) ) ;
#244 = AXIS2_PLACEMENT_3D ( 'NONE', #256, #228, #286 ) ;
#245 = APPROVAL_PERSON_ORGANIZATION ( #33, #398, #159 ) ;
#246 = DIRECTION ( 'NONE',  ( 1.000000000000000000, 0.000000000000000000, 0.000000000000000000 ) ) ;
#247 = ORIENTED_EDGE ( 'NONE', *, *, #251, .T. ) ;
#248 = CYLINDRICAL_SURFACE ( 'NONE', #289, 11.00000000000000000 ) ;
#249 = PERSON_AND_ORGANIZATION ( #175, #279 ) ;
#250 = DIRECTION ( 'NONE',  ( 1.000000000000000000, 0.000000000000000000, 0.000000000000000000 ) ) ;
#251 = EDGE_CURVE ( 'NONE', #117, #176, #103, .T. ) ;
#252 = DATE_AND_TIME ( #126, #395 ) ;
#253 = DIRECTION ( 'NONE',  ( 1.000000000000000000, 0.000000000000000000, 0.000000000000000000 ) ) ;
#254 = LINE ( 'NONE', #67, #295 ) ;
#255 = CIRCLE ( 'NONE', #35, 0.5000000000000004441 ) ;
#256 = CARTESIAN_POINT ( 'NONE',  ( 0.000000000000000000, 0.000000000000000000, -5.500000000000000000 ) ) ;
#257 = PERSON_AND_ORGANIZATION_ROLE ( 'classification_officer' ) ;
#258 = DIRECTION ( 'NONE',  ( -0.000000000000000000, -0.000000000000000000, 1.000000000000000000 ) ) ;
#259 = DIRECTION ( 'NONE',  ( -1.000000000000000000, 0.000000000000000000, -0.000000000000000000 ) ) ;
#260 = PLANE ( 'NONE',  #51 ) ;
#261 = LOCAL_TIME ( 23, 3, 22.00000000000000000, #137 ) ;
#262 = ORIENTED_EDGE ( 'NONE', *, *, #187, .F. ) ;
#263 = DIRECTION ( 'NONE',  ( 0.000000000000000000, 0.000000000000000000, -1.000000000000000000 ) ) ;
#264 = ORIENTED_EDGE ( 'NONE', *, *, #237, .T. ) ;
#265 = APPROVAL_STATUS ( 'not_yet_approved' ) ;
#266 = CARTESIAN_POINT ( 'NONE',  ( 0.000000000000000000, 0.000000000000000000, -0.5000000000000004441 ) ) ;
#267 = ADVANCED_FACE ( 'NONE', ( #351, #183 ), #409, .T. ) ;
#268 = CIRCLE ( 'NONE', #90, 10.50000000000000533 ) ;
#269 = CARTESIAN_POINT ( 'NONE',  ( 10.50000000000000533, 1.285879139104721619E-15, 0.000000000000000000 ) ) ;
#270 = APPROVAL_PERSON_ORGANIZATION ( #249, #196, #188 ) ;
#271 = VERTEX_POINT ( 'NONE', #39 ) ;
#272 = EDGE_CURVE ( 'NONE', #108, #367, #379, .T. ) ;
#273 = CARTESIAN_POINT ( 'NONE',  ( 0.000000000000000000, 0.000000000000000000, 0.000000000000000000 ) ) ;
#274 = CC_DESIGN_PERSON_AND_ORGANIZATION_ASSIGNMENT ( #71, #132, ( #104 ) ) ;
#275 = DIRECTION ( 'NONE',  ( -1.000000000000000000, -1.224646799147353454E-16, 0.000000000000000000 ) ) ;
#276 = DIRECTION ( 'NONE',  ( 1.000000000000000000, 0.000000000000000000, 0.000000000000000000 ) ) ;
#277 = TOROIDAL_SURFACE ( 'NONE', #65, 9.000000000000000000, 0.5000000000000000000 ) ;
#278 = TOROIDAL_SURFACE ( 'NONE', #296, 9.000000000000000000, 0.5000000000000000000 ) ;
#279 = ORGANIZATION ( 'NEURÈENÝ', 'NEURÈENÝ', '' ) ;
#280 = AXIS2_PLACEMENT_3D ( 'NONE', #209, #116, #306 ) ;
#281 = ORIENTED_EDGE ( 'NONE', *, *, #314, .F. ) ;
#282 = EDGE_LOOP ( 'NONE', ( #165, #396, #136, #344 ) ) ;
#283 = COORDINATED_UNIVERSAL_TIME_OFFSET ( 1, 0, .AHEAD. ) ;
#284 = CONICAL_SURFACE ( 'NONE', #223, 10.50000000000000533, 0.7853981633974415066 ) ;
#285 = ORIENTED_EDGE ( 'NONE', *, *, #11, .T. ) ;
#286 = DIRECTION ( 'NONE',  ( 1.000000000000000000, 0.000000000000000000, 0.000000000000000000 ) ) ;
#287 = DIRECTION ( 'NONE',  ( -0.000000000000000000, -0.000000000000000000, 1.000000000000000000 ) ) ;
#288 = CIRCLE ( 'NONE', #98, 0.5000000000000004441 ) ;
#289 = AXIS2_PLACEMENT_3D ( 'NONE', #23, #151, #216 ) ;
#290 = FACE_OUTER_BOUND ( 'NONE', #282, .T. ) ;
#291 = CARTESIAN_POINT ( 'NONE',  ( 0.000000000000000000, 9.000000000000000000, -15.00000000000000000 ) ) ;
#292 = CC_DESIGN_PERSON_AND_ORGANIZATION_ASSIGNMENT ( #91, #350, ( #186 ) ) ;
#293 = DATE_TIME_ROLE ( 'classification_date' ) ;
#294 = CARTESIAN_POINT ( 'NONE',  ( -10.50000000000000533, 0.000000000000000000, 0.000000000000000000 ) ) ;
#295 = VECTOR ( 'NONE', #42, 1000.000000000000000 ) ;
#296 = AXIS2_PLACEMENT_3D ( 'NONE', #239, #79, #207 ) ;
#297 = ORIENTED_EDGE ( 'NONE', *, *, #193, .F. ) ;
#298 = SECURITY_CLASSIFICATION_LEVEL ( 'unclassified' ) ;
#299 = FACE_OUTER_BOUND ( 'NONE', #17, .T. ) ;
#300 = ORIENTED_EDGE ( 'NONE', *, *, #167, .F. ) ;
#301 = AXIS2_PLACEMENT_3D ( 'NONE', #120, #92, #64 ) ;
#302 = ORIENTED_EDGE ( 'NONE', *, *, #314, .T. ) ;
#303 = EDGE_LOOP ( 'NONE', ( #399, #407, #170, #152 ) ) ;
#304 = CYLINDRICAL_SURFACE ( 'NONE', #377, 9.000000000000000000 ) ;
#305 = PRODUCT_DEFINITION_SHAPE ( 'NONE', 'NONE',  #99 ) ;
#306 = DIRECTION ( 'NONE',  ( 1.000000000000000000, 0.000000000000000000, 0.000000000000000000 ) ) ;
#307 = AXIS2_PLACEMENT_3D ( 'NONE', #341, #118, #400 ) ;
#308 = ORIENTED_EDGE ( 'NONE', *, *, #16, .F. ) ;
#309 = ADVANCED_FACE ( 'NONE', ( #102 ), #233, .T. ) ;
#310 = FACE_OUTER_BOUND ( 'NONE', #303, .T. ) ;
#311 = DIRECTION ( 'NONE',  ( 0.000000000000000000, 0.000000000000000000, -1.000000000000000000 ) ) ;
#312 = VERTEX_POINT ( 'NONE', #360 ) ;
#313 = MECHANICAL_CONTEXT ( 'NONE', #200, 'mechanical' ) ;
#314 = EDGE_CURVE ( 'NONE', #52, #330, #255, .T. ) ;
#315 = COORDINATED_UNIVERSAL_TIME_OFFSET ( 1, 0, .AHEAD. ) ;
#316 = CC_DESIGN_PERSON_AND_ORGANIZATION_ASSIGNMENT ( #201, #257, ( #332 ) ) ;
#317 = ORIENTED_EDGE ( 'NONE', *, *, #148, .F. ) ;
#318 = ADVANCED_FACE ( 'NONE', ( #299 ), #197, .T. ) ;
#319 = APPLICATION_PROTOCOL_DEFINITION ( 'international standard', 'config_control_design', 1994, #200 ) ;
#320 = CARTESIAN_POINT ( 'NONE',  ( 0.000000000000000000, 0.000000000000000000, 0.000000000000000000 ) ) ;
#321 = CIRCLE ( 'NONE', #204, 9.000000000000000000 ) ;
#322 = COORDINATED_UNIVERSAL_TIME_OFFSET ( 1, 0, .AHEAD. ) ;
#323 = DIRECTION ( 'NONE',  ( 1.000000000000000000, 0.000000000000000000, 0.000000000000000000 ) ) ;
#324 = DIRECTION ( 'NONE',  ( -1.000000000000000000, 0.000000000000000000, 0.000000000000000000 ) ) ;
#325 = VECTOR ( 'NONE', #287, 1000.000000000000000 ) ;
#326 = APPROVAL_ROLE ( '' ) ;
#327 = CIRCLE ( 'NONE', #380, 0.5000000000000004441 ) ;
#328 = ORIENTED_EDGE ( 'NONE', *, *, #49, .F. ) ;
#329 = EDGE_CURVE ( 'NONE', #52, #117, #130, .T. ) ;
#330 = VERTEX_POINT ( 'NONE', #226 ) ;
#331 = AXIS2_PLACEMENT_3D ( 'NONE', #129, #311, #225 ) ;
#332 = SECURITY_CLASSIFICATION ( '', '', #298 ) ;
#333 = VERTEX_POINT ( 'NONE', #232 ) ;
#334 = DIRECTION ( 'NONE',  ( -1.224646799147353207E-16, 1.000000000000000000, 0.000000000000000000 ) ) ;
#335 = ORIENTED_EDGE ( 'NONE', *, *, #133, .T. ) ;
#336 = AXIS2_PLACEMENT_3D ( 'NONE', #235, #38, #58 ) ;
#337 = DIRECTION ( 'NONE',  ( 1.000000000000000000, 0.000000000000000000, 0.000000000000000000 ) ) ;
#338 = ORIENTED_EDGE ( 'NONE', *, *, #171, .F. ) ;
#339 = AXIS2_PLACEMENT_3D ( 'NONE', #273, #214, #250 ) ;
#340 = CARTESIAN_POINT ( 'NONE',  ( 0.000000000000000000, 0.000000000000000000, -0.5000000000000004441 ) ) ;
#341 = CARTESIAN_POINT ( 'NONE',  ( 0.000000000000000000, 0.000000000000000000, -15.00000000000000000 ) ) ;
#342 = FACE_OUTER_BOUND ( 'NONE', #121, .T. ) ;
#343 = AXIS2_PLACEMENT_3D ( 'NONE', #22, #48, #146 ) ;
#344 = ORIENTED_EDGE ( 'NONE', *, *, #131, .F. ) ;
#345 = EDGE_CURVE ( 'NONE', #333, #271, #169, .T. ) ;
#346 = APPROVAL_STATUS ( 'not_yet_approved' ) ;
#347 = DIRECTION ( 'NONE',  ( -1.000000000000000000, 0.000000000000000000, 0.000000000000000000 ) ) ;
#348 = EDGE_LOOP ( 'NONE', ( #308, #338, #247, #285 ) ) ;
#349 = EDGE_CURVE ( 'NONE', #271, #53, #180, .T. ) ;
#350 = PERSON_AND_ORGANIZATION_ROLE ( 'design_owner' ) ;
#351 = FACE_BOUND ( 'NONE', #28, .T. ) ;
#352 = EDGE_CURVE ( 'NONE', #330, #312, #321, .T. ) ;
#353 = VECTOR ( 'NONE', #82, 1000.000000000000000 ) ;
#354 = DIRECTION ( 'NONE',  ( -0.000000000000000000, -0.000000000000000000, 1.000000000000000000 ) ) ;
#355 = DIRECTION ( 'NONE',  ( 1.000000000000000000, 0.000000000000000000, 0.000000000000000000 ) ) ;
#356 = CC_DESIGN_APPROVAL ( #196, ( #99 ) ) ;
#357 = DIRECTION ( 'NONE',  ( -1.000000000000000000, 0.000000000000000000, 0.000000000000000000 ) ) ;
#358 = ORIENTED_EDGE ( 'NONE', *, *, #161, .F. ) ;
#359 = COORDINATED_UNIVERSAL_TIME_OFFSET ( 1, 0, .AHEAD. ) ;
#360 = CARTESIAN_POINT ( 'NONE',  ( 9.000000000000000000, 1.102182119232617714E-15, -4.999999999999999112 ) ) ;
#361 = ORIENTED_EDGE ( 'NONE', *, *, #352, .T. ) ;
#362 = EDGE_CURVE ( 'NONE', #107, #371, #140, .T. ) ;
#363 = CIRCLE ( 'NONE', #391, 11.00000000000000000 ) ;
#364 = CALENDAR_DATE ( 2024, 2, 1 ) ;
#365 = VECTOR ( 'NONE', #202, 1000.000000000000000 ) ;
#366 = DIRECTION ( 'NONE',  ( -0.000000000000000000, -0.000000000000000000, 1.000000000000000000 ) ) ;
#367 = VERTEX_POINT ( 'NONE', #215 ) ;
#368 = ADVANCED_FACE ( 'NONE', ( #81 ), #142, .F. ) ;
#369 = CC_DESIGN_APPROVAL ( #144, ( #332 ) ) ;
#370 = ADVANCED_BREP_SHAPE_REPRESENTATION ( 'f598', ( #230, #4 ), #124 ) ;
#371 = VERTEX_POINT ( 'NONE', #83 ) ;
#372 = CIRCLE ( 'NONE', #280, 9.000000000000000000 ) ;
#373 = CARTESIAN_POINT ( 'NONE',  ( -9.000000000000000000, 1.102182119232617714E-15, -15.00000000000000000 ) ) ;
#374 = EDGE_CURVE ( 'NONE', #333, #211, #41, .T. ) ;
#375 = DIRECTION ( 'NONE',  ( 0.000000000000000000, -0.000000000000000000, 1.000000000000000000 ) ) ;
#376 = LOCAL_TIME ( 23, 3, 22.00000000000000000, #359 ) ;
#377 = AXIS2_PLACEMENT_3D ( 'NONE', #153, #378, #219 ) ;
#378 = DIRECTION ( 'NONE',  ( -0.000000000000000000, -0.000000000000000000, 1.000000000000000000 ) ) ;
#379 = CIRCLE ( 'NONE', #158, 11.00000000000000000 ) ;
#380 = AXIS2_PLACEMENT_3D ( 'NONE', #221, #30, #25 ) ;
#381 = FACE_OUTER_BOUND ( 'NONE', #348, .T. ) ;
#382 = EDGE_CURVE ( 'NONE', #117, #312, #288, .T. ) ;
#383 = PRODUCT_RELATED_PRODUCT_CATEGORY ( 'detail', '', ( #186 ) ) ;
#384 = DATE_AND_TIME ( #13, #376 ) ;
#385 = DIRECTION ( 'NONE',  ( 0.000000000000000000, 0.000000000000000000, -1.000000000000000000 ) ) ;
#386 = CARTESIAN_POINT ( 'NONE',  ( 0.000000000000000000, 0.000000000000000000, -5.500000000000000000 ) ) ;
#387 = AXIS2_PLACEMENT_3D ( 'NONE', #74, #389, #236 ) ;
#388 = PERSON_AND_ORGANIZATION ( #175, #279 ) ;
#389 = DIRECTION ( 'NONE',  ( -0.000000000000000000, -0.000000000000000000, 1.000000000000000000 ) ) ;
#390 = EDGE_LOOP ( 'NONE', ( #113, #172, #302, #50 ) ) ;
#391 = AXIS2_PLACEMENT_3D ( 'NONE', #394, #27, #246 ) ;
#392 = ORIENTED_EDGE ( 'NONE', *, *, #7, .T. ) ;
#393 = CARTESIAN_POINT ( 'NONE',  ( 11.00000000000000000, 0.000000000000000000, -5.000000000000000000 ) ) ;
#394 = CARTESIAN_POINT ( 'NONE',  ( 0.000000000000000000, 0.000000000000000000, -5.000000000000000000 ) ) ;
#395 = LOCAL_TIME ( 23, 3, 22.00000000000000000, #322 ) ;
#396 = ORIENTED_EDGE ( 'NONE', *, *, #374, .F. ) ;
#397 = DIRECTION ( 'NONE',  ( 0.000000000000000000, 0.000000000000000000, -1.000000000000000000 ) ) ;
#398 = APPROVAL ( #406, 'NEURÈENÝ' ) ;
#399 = ORIENTED_EDGE ( 'NONE', *, *, #272, .T. ) ;
#400 = DIRECTION ( 'NONE',  ( 1.000000000000000000, 0.000000000000000000, 0.000000000000000000 ) ) ;
#401 = ORIENTED_EDGE ( 'NONE', *, *, #167, .T. ) ;
#402 = CALENDAR_DATE ( 2024, 2, 1 ) ;
#403 = CARTESIAN_POINT ( 'NONE',  ( 11.00000000000000000, 0.000000000000000000, -0.5000000000000004441 ) ) ;
#404 = CONICAL_SURFACE ( 'NONE', #301, 10.50000000000000533, 0.7853981633974415066 ) ;
#405 = EDGE_LOOP ( 'NONE', ( #217, #160 ) ) ;
#406 = APPROVAL_STATUS ( 'not_yet_approved' ) ;
#407 = ORIENTED_EDGE ( 'NONE', *, *, #49, .T. ) ;
#408 = CARTESIAN_POINT ( 'NONE',  ( 10.50000000000000533, 1.316495309083405012E-15, 0.000000000000000000 ) ) ;
#409 = PLANE ( 'NONE',  #331 ) ;
ENDSEC;
END-ISO-10303-21;
