ISO-10303-21;
HEADER;
FILE_DESCRIPTION (( 'STEP AP203' ),
    '1' );
FILE_NAME ('9aae.STEP',
    '2024-01-02T19:16:50',
    ( '' ),
    ( '' ),
    'SwSTEP 2.0',
    'SolidWorks 2019',
    '' );
FILE_SCHEMA (( 'CONFIG_CONTROL_DESIGN' ));
ENDSEC;

DATA;
#1 = AXIS2_PLACEMENT_3D ( 'NONE', #140, #15, #162 ) ;
#2 = AXIS2_PLACEMENT_3D ( 'NONE', #302, #145, #150 ) ;
#3 = FACE_OUTER_BOUND ( 'NONE', #187, .T. ) ;
#4 = VERTEX_POINT ( 'NONE', #326 ) ;
#5 = CARTESIAN_POINT ( 'NONE',  ( 0.000000000000000000, 0.000000000000000000, -8.000000000000000000 ) ) ;
#6 = EDGE_CURVE ( 'NONE', #395, #308, #143, .T. ) ;
#7 = ORIENTED_EDGE ( 'NONE', *, *, #52, .F. ) ;
#8 = DIRECTION ( 'NONE',  ( 1.000000000000000000, 0.000000000000000000, 0.000000000000000000 ) ) ;
#9 = VERTEX_POINT ( 'NONE', #293 ) ;
#10 = AXIS2_PLACEMENT_3D ( 'NONE', #231, #366, #41 ) ;
#11 = DIRECTION ( 'NONE',  ( 0.000000000000000000, 0.000000000000000000, -1.000000000000000000 ) ) ;
#12 = CIRCLE ( 'NONE', #144, 0.5000000000000004441 ) ;
#13 = ORIENTED_EDGE ( 'NONE', *, *, #202, .T. ) ;
#14 = EDGE_CURVE ( 'NONE', #281, #103, #253, .T. ) ;
#15 = DIRECTION ( 'NONE',  ( -0.000000000000000000, -0.000000000000000000, 1.000000000000000000 ) ) ;
#16 = EDGE_LOOP ( 'NONE', ( #257, #229, #208, #44 ) ) ;
#17 = DATE_AND_TIME ( #298, #262 ) ;
#18 = DIRECTION ( 'NONE',  ( -1.000000000000000000, 1.224646799147349509E-16, 0.000000000000000000 ) ) ;
#19 = AXIS2_PLACEMENT_3D ( 'NONE', #340, #126, #153 ) ;
#20 = DIRECTION ( 'NONE',  ( -0.000000000000000000, -0.000000000000000000, 1.000000000000000000 ) ) ;
#21 = ORGANIZATION ( 'NEURÈENÝ', 'NEURÈENÝ', '' ) ;
#22 = LINE ( 'NONE', #87, #349 ) ;
#23 = CIRCLE ( 'NONE', #304, 16.00000000000000000 ) ;
#24 = ADVANCED_FACE ( 'NONE', ( #48 ), #65, .F. ) ;
#25 = EDGE_CURVE ( 'NONE', #73, #197, #381, .T. ) ;
#26 = PERSON_AND_ORGANIZATION_ROLE ( 'creator' ) ;
#27 = CYLINDRICAL_SURFACE ( 'NONE', #294, 16.00000000000000000 ) ;
#28 = ORIENTED_EDGE ( 'NONE', *, *, #179, .F. ) ;
#29 = VECTOR ( 'NONE', #32, 1000.000000000000114 ) ;
#30 = ADVANCED_FACE ( 'NONE', ( #307 ), #402, .F. ) ;
#31 = PRODUCT_DEFINITION_SHAPE ( 'NONE', 'NONE',  #387 ) ;
#32 = DIRECTION ( 'NONE',  ( -0.7071067811865451302, 0.000000000000000000, -0.7071067811865500152 ) ) ;
#33 = ORIENTED_EDGE ( 'NONE', *, *, #120, .F. ) ;
#34 = CIRCLE ( 'NONE', #216, 0.5000000000000004441 ) ;
#35 = EDGE_CURVE ( 'NONE', #235, #73, #34, .T. ) ;
#36 = CARTESIAN_POINT ( 'NONE',  ( 0.000000000000000000, 0.000000000000000000, -8.000000000000000000 ) ) ;
#37 = ORIENTED_EDGE ( 'NONE', *, *, #118, .T. ) ;
#38 = DIRECTION ( 'NONE',  ( -1.000000000000000000, 0.000000000000000000, 0.000000000000000000 ) ) ;
#39 = EDGE_LOOP ( 'NONE', ( #37, #170 ) ) ;
#40 = DIRECTION ( 'NONE',  ( -0.000000000000000000, -0.000000000000000000, 1.000000000000000000 ) ) ;
#41 = DIRECTION ( 'NONE',  ( 0.000000000000000000, 0.000000000000000000, -1.000000000000000000 ) ) ;
#42 = TOROIDAL_SURFACE ( 'NONE', #212, 16.00000000000000000, 0.5000000000000000000 ) ;
#43 = DIRECTION ( 'NONE',  ( 1.000000000000000000, 0.000000000000000000, 0.000000000000000000 ) ) ;
#44 = ORIENTED_EDGE ( 'NONE', *, *, #227, .F. ) ;
#45 = APPROVAL ( #119, 'NEURÈENÝ' ) ;
#46 = PERSON_AND_ORGANIZATION_ROLE ( 'design_owner' ) ;
#47 = FACE_OUTER_BOUND ( 'NONE', #16, .T. ) ;
#48 = FACE_OUTER_BOUND ( 'NONE', #311, .T. ) ;
#49 = DIRECTION ( 'NONE',  ( 0.7071067811865451302, 8.659560562354904508E-17, -0.7071067811865500152 ) ) ;
#50 = CLOSED_SHELL ( 'NONE', ( #365, #155, #30, #125, #139, #75, #368, #127, #382, #85, #24, #221, #350 ) ) ;
#51 = PRODUCT_DEFINITION_FORMATION_WITH_SPECIFIED_SOURCE ( 'LIBOVOLNÝ', '', #167, .NOT_KNOWN. ) ;
#52 = EDGE_CURVE ( 'NONE', #141, #308, #247, .T. ) ;
#53 = APPLICATION_PROTOCOL_DEFINITION ( 'international standard', 'config_control_design', 1994, #379 ) ;
#54 = DIRECTION ( 'NONE',  ( 1.000000000000000000, 0.000000000000000000, 0.000000000000000000 ) ) ;
#55 = PERSON_AND_ORGANIZATION ( #316, #21 ) ;
#56 = COORDINATED_UNIVERSAL_TIME_OFFSET ( 1, 0, .AHEAD. ) ;
#57 = VECTOR ( 'NONE', #343, 1000.000000000000000 ) ;
#58 = APPROVAL_DATE_TIME ( #95, #177 ) ;
#59 = DIRECTION ( 'NONE',  ( 1.000000000000000000, 0.000000000000000000, 0.000000000000000000 ) ) ;
#60 = ORIENTED_EDGE ( 'NONE', *, *, #52, .T. ) ;
#61 = PERSON_AND_ORGANIZATION ( #316, #21 ) ;
#62 = COORDINATED_UNIVERSAL_TIME_OFFSET ( 1, 0, .AHEAD. ) ;
#63 = DIRECTION ( 'NONE',  ( -0.000000000000000000, -1.000000000000000000, -0.000000000000000000 ) ) ;
#64 = ORIENTED_EDGE ( 'NONE', *, *, #101, .T. ) ;
#65 = TOROIDAL_SURFACE ( 'NONE', #80, 16.00000000000000000, 0.5000000000000000000 ) ;
#66 = CC_DESIGN_APPROVAL ( #177, ( #246 ) ) ;
#67 = CARTESIAN_POINT ( 'NONE',  ( -15.50000000000000000, 1.928818708657081344E-15, -7.500000000000000000 ) ) ;
#68 = DIRECTION ( 'NONE',  ( -0.000000000000000000, -0.000000000000000000, 1.000000000000000000 ) ) ;
#69 = ORIENTED_EDGE ( 'NONE', *, *, #6, .T. ) ;
#70 = AXIS2_PLACEMENT_3D ( 'NONE', #290, #68, #196 ) ;
#71 = CIRCLE ( 'NONE', #93, 18.50000000000000000 ) ;
#72 = DIRECTION ( 'NONE',  ( 1.000000000000000000, 0.000000000000000000, 0.000000000000000000 ) ) ;
#73 = VERTEX_POINT ( 'NONE', #275 ) ;
#74 = CARTESIAN_POINT ( 'NONE',  ( 0.000000000000000000, 0.000000000000000000, 0.000000000000000000 ) ) ;
#75 = ADVANCED_FACE ( 'NONE', ( #184 ), #315, .T. ) ;
#76 = ORIENTED_EDGE ( 'NONE', *, *, #374, .F. ) ;
#77 = FACE_OUTER_BOUND ( 'NONE', #201, .T. ) ;
#78 = ORIENTED_EDGE ( 'NONE', *, *, #35, .T. ) ;
#79 = ADVANCED_BREP_SHAPE_REPRESENTATION ( '9aae', ( #338, #314 ), #376 ) ;
#80 = AXIS2_PLACEMENT_3D ( 'NONE', #266, #20, #54 ) ;
#81 = PLANE ( 'NONE',  #312 ) ;
#82 = APPROVAL_PERSON_ORGANIZATION ( #279, #177, #342 ) ;
#83 = VERTEX_POINT ( 'NONE', #223 ) ;
#84 = DESIGN_CONTEXT ( 'detailed design', #98, 'design' ) ;
#85 = ADVANCED_FACE ( 'NONE', ( #406 ), #283, .T. ) ;
#86 = DIRECTION ( 'NONE',  ( 0.000000000000000000, 0.000000000000000000, 1.000000000000000000 ) ) ;
#87 = CARTESIAN_POINT ( 'NONE',  ( 18.00000000000001066, 2.204364238465237006E-15, 0.000000000000000000 ) ) ;
#88 = CARTESIAN_POINT ( 'NONE',  ( 15.50000000000000000, 0.000000000000000000, -7.500000000000000000 ) ) ;
#89 = APPROVAL_DATE_TIME ( #220, #354 ) ;
#90 = APPROVAL_STATUS ( 'not_yet_approved' ) ;
#91 = DIRECTION ( 'NONE',  ( -1.000000000000000000, 0.000000000000000000, 0.000000000000000000 ) ) ;
#92 = AXIS2_PLACEMENT_3D ( 'NONE', #74, #11, #38 ) ;
#93 = AXIS2_PLACEMENT_3D ( 'NONE', #121, #116, #238 ) ;
#94 = ORIENTED_EDGE ( 'NONE', *, *, #227, .T. ) ;
#95 = DATE_AND_TIME ( #313, #185 ) ;
#96 = CC_DESIGN_PERSON_AND_ORGANIZATION_ASSIGNMENT ( #242, #346, ( #51 ) ) ;
#97 = CARTESIAN_POINT ( 'NONE',  ( 0.000000000000000000, 0.000000000000000000, 0.000000000000000000 ) ) ;
#98 = APPLICATION_CONTEXT ( 'configuration controlled 3d designs of mechanical parts and assemblies' ) ;
#99 = ORIENTED_EDGE ( 'NONE', *, *, #118, .F. ) ;
#100 = CIRCLE ( 'NONE', #357, 16.00000000000000000 ) ;
#101 = EDGE_CURVE ( 'NONE', #4, #226, #278, .T. ) ;
#102 = DIRECTION ( 'NONE',  ( -0.000000000000000000, -0.000000000000000000, 1.000000000000000000 ) ) ;
#103 = VERTEX_POINT ( 'NONE', #222 ) ;
#104 = CARTESIAN_POINT ( 'NONE',  ( 16.00000000000000000, 0.000000000000000000, -8.000000000000000000 ) ) ;
#105 = ORIENTED_EDGE ( 'NONE', *, *, #272, .F. ) ;
#106 = LOCAL_TIME ( 20, 16, 50.00000000000000000, #217 ) ;
#107 = CARTESIAN_POINT ( 'NONE',  ( 18.50000000000000000, 0.000000000000000000, -6.999999999999999112 ) ) ;
#108 = ORIENTED_EDGE ( 'NONE', *, *, #25, .F. ) ;
#109 = DIRECTION ( 'NONE',  ( 1.000000000000000000, 0.000000000000000000, 0.000000000000000000 ) ) ;
#110 = ORIENTED_EDGE ( 'NONE', *, *, #148, .T. ) ;
#111 = EDGE_CURVE ( 'NONE', #395, #197, #334, .T. ) ;
#112 = DIRECTION ( 'NONE',  ( 1.224646799147353207E-16, 1.000000000000000000, 0.000000000000000000 ) ) ;
#113 = ORIENTED_EDGE ( 'NONE', *, *, #272, .T. ) ;
#114 = AXIS2_PLACEMENT_3D ( 'NONE', #288, #102, #43 ) ;
#115 = CIRCLE ( 'NONE', #318, 16.00000000000000000 ) ;
#116 = DIRECTION ( 'NONE',  ( 0.000000000000000000, 0.000000000000000000, -1.000000000000000000 ) ) ;
#117 = AXIS2_PLACEMENT_3D ( 'NONE', #399, #396, #237 ) ;
#118 = EDGE_CURVE ( 'NONE', #103, #281, #300, .T. ) ;
#119 = APPROVAL_STATUS ( 'not_yet_approved' ) ;
#120 = EDGE_CURVE ( 'NONE', #197, #73, #23, .T. ) ;
#121 = CARTESIAN_POINT ( 'NONE',  ( 0.000000000000000000, 0.000000000000000000, -0.4999999999999935052 ) ) ;
#122 = DIRECTION ( 'NONE',  ( -1.000000000000000000, 0.000000000000000000, -0.000000000000000000 ) ) ;
#123 = CIRCLE ( 'NONE', #183, 16.00000000000000000 ) ;
#124 = CC_DESIGN_APPROVAL ( #354, ( #51 ) ) ;
#125 = ADVANCED_FACE ( 'NONE', ( #347 ), #27, .T. ) ;
#126 = DIRECTION ( 'NONE',  ( -0.000000000000000000, -0.000000000000000000, 1.000000000000000000 ) ) ;
#127 = ADVANCED_FACE ( 'NONE', ( #391 ), #254, .T. ) ;
#128 = ORIENTED_EDGE ( 'NONE', *, *, #327, .T. ) ;
#129 = VECTOR ( 'NONE', #292, 1000.000000000000000 ) ;
#130 = APPROVAL_PERSON_ORGANIZATION ( #61, #354, #405 ) ;
#131 = FACE_OUTER_BOUND ( 'NONE', #224, .T. ) ;
#132 = ORIENTED_EDGE ( 'NONE', *, *, #394, .F. ) ;
#133 = CARTESIAN_POINT ( 'NONE',  ( 16.00000000000000000, 1.959434878635765131E-15, -6.999999999999999112 ) ) ;
#134 = ORIENTED_EDGE ( 'NONE', *, *, #6, .F. ) ;
#135 = CYLINDRICAL_SURFACE ( 'NONE', #70, 18.50000000000000000 ) ;
#136 = EDGE_LOOP ( 'NONE', ( #356, #204 ) ) ;
#137 = CONICAL_SURFACE ( 'NONE', #2, 18.00000000000001066, 0.7853981633974447263 ) ;
#138 = DIRECTION ( 'NONE',  ( -0.000000000000000000, -0.000000000000000000, 1.000000000000000000 ) ) ;
#139 = ADVANCED_FACE ( 'NONE', ( #3 ), #135, .T. ) ;
#140 = CARTESIAN_POINT ( 'NONE',  ( 0.000000000000000000, 0.000000000000000000, -6.999999999999999112 ) ) ;
#141 = VERTEX_POINT ( 'NONE', #393 ) ;
#142 = DIRECTION ( 'NONE',  ( -0.000000000000000000, -0.000000000000000000, 1.000000000000000000 ) ) ;
#143 = CIRCLE ( 'NONE', #10, 0.5000000000000004441 ) ;
#144 = AXIS2_PLACEMENT_3D ( 'NONE', #268, #112, #18 ) ;
#145 = DIRECTION ( 'NONE',  ( 0.000000000000000000, 0.000000000000000000, -1.000000000000000000 ) ) ;
#146 = APPLICATION_PROTOCOL_DEFINITION ( 'international standard', 'config_control_design', 1994, #98 ) ;
#147 = DIRECTION ( 'NONE',  ( 1.000000000000000000, 0.000000000000000000, 0.000000000000000000 ) ) ;
#148 = EDGE_CURVE ( 'NONE', #4, #83, #166, .T. ) ;
#149 = CARTESIAN_POINT ( 'NONE',  ( 0.000000000000000000, 18.50000000000000000, -6.999999999999999112 ) ) ;
#150 = DIRECTION ( 'NONE',  ( -1.000000000000000000, 0.000000000000000000, 0.000000000000000000 ) ) ;
#151 = AXIS2_PLACEMENT_3D ( 'NONE', #397, #142, #147 ) ;
#152 = DIRECTION ( 'NONE',  ( -1.000000000000000000, 0.000000000000000000, 0.000000000000000000 ) ) ;
#153 = DIRECTION ( 'NONE',  ( 1.000000000000000000, 0.000000000000000000, 0.000000000000000000 ) ) ;
#154 = DIRECTION ( 'NONE',  ( -0.000000000000000000, -0.000000000000000000, 1.000000000000000000 ) ) ;
#155 = ADVANCED_FACE ( 'NONE', ( #131 ), #192, .F. ) ;
#156 = CALENDAR_DATE ( 2024, 2, 1 ) ;
#157 = CARTESIAN_POINT ( 'NONE',  ( 0.000000000000000000, 0.000000000000000000, 0.000000000000000000 ) ) ;
#158 = AXIS2_PLACEMENT_3D ( 'NONE', #193, #310, #159 ) ;
#159 = DIRECTION ( 'NONE',  ( 1.000000000000000000, 0.000000000000000000, 0.000000000000000000 ) ) ;
#160 = COORDINATED_UNIVERSAL_TIME_OFFSET ( 1, 0, .AHEAD. ) ;
#161 = DIRECTION ( 'NONE',  ( 0.000000000000000000, 0.000000000000000000, -1.000000000000000000 ) ) ;
#162 = DIRECTION ( 'NONE',  ( 1.000000000000000000, 0.000000000000000000, 0.000000000000000000 ) ) ;
#163 = ORIENTED_EDGE ( 'NONE', *, *, #398, .T. ) ;
#164 = CIRCLE ( 'NONE', #1, 18.50000000000000000 ) ;
#165 = CIRCLE ( 'NONE', #117, 18.50000000000000000 ) ;
#166 = LINE ( 'NONE', #232, #129 ) ;
#167 = PRODUCT ( '9aae', '9aae', '', ( #332 ) ) ;
#168 = ORIENTED_EDGE ( 'NONE', *, *, #111, .T. ) ;
#169 = DIRECTION ( 'NONE',  ( -0.000000000000000000, -0.000000000000000000, 1.000000000000000000 ) ) ;
#170 = ORIENTED_EDGE ( 'NONE', *, *, #14, .T. ) ;
#171 = DIRECTION ( 'NONE',  ( 1.000000000000000000, 0.000000000000000000, 0.000000000000000000 ) ) ;
#172 = ORIENTED_EDGE ( 'NONE', *, *, #337, .T. ) ;
#173 = CONICAL_SURFACE ( 'NONE', #92, 18.00000000000001066, 0.7853981633974447263 ) ;
#174 = DIRECTION ( 'NONE',  ( -0.000000000000000000, -0.000000000000000000, 1.000000000000000000 ) ) ;
#175 = UNCERTAINTY_MEASURE_WITH_UNIT (LENGTH_MEASURE( 1.000000000000000082E-05 ), #330, 'distance_accuracy_value', 'NONE');
#176 = VERTEX_POINT ( 'NONE', #225 ) ;
#177 = APPROVAL ( #276, 'NEURÈENÝ' ) ;
#178 = DIRECTION ( 'NONE',  ( -1.000000000000000000, 0.000000000000000000, -0.000000000000000000 ) ) ;
#179 = EDGE_CURVE ( 'NONE', #176, #308, #198, .T. ) ;
#180 = DIRECTION ( 'NONE',  ( 1.000000000000000000, 0.000000000000000000, 0.000000000000000000 ) ) ;
#181 = APPROVAL_DATE_TIME ( #17, #45 ) ;
#182 = CALENDAR_DATE ( 2024, 2, 1 ) ;
#183 = AXIS2_PLACEMENT_3D ( 'NONE', #36, #174, #317 ) ;
#184 = FACE_OUTER_BOUND ( 'NONE', #361, .T. ) ;
#185 = LOCAL_TIME ( 20, 16, 50.00000000000000000, #62 ) ;
#186 = PERSON_AND_ORGANIZATION ( #316, #21 ) ;
#187 = EDGE_LOOP ( 'NONE', ( #128, #110, #163, #195 ) ) ;
#188 = PERSON_AND_ORGANIZATION ( #316, #21 ) ;
#189 = DIRECTION ( 'NONE',  ( 1.000000000000000000, 0.000000000000000000, 0.000000000000000000 ) ) ;
#190 = ORIENTED_EDGE ( 'NONE', *, *, #202, .F. ) ;
#191 = CALENDAR_DATE ( 2024, 2, 1 ) ;
#192 = TOROIDAL_SURFACE ( 'NONE', #388, 16.00000000000000000, 0.5000000000000000000 ) ;
#193 = CARTESIAN_POINT ( 'NONE',  ( 0.000000000000000000, 0.000000000000000000, -6.999999999999999112 ) ) ;
#194 = CARTESIAN_POINT ( 'NONE',  ( 18.00000000000001066, 2.234980408443920004E-15, 0.000000000000000000 ) ) ;
#195 = ORIENTED_EDGE ( 'NONE', *, *, #337, .F. ) ;
#196 = DIRECTION ( 'NONE',  ( 1.000000000000000000, 0.000000000000000000, 0.000000000000000000 ) ) ;
#197 = VERTEX_POINT ( 'NONE', #133 ) ;
#198 = CIRCLE ( 'NONE', #367, 16.00000000000000000 ) ;
#199 = AXIS2_PLACEMENT_3D ( 'NONE', #149, #270, #178 ) ;
#200 = CARTESIAN_POINT ( 'NONE',  ( 0.000000000000000000, 0.000000000000000000, -7.500000000000000000 ) ) ;
#201 = EDGE_LOOP ( 'NONE', ( #359, #113, #78, #33 ) ) ;
#202 = EDGE_CURVE ( 'NONE', #141, #384, #115, .T. ) ;
#203 = CARTESIAN_POINT ( 'NONE',  ( 0.000000000000000000, 0.000000000000000000, -40.00000000000000000 ) ) ;
#204 = ORIENTED_EDGE ( 'NONE', *, *, #101, .F. ) ;
#205 = DIRECTION ( 'NONE',  ( -1.000000000000000000, 0.000000000000000000, 0.000000000000000000 ) ) ;
#206 = ORIENTED_EDGE ( 'NONE', *, *, #321, .T. ) ;
#207 = AXIS2_PLACEMENT_3D ( 'NONE', #243, #372, #277 ) ;
#208 = ORIENTED_EDGE ( 'NONE', *, *, #398, .F. ) ;
#209 = CC_DESIGN_DATE_AND_TIME_ASSIGNMENT ( #305, #339, ( #246 ) ) ;
#210 = CARTESIAN_POINT ( 'NONE',  ( 0.000000000000000000, 0.000000000000000000, 0.000000000000000000 ) ) ;
#211 = DIRECTION ( 'NONE',  ( 1.000000000000000000, 0.000000000000000000, 0.000000000000000000 ) ) ;
#212 = AXIS2_PLACEMENT_3D ( 'NONE', #256, #230, #205 ) ;
#213 = FACE_OUTER_BOUND ( 'NONE', #136, .T. ) ;
#214 =( NAMED_UNIT ( * ) SI_UNIT ( $, .STERADIAN. ) SOLID_ANGLE_UNIT ( ) );
#215 = PERSON_AND_ORGANIZATION_ROLE ( 'classification_officer' ) ;
#216 = AXIS2_PLACEMENT_3D ( 'NONE', #248, #63, #161 ) ;
#217 = COORDINATED_UNIVERSAL_TIME_OFFSET ( 1, 0, .AHEAD. ) ;
#218 = EDGE_LOOP ( 'NONE', ( #233, #64, #172, #260 ) ) ;
#219 = CARTESIAN_POINT ( 'NONE',  ( 0.000000000000000000, 16.00000000000000000, -40.00000000000000000 ) ) ;
#220 = DATE_AND_TIME ( #191, #106 ) ;
#221 = ADVANCED_FACE ( 'NONE', ( #77 ), #42, .F. ) ;
#222 = CARTESIAN_POINT ( 'NONE',  ( -18.00000000000001066, 0.000000000000000000, 0.000000000000000000 ) ) ;
#223 = CARTESIAN_POINT ( 'NONE',  ( -18.50000000000000000, 2.265596578422603396E-15, -0.4999999999999935052 ) ) ;
#224 = EDGE_LOOP ( 'NONE', ( #255, #168, #108, #386 ) ) ;
#225 = CARTESIAN_POINT ( 'NONE',  ( -16.00000000000000000, 1.959434878635765131E-15, -8.000000000000000000 ) ) ;
#226 = VERTEX_POINT ( 'NONE', #107 ) ;
#227 = EDGE_CURVE ( 'NONE', #103, #83, #264, .T. ) ;
#228 = CARTESIAN_POINT ( 'NONE',  ( 0.000000000000000000, 0.000000000000000000, -7.500000000000000000 ) ) ;
#229 = ORIENTED_EDGE ( 'NONE', *, *, #374, .T. ) ;
#230 = DIRECTION ( 'NONE',  ( 0.000000000000000000, 0.000000000000000000, -1.000000000000000000 ) ) ;
#231 = CARTESIAN_POINT ( 'NONE',  ( 16.00000000000000000, 0.000000000000000000, -7.500000000000000000 ) ) ;
#232 = CARTESIAN_POINT ( 'NONE',  ( -18.50000000000000000, 2.265596578422603396E-15, 0.000000000000000000 ) ) ;
#233 = ORIENTED_EDGE ( 'NONE', *, *, #148, .F. ) ;
#234 = PLANE ( 'NONE',  #199 ) ;
#235 = VERTEX_POINT ( 'NONE', #67 ) ;
#236 = CIRCLE ( 'NONE', #267, 15.50000000000000000 ) ;
#237 = DIRECTION ( 'NONE',  ( 1.000000000000000000, 0.000000000000000000, 0.000000000000000000 ) ) ;
#238 = DIRECTION ( 'NONE',  ( 1.000000000000000000, 0.000000000000000000, 0.000000000000000000 ) ) ;
#239 = AXIS2_PLACEMENT_3D ( 'NONE', #336, #240, #152 ) ;
#240 = DIRECTION ( 'NONE',  ( -0.000000000000000000, -0.000000000000000000, 1.000000000000000000 ) ) ;
#241 = DATE_TIME_ROLE ( 'creation_date' ) ;
#242 = PERSON_AND_ORGANIZATION ( #316, #21 ) ;
#243 = CARTESIAN_POINT ( 'NONE',  ( 0.000000000000000000, 0.000000000000000000, 0.000000000000000000 ) ) ;
#244 = ORIENTED_EDGE ( 'NONE', *, *, #345, .F. ) ;
#245 = EDGE_CURVE ( 'NONE', #384, #176, #383, .T. ) ;
#246 = SECURITY_CLASSIFICATION ( '', '', #309 ) ;
#247 = LINE ( 'NONE', #378, #57 ) ;
#248 = CARTESIAN_POINT ( 'NONE',  ( -16.00000000000000000, 0.000000000000000000, -7.500000000000000000 ) ) ;
#249 = CC_DESIGN_PERSON_AND_ORGANIZATION_ASSIGNMENT ( #186, #215, ( #246 ) ) ;
#250 = PERSON_AND_ORGANIZATION_ROLE ( 'design_supplier' ) ;
#251 = DIRECTION ( 'NONE',  ( -0.000000000000000000, -0.000000000000000000, 1.000000000000000000 ) ) ;
#252 = DIRECTION ( 'NONE',  ( -0.000000000000000000, -0.000000000000000000, 1.000000000000000000 ) ) ;
#253 = CIRCLE ( 'NONE', #151, 18.00000000000001066 ) ;
#254 = CYLINDRICAL_SURFACE ( 'NONE', #286, 18.50000000000000000 ) ;
#255 = ORIENTED_EDGE ( 'NONE', *, *, #345, .T. ) ;
#256 = CARTESIAN_POINT ( 'NONE',  ( 0.000000000000000000, 0.000000000000000000, -7.500000000000000000 ) ) ;
#257 = ORIENTED_EDGE ( 'NONE', *, *, #14, .F. ) ;
#258 = CC_DESIGN_PERSON_AND_ORGANIZATION_ASSIGNMENT ( #400, #26, ( #387 ) ) ;
#259 = DIRECTION ( 'NONE',  ( -1.000000000000000000, 0.000000000000000000, 0.000000000000000000 ) ) ;
#260 = ORIENTED_EDGE ( 'NONE', *, *, #408, .T. ) ;
#261 = CIRCLE ( 'NONE', #114, 15.50000000000000000 ) ;
#262 = LOCAL_TIME ( 20, 16, 50.00000000000000000, #269 ) ;
#263 = EDGE_LOOP ( 'NONE', ( #329, #373, #60, #28 ) ) ;
#264 = LINE ( 'NONE', #360, #29 ) ;
#265 = EDGE_LOOP ( 'NONE', ( #76, #99, #94, #297 ) ) ;
#266 = CARTESIAN_POINT ( 'NONE',  ( 0.000000000000000000, 0.000000000000000000, -7.500000000000000000 ) ) ;
#267 = AXIS2_PLACEMENT_3D ( 'NONE', #228, #358, #72 ) ;
#268 = CARTESIAN_POINT ( 'NONE',  ( -16.00000000000000000, 1.959434878635765131E-15, -7.500000000000000000 ) ) ;
#269 = COORDINATED_UNIVERSAL_TIME_OFFSET ( 1, 0, .AHEAD. ) ;
#270 = DIRECTION ( 'NONE',  ( 0.000000000000000000, 0.000000000000000000, -1.000000000000000000 ) ) ;
#271 = AXIS2_PLACEMENT_3D ( 'NONE', #97, #252, #189 ) ;
#272 = EDGE_CURVE ( 'NONE', #395, #235, #261, .T. ) ;
#273 = APPROVAL_PERSON_ORGANIZATION ( #364, #45, #369 ) ;
#274 = FACE_OUTER_BOUND ( 'NONE', #39, .T. ) ;
#275 = CARTESIAN_POINT ( 'NONE',  ( -16.00000000000000000, 0.000000000000000000, -6.999999999999999112 ) ) ;
#276 = APPROVAL_STATUS ( 'not_yet_approved' ) ;
#277 = DIRECTION ( 'NONE',  ( 1.000000000000000000, 0.000000000000000000, 0.000000000000000000 ) ) ;
#278 = CIRCLE ( 'NONE', #158, 18.50000000000000000 ) ;
#279 = PERSON_AND_ORGANIZATION ( #316, #21 ) ;
#280 = CC_DESIGN_APPROVAL ( #45, ( #387 ) ) ;
#281 = VERTEX_POINT ( 'NONE', #194 ) ;
#282 = CARTESIAN_POINT ( 'NONE',  ( 0.000000000000000000, 0.000000000000000000, -6.999999999999999112 ) ) ;
#283 = CYLINDRICAL_SURFACE ( 'NONE', #271, 16.00000000000000000 ) ;
#284 = VECTOR ( 'NONE', #319, 1000.000000000000000 ) ;
#285 = LINE ( 'NONE', #355, #375 ) ;
#286 = AXIS2_PLACEMENT_3D ( 'NONE', #328, #169, #296 ) ;
#287 = EDGE_LOOP ( 'NONE', ( #244, #344, #291, #134 ) ) ;
#288 = CARTESIAN_POINT ( 'NONE',  ( 0.000000000000000000, 0.000000000000000000, -7.500000000000000000 ) ) ;
#289 = ORIENTED_EDGE ( 'NONE', *, *, #25, .T. ) ;
#290 = CARTESIAN_POINT ( 'NONE',  ( 0.000000000000000000, 0.000000000000000000, 0.000000000000000000 ) ) ;
#291 = ORIENTED_EDGE ( 'NONE', *, *, #179, .T. ) ;
#292 = DIRECTION ( 'NONE',  ( -0.000000000000000000, -0.000000000000000000, 1.000000000000000000 ) ) ;
#293 = CARTESIAN_POINT ( 'NONE',  ( 18.50000000000000000, 0.000000000000000000, -0.4999999999999935052 ) ) ;
#294 = AXIS2_PLACEMENT_3D ( 'NONE', #157, #251, #59 ) ;
#295 = PRODUCT_RELATED_PRODUCT_CATEGORY ( 'detail', '', ( #167 ) ) ;
#296 = DIRECTION ( 'NONE',  ( 1.000000000000000000, 0.000000000000000000, 0.000000000000000000 ) ) ;
#297 = ORIENTED_EDGE ( 'NONE', *, *, #408, .F. ) ;
#298 = CALENDAR_DATE ( 2024, 2, 1 ) ;
#299 = DIRECTION ( 'NONE',  ( 0.000000000000000000, -0.000000000000000000, 1.000000000000000000 ) ) ;
#300 = CIRCLE ( 'NONE', #207, 18.00000000000001066 ) ;
#301 = LOCAL_TIME ( 20, 16, 50.00000000000000000, #56 ) ;
#302 = CARTESIAN_POINT ( 'NONE',  ( 0.000000000000000000, 0.000000000000000000, 0.000000000000000000 ) ) ;
#303 = CARTESIAN_POINT ( 'NONE',  ( 0.000000000000000000, 0.000000000000000000, 0.000000000000000000 ) ) ;
#304 = AXIS2_PLACEMENT_3D ( 'NONE', #282, #154, #91 ) ;
#305 = DATE_AND_TIME ( #156, #341 ) ;
#306 = CARTESIAN_POINT ( 'NONE',  ( 16.00000000000000000, 1.959434878635765131E-15, -7.500000000000000000 ) ) ;
#307 = FACE_OUTER_BOUND ( 'NONE', #287, .T. ) ;
#308 = VERTEX_POINT ( 'NONE', #104 ) ;
#309 = SECURITY_CLASSIFICATION_LEVEL ( 'unclassified' ) ;
#310 = DIRECTION ( 'NONE',  ( -0.000000000000000000, -0.000000000000000000, 1.000000000000000000 ) ) ;
#311 = EDGE_LOOP ( 'NONE', ( #132, #105, #69, #206 ) ) ;
#312 = AXIS2_PLACEMENT_3D ( 'NONE', #303, #299, #180 ) ;
#313 = CALENDAR_DATE ( 2024, 2, 1 ) ;
#314 = AXIS2_PLACEMENT_3D ( 'NONE', #210, #86, #211 ) ;
#315 = PLANE ( 'NONE',  #348 ) ;
#316 = PERSON ( 'NEURÈENÝ', 'NEURÈENÝ', 'NEURÈENÝ', ('NEURÈENÝ'), ('NEURÈENÝ'), ('NEURÈENÝ') ) ;
#317 = DIRECTION ( 'NONE',  ( 1.000000000000000000, 0.000000000000000000, 0.000000000000000000 ) ) ;
#318 = AXIS2_PLACEMENT_3D ( 'NONE', #389, #353, #109 ) ;
#319 = DIRECTION ( 'NONE',  ( -0.000000000000000000, -0.000000000000000000, 1.000000000000000000 ) ) ;
#320 = EDGE_LOOP ( 'NONE', ( #289, #323 ) ) ;
#321 = EDGE_CURVE ( 'NONE', #308, #176, #123, .T. ) ;
#322 = FACE_OUTER_BOUND ( 'NONE', #265, .T. ) ;
#323 = ORIENTED_EDGE ( 'NONE', *, *, #120, .T. ) ;
#324 = DIRECTION ( 'NONE',  ( -0.000000000000000000, -0.000000000000000000, 1.000000000000000000 ) ) ;
#325 = CC_DESIGN_PERSON_AND_ORGANIZATION_ASSIGNMENT ( #188, #250, ( #51 ) ) ;
#326 = CARTESIAN_POINT ( 'NONE',  ( -18.50000000000000000, 2.265596578422603396E-15, -6.999999999999999112 ) ) ;
#327 = EDGE_CURVE ( 'NONE', #226, #4, #164, .T. ) ;
#328 = CARTESIAN_POINT ( 'NONE',  ( 0.000000000000000000, 0.000000000000000000, 0.000000000000000000 ) ) ;
#329 = ORIENTED_EDGE ( 'NONE', *, *, #245, .F. ) ;
#330 =( LENGTH_UNIT ( ) NAMED_UNIT ( * ) SI_UNIT ( .MILLI., .METRE. ) );
#331 = EDGE_LOOP ( 'NONE', ( #13, #380, #363, #7 ) ) ;
#332 = MECHANICAL_CONTEXT ( 'NONE', #379, 'mechanical' ) ;
#333 = CC_DESIGN_PERSON_AND_ORGANIZATION_ASSIGNMENT ( #55, #46, ( #167 ) ) ;
#334 = CIRCLE ( 'NONE', #371, 0.5000000000000004441 ) ;
#335 =( NAMED_UNIT ( * ) PLANE_ANGLE_UNIT ( ) SI_UNIT ( $, .RADIAN. ) );
#336 = CARTESIAN_POINT ( 'NONE',  ( 0.000000000000000000, 0.000000000000000000, -6.999999999999999112 ) ) ;
#337 = EDGE_CURVE ( 'NONE', #226, #9, #285, .T. ) ;
#338 = MANIFOLD_SOLID_BREP ( 'Zkosení1', #50 ) ;
#339 = DATE_TIME_ROLE ( 'classification_date' ) ;
#340 = CARTESIAN_POINT ( 'NONE',  ( 0.000000000000000000, 0.000000000000000000, -7.500000000000000000 ) ) ;
#341 = LOCAL_TIME ( 20, 16, 50.00000000000000000, #160 ) ;
#342 = APPROVAL_ROLE ( '' ) ;
#343 = DIRECTION ( 'NONE',  ( -0.000000000000000000, -0.000000000000000000, 1.000000000000000000 ) ) ;
#344 = ORIENTED_EDGE ( 'NONE', *, *, #394, .T. ) ;
#345 = EDGE_CURVE ( 'NONE', #235, #395, #236, .T. ) ;
#346 = PERSON_AND_ORGANIZATION_ROLE ( 'creator' ) ;
#347 = FACE_OUTER_BOUND ( 'NONE', #331, .T. ) ;
#348 = AXIS2_PLACEMENT_3D ( 'NONE', #219, #409, #122 ) ;
#349 = VECTOR ( 'NONE', #49, 1000.000000000000114 ) ;
#350 = ADVANCED_FACE ( 'NONE', ( #322 ), #173, .T. ) ;
#351 = DIRECTION ( 'NONE',  ( -1.000000000000000000, -1.224646799147349509E-16, 0.000000000000000000 ) ) ;
#352 = EDGE_CURVE ( 'NONE', #384, #141, #100, .T. ) ;
#353 = DIRECTION ( 'NONE',  ( -0.000000000000000000, -0.000000000000000000, 1.000000000000000000 ) ) ;
#354 = APPROVAL ( #90, 'NEURÈENÝ' ) ;
#355 = CARTESIAN_POINT ( 'NONE',  ( 18.50000000000000000, 0.000000000000000000, 0.000000000000000000 ) ) ;
#356 = ORIENTED_EDGE ( 'NONE', *, *, #327, .F. ) ;
#357 = AXIS2_PLACEMENT_3D ( 'NONE', #203, #40, #171 ) ;
#358 = DIRECTION ( 'NONE',  ( -0.000000000000000000, -0.000000000000000000, 1.000000000000000000 ) ) ;
#359 = ORIENTED_EDGE ( 'NONE', *, *, #111, .F. ) ;
#360 = CARTESIAN_POINT ( 'NONE',  ( -18.00000000000001066, 0.000000000000000000, 0.000000000000000000 ) ) ;
#361 = EDGE_LOOP ( 'NONE', ( #190, #392 ) ) ;
#362 = DIRECTION ( 'NONE',  ( 0.000000000000000000, 0.000000000000000000, -1.000000000000000000 ) ) ;
#363 = ORIENTED_EDGE ( 'NONE', *, *, #321, .F. ) ;
#364 = PERSON_AND_ORGANIZATION ( #316, #21 ) ;
#365 = ADVANCED_FACE ( 'NONE', ( #47 ), #137, .T. ) ;
#366 = DIRECTION ( 'NONE',  ( 0.000000000000000000, -1.000000000000000000, 0.000000000000000000 ) ) ;
#367 = AXIS2_PLACEMENT_3D ( 'NONE', #5, #138, #8 ) ;
#368 = ADVANCED_FACE ( 'NONE', ( #274 ), #81, .T. ) ;
#369 = APPROVAL_ROLE ( '' ) ;
#370 = FACE_BOUND ( 'NONE', #320, .T. ) ;
#371 = AXIS2_PLACEMENT_3D ( 'NONE', #306, #404, #351 ) ;
#372 = DIRECTION ( 'NONE',  ( -0.000000000000000000, -0.000000000000000000, 1.000000000000000000 ) ) ;
#373 = ORIENTED_EDGE ( 'NONE', *, *, #352, .T. ) ;
#374 = EDGE_CURVE ( 'NONE', #281, #9, #22, .T. ) ;
#375 = VECTOR ( 'NONE', #324, 1000.000000000000000 ) ;
#376 =( GEOMETRIC_REPRESENTATION_CONTEXT ( 3 ) GLOBAL_UNCERTAINTY_ASSIGNED_CONTEXT ( ( #175 ) ) GLOBAL_UNIT_ASSIGNED_CONTEXT ( ( #330, #335, #214 ) ) REPRESENTATION_CONTEXT ( 'NONE', 'WORKASPACE' ) );
#377 = CC_DESIGN_DATE_AND_TIME_ASSIGNMENT ( #403, #241, ( #387 ) ) ;
#378 = CARTESIAN_POINT ( 'NONE',  ( 16.00000000000000000, 0.000000000000000000, 0.000000000000000000 ) ) ;
#379 = APPLICATION_CONTEXT ( 'configuration controlled 3d designs of mechanical parts and assemblies' ) ;
#380 = ORIENTED_EDGE ( 'NONE', *, *, #245, .T. ) ;
#381 = CIRCLE ( 'NONE', #239, 16.00000000000000000 ) ;
#382 = ADVANCED_FACE ( 'NONE', ( #370, #213 ), #234, .T. ) ;
#383 = LINE ( 'NONE', #385, #284 ) ;
#384 = VERTEX_POINT ( 'NONE', #401 ) ;
#385 = CARTESIAN_POINT ( 'NONE',  ( -16.00000000000000000, 1.959434878635765131E-15, 0.000000000000000000 ) ) ;
#386 = ORIENTED_EDGE ( 'NONE', *, *, #35, .F. ) ;
#387 = PRODUCT_DEFINITION ( 'NEZNÁMÝ', '', #51, #84 ) ;
#388 = AXIS2_PLACEMENT_3D ( 'NONE', #200, #362, #259 ) ;
#389 = CARTESIAN_POINT ( 'NONE',  ( 0.000000000000000000, 0.000000000000000000, -40.00000000000000000 ) ) ;
#390 = CC_DESIGN_SECURITY_CLASSIFICATION ( #246, ( #51 ) ) ;
#391 = FACE_OUTER_BOUND ( 'NONE', #218, .T. ) ;
#392 = ORIENTED_EDGE ( 'NONE', *, *, #352, .F. ) ;
#393 = CARTESIAN_POINT ( 'NONE',  ( 16.00000000000000000, 0.000000000000000000, -40.00000000000000000 ) ) ;
#394 = EDGE_CURVE ( 'NONE', #235, #176, #12, .T. ) ;
#395 = VERTEX_POINT ( 'NONE', #88 ) ;
#396 = DIRECTION ( 'NONE',  ( 0.000000000000000000, 0.000000000000000000, -1.000000000000000000 ) ) ;
#397 = CARTESIAN_POINT ( 'NONE',  ( 0.000000000000000000, 0.000000000000000000, 0.000000000000000000 ) ) ;
#398 = EDGE_CURVE ( 'NONE', #83, #9, #71, .T. ) ;
#399 = CARTESIAN_POINT ( 'NONE',  ( 0.000000000000000000, 0.000000000000000000, -0.4999999999999935052 ) ) ;
#400 = PERSON_AND_ORGANIZATION ( #316, #21 ) ;
#401 = CARTESIAN_POINT ( 'NONE',  ( -16.00000000000000000, 1.959434878635765131E-15, -40.00000000000000000 ) ) ;
#402 = TOROIDAL_SURFACE ( 'NONE', #19, 16.00000000000000000, 0.5000000000000000000 ) ;
#403 = DATE_AND_TIME ( #182, #301 ) ;
#404 = DIRECTION ( 'NONE',  ( -1.224646799147353207E-16, 1.000000000000000000, 0.000000000000000000 ) ) ;
#405 = APPROVAL_ROLE ( '' ) ;
#406 = FACE_OUTER_BOUND ( 'NONE', #263, .T. ) ;
#407 = SHAPE_DEFINITION_REPRESENTATION ( #31, #79 ) ;
#408 = EDGE_CURVE ( 'NONE', #9, #83, #165, .T. ) ;
#409 = DIRECTION ( 'NONE',  ( 0.000000000000000000, 0.000000000000000000, -1.000000000000000000 ) ) ;
ENDSEC;
END-ISO-10303-21;
