ISO-10303-21;
HEADER;
FILE_DESCRIPTION (( 'STEP AP203' ),
    '1' );
FILE_NAME ('d463.STEP',
    '2024-01-02T19:15:56',
    ( '' ),
    ( '' ),
    'SwSTEP 2.0',
    'SolidWorks 2019',
    '' );
FILE_SCHEMA (( 'CONFIG_CONTROL_DESIGN' ));
ENDSEC;

DATA;
#1 = CC_DESIGN_APPROVAL ( #140, ( #12 ) ) ;
#2 = ADVANCED_FACE ( 'NONE', ( #302 ), #172, .T. ) ;
#3 = APPROVAL_ROLE ( '' ) ;
#4 = CC_DESIGN_PERSON_AND_ORGANIZATION_ASSIGNMENT ( #101, #225, ( #207 ) ) ;
#5 = CYLINDRICAL_SURFACE ( 'NONE', #34, 16.00000000000000000 ) ;
#6 = ORIENTED_EDGE ( 'NONE', *, *, #285, .T. ) ;
#7 = CALENDAR_DATE ( 2024, 2, 1 ) ;
#8 = ORIENTED_EDGE ( 'NONE', *, *, #60, .T. ) ;
#9 = CARTESIAN_POINT ( 'NONE',  ( 0.000000000000000000, 0.000000000000000000, 0.000000000000000000 ) ) ;
#10 = CARTESIAN_POINT ( 'NONE',  ( 0.000000000000000000, 0.000000000000000000, -6.999999999999999112 ) ) ;
#11 = EDGE_CURVE ( 'NONE', #300, #399, #297, .T. ) ;
#12 = SECURITY_CLASSIFICATION ( '', '', #141 ) ;
#13 = CARTESIAN_POINT ( 'NONE',  ( 0.000000000000000000, 0.000000000000000000, -6.999999999999999112 ) ) ;
#14 = CARTESIAN_POINT ( 'NONE',  ( 16.00000000000000000, 1.959434878635765131E-15, -7.500000000000000000 ) ) ;
#15 = ORIENTED_EDGE ( 'NONE', *, *, #161, .F. ) ;
#16 = PERSON_AND_ORGANIZATION ( #80, #191 ) ;
#17 = AXIS2_PLACEMENT_3D ( 'NONE', #151, #91, #252 ) ;
#18 = EDGE_LOOP ( 'NONE', ( #124, #272, #354, #381 ) ) ;
#19 = VECTOR ( 'NONE', #226, 1000.000000000000114 ) ;
#20 = CIRCLE ( 'NONE', #104, 16.00000000000000000 ) ;
#21 = DIRECTION ( 'NONE',  ( 0.000000000000000000, -0.000000000000000000, 1.000000000000000000 ) ) ;
#22 = DESIGN_CONTEXT ( 'detailed design', #257, 'design' ) ;
#23 = CARTESIAN_POINT ( 'NONE',  ( 0.000000000000000000, 16.00000000000000000, -50.00000000000000000 ) ) ;
#24 = DIRECTION ( 'NONE',  ( 1.000000000000000000, 0.000000000000000000, 0.000000000000000000 ) ) ;
#25 = CC_DESIGN_DATE_AND_TIME_ASSIGNMENT ( #393, #134, ( #12 ) ) ;
#26 = PRODUCT_DEFINITION_FORMATION_WITH_SPECIFIED_SOURCE ( 'LIBOVOLNÝ', '', #207, .NOT_KNOWN. ) ;
#27 = ORIENTED_EDGE ( 'NONE', *, *, #291, .T. ) ;
#28 = DIRECTION ( 'NONE',  ( 0.000000000000000000, 0.000000000000000000, -1.000000000000000000 ) ) ;
#29 = CARTESIAN_POINT ( 'NONE',  ( 0.000000000000000000, 0.000000000000000000, 0.000000000000000000 ) ) ;
#30 = VERTEX_POINT ( 'NONE', #282 ) ;
#31 = CARTESIAN_POINT ( 'NONE',  ( 0.000000000000000000, 0.000000000000000000, 0.000000000000000000 ) ) ;
#32 = COORDINATED_UNIVERSAL_TIME_OFFSET ( 1, 0, .AHEAD. ) ;
#33 = CYLINDRICAL_SURFACE ( 'NONE', #322, 16.00000000000000000 ) ;
#34 = AXIS2_PLACEMENT_3D ( 'NONE', #9, #301, #128 ) ;
#35 = ORIENTED_EDGE ( 'NONE', *, *, #333, .T. ) ;
#36 = PERSON_AND_ORGANIZATION ( #80, #191 ) ;
#37 = VERTEX_POINT ( 'NONE', #312 ) ;
#38 = CALENDAR_DATE ( 2024, 2, 1 ) ;
#39 = DIRECTION ( 'NONE',  ( -0.000000000000000000, -0.000000000000000000, 1.000000000000000000 ) ) ;
#40 = AXIS2_PLACEMENT_3D ( 'NONE', #250, #367, #407 ) ;
#41 = ORIENTED_EDGE ( 'NONE', *, *, #316, .T. ) ;
#42 = DATE_AND_TIME ( #364, #391 ) ;
#43 = AXIS2_PLACEMENT_3D ( 'NONE', #208, #255, #373 ) ;
#44 = DIRECTION ( 'NONE',  ( -0.000000000000000000, -0.000000000000000000, 1.000000000000000000 ) ) ;
#45 = CARTESIAN_POINT ( 'NONE',  ( 0.000000000000000000, 0.000000000000000000, -7.500000000000000000 ) ) ;
#46 = APPROVAL_DATE_TIME ( #234, #126 ) ;
#47 = ADVANCED_FACE ( 'NONE', ( #307 ), #383, .F. ) ;
#48 = FACE_BOUND ( 'NONE', #363, .T. ) ;
#49 = ORIENTED_EDGE ( 'NONE', *, *, #334, .T. ) ;
#50 = AXIS2_PLACEMENT_3D ( 'NONE', #74, #202, #385 ) ;
#51 = CC_DESIGN_SECURITY_CLASSIFICATION ( #12, ( #26 ) ) ;
#52 = PLANE ( 'NONE',  #253 ) ;
#53 = EDGE_CURVE ( 'NONE', #300, #115, #156, .T. ) ;
#54 = ADVANCED_BREP_SHAPE_REPRESENTATION ( 'd463', ( #129, #369 ), #71 ) ;
#55 = DIRECTION ( 'NONE',  ( 1.000000000000000000, 0.000000000000000000, 0.000000000000000000 ) ) ;
#56 = VERTEX_POINT ( 'NONE', #245 ) ;
#57 = CARTESIAN_POINT ( 'NONE',  ( 16.00000000000000000, 1.959434878635765131E-15, -6.999999999999999112 ) ) ;
#58 = DIRECTION ( 'NONE',  ( 1.000000000000000000, 0.000000000000000000, 0.000000000000000000 ) ) ;
#59 = DIRECTION ( 'NONE',  ( 0.000000000000000000, 0.000000000000000000, -1.000000000000000000 ) ) ;
#60 = EDGE_CURVE ( 'NONE', #130, #399, #266, .T. ) ;
#61 = ORIENTED_EDGE ( 'NONE', *, *, #275, .T. ) ;
#62 = EDGE_LOOP ( 'NONE', ( #182, #386 ) ) ;
#63 = ADVANCED_FACE ( 'NONE', ( #283 ), #52, .T. ) ;
#64 = DIRECTION ( 'NONE',  ( 1.000000000000000000, 0.000000000000000000, 0.000000000000000000 ) ) ;
#65 = ORIENTED_EDGE ( 'NONE', *, *, #244, .T. ) ;
#66 = FACE_OUTER_BOUND ( 'NONE', #95, .T. ) ;
#67 = DIRECTION ( 'NONE',  ( 1.224646799147353207E-16, 1.000000000000000000, 0.000000000000000000 ) ) ;
#68 = PERSON_AND_ORGANIZATION ( #80, #191 ) ;
#69 = TOROIDAL_SURFACE ( 'NONE', #309, 16.00000000000000000, 0.5000000000000000000 ) ;
#70 = DATE_TIME_ROLE ( 'creation_date' ) ;
#71 =( GEOMETRIC_REPRESENTATION_CONTEXT ( 3 ) GLOBAL_UNCERTAINTY_ASSIGNED_CONTEXT ( ( #347 ) ) GLOBAL_UNIT_ASSIGNED_CONTEXT ( ( #292, #294, #194 ) ) REPRESENTATION_CONTEXT ( 'NONE', 'WORKASPACE' ) );
#72 = DIRECTION ( 'NONE',  ( -0.000000000000000000, -0.000000000000000000, 1.000000000000000000 ) ) ;
#73 = APPROVAL_ROLE ( '' ) ;
#74 = CARTESIAN_POINT ( 'NONE',  ( 0.000000000000000000, 0.000000000000000000, -6.999999999999999112 ) ) ;
#75 = ORIENTED_EDGE ( 'NONE', *, *, #366, .F. ) ;
#76 = LOCAL_TIME ( 20, 15, 56.00000000000000000, #125 ) ;
#77 = LINE ( 'NONE', #370, #238 ) ;
#78 = PRODUCT_DEFINITION_SHAPE ( 'NONE', 'NONE',  #241 ) ;
#79 = FACE_OUTER_BOUND ( 'NONE', #279, .T. ) ;
#80 = PERSON ( 'NEURÈENÝ', 'NEURÈENÝ', 'NEURÈENÝ', ('NEURÈENÝ'), ('NEURÈENÝ'), ('NEURÈENÝ') ) ;
#81 = DIRECTION ( 'NONE',  ( 1.000000000000000000, 0.000000000000000000, 0.000000000000000000 ) ) ;
#82 = AXIS2_PLACEMENT_3D ( 'NONE', #10, #168, #177 ) ;
#83 = AXIS2_PLACEMENT_3D ( 'NONE', #406, #59, #58 ) ;
#84 = DIRECTION ( 'NONE',  ( -1.000000000000000000, 0.000000000000000000, 0.000000000000000000 ) ) ;
#85 = DIRECTION ( 'NONE',  ( -0.000000000000000000, -0.000000000000000000, 1.000000000000000000 ) ) ;
#86 = AXIS2_PLACEMENT_3D ( 'NONE', #148, #112, #286 ) ;
#87 = DIRECTION ( 'NONE',  ( 1.000000000000000000, 0.000000000000000000, 0.000000000000000000 ) ) ;
#88 = ADVANCED_FACE ( 'NONE', ( #79 ), #212, .T. ) ;
#89 = APPROVAL_PERSON_ORGANIZATION ( #36, #140, #73 ) ;
#90 = VERTEX_POINT ( 'NONE', #371 ) ;
#91 = DIRECTION ( 'NONE',  ( -0.000000000000000000, -0.000000000000000000, 1.000000000000000000 ) ) ;
#92 = CARTESIAN_POINT ( 'NONE',  ( -16.00000000000000000, 0.000000000000000000, -6.999999999999999112 ) ) ;
#93 = AXIS2_PLACEMENT_3D ( 'NONE', #310, #335, #84 ) ;
#94 = AXIS2_PLACEMENT_3D ( 'NONE', #31, #157, #64 ) ;
#95 = EDGE_LOOP ( 'NONE', ( #379, #319, #204, #298 ) ) ;
#96 = DIRECTION ( 'NONE',  ( -0.000000000000000000, -0.000000000000000000, 1.000000000000000000 ) ) ;
#97 = CARTESIAN_POINT ( 'NONE',  ( 18.00000000000000355, 2.204364238465235822E-15, 0.000000000000000000 ) ) ;
#98 = CYLINDRICAL_SURFACE ( 'NONE', #94, 18.50000000000000000 ) ;
#99 = APPLICATION_CONTEXT ( 'configuration controlled 3d designs of mechanical parts and assemblies' ) ;
#100 = ORIENTED_EDGE ( 'NONE', *, *, #53, .T. ) ;
#101 = PERSON_AND_ORGANIZATION ( #80, #191 ) ;
#102 = ORIENTED_EDGE ( 'NONE', *, *, #160, .T. ) ;
#103 = CIRCLE ( 'NONE', #397, 0.5000000000000004441 ) ;
#104 = AXIS2_PLACEMENT_3D ( 'NONE', #260, #199, #228 ) ;
#105 = ORIENTED_EDGE ( 'NONE', *, *, #372, .T. ) ;
#106 = CARTESIAN_POINT ( 'NONE',  ( 18.00000000000000355, 2.234980408443919609E-15, 0.000000000000000000 ) ) ;
#107 = AXIS2_PLACEMENT_3D ( 'NONE', #215, #240, #81 ) ;
#108 = APPROVAL ( #159, 'NEURÈENÝ' ) ;
#109 = AXIS2_PLACEMENT_3D ( 'NONE', #29, #28, #378 ) ;
#110 = DIRECTION ( 'NONE',  ( 1.000000000000000000, 0.000000000000000000, 0.000000000000000000 ) ) ;
#111 = ADVANCED_FACE ( 'NONE', ( #48, #180 ), #146, .T. ) ;
#112 = DIRECTION ( 'NONE',  ( 0.000000000000000000, 0.000000000000000000, -1.000000000000000000 ) ) ;
#113 = LOCAL_TIME ( 20, 15, 56.00000000000000000, #32 ) ;
#114 = DIRECTION ( 'NONE',  ( -0.000000000000000000, -0.000000000000000000, 1.000000000000000000 ) ) ;
#115 = VERTEX_POINT ( 'NONE', #368 ) ;
#116 = DIRECTION ( 'NONE',  ( 0.000000000000000000, 0.000000000000000000, -1.000000000000000000 ) ) ;
#117 = DIRECTION ( 'NONE',  ( -0.000000000000000000, -0.000000000000000000, 1.000000000000000000 ) ) ;
#118 = EDGE_LOOP ( 'NONE', ( #75, #331, #325, #35 ) ) ;
#119 = DIRECTION ( 'NONE',  ( 1.000000000000000000, 0.000000000000000000, 0.000000000000000000 ) ) ;
#120 = EDGE_LOOP ( 'NONE', ( #193, #392, #61, #105 ) ) ;
#121 = EDGE_CURVE ( 'NONE', #321, #90, #360, .T. ) ;
#122 = FACE_OUTER_BOUND ( 'NONE', #162, .T. ) ;
#123 = CC_DESIGN_PERSON_AND_ORGANIZATION_ASSIGNMENT ( #382, #192, ( #241 ) ) ;
#124 = ORIENTED_EDGE ( 'NONE', *, *, #53, .F. ) ;
#125 = COORDINATED_UNIVERSAL_TIME_OFFSET ( 1, 0, .AHEAD. ) ;
#126 = APPROVAL ( #239, 'NEURÈENÝ' ) ;
#127 = ORIENTED_EDGE ( 'NONE', *, *, #230, .F. ) ;
#128 = DIRECTION ( 'NONE',  ( 1.000000000000000000, 0.000000000000000000, 0.000000000000000000 ) ) ;
#129 = MANIFOLD_SOLID_BREP ( 'Zkosení1', #237 ) ;
#130 = VERTEX_POINT ( 'NONE', #57 ) ;
#131 = CARTESIAN_POINT ( 'NONE',  ( 0.000000000000000000, 0.000000000000000000, 0.000000000000000000 ) ) ;
#132 = MECHANICAL_CONTEXT ( 'NONE', #99, 'mechanical' ) ;
#133 = CARTESIAN_POINT ( 'NONE',  ( -16.00000000000000000, 1.959434878635765131E-15, -50.00000000000000000 ) ) ;
#134 = DATE_TIME_ROLE ( 'classification_date' ) ;
#135 = VECTOR ( 'NONE', #72, 1000.000000000000000 ) ;
#136 = PERSON_AND_ORGANIZATION ( #80, #191 ) ;
#137 = CONICAL_SURFACE ( 'NONE', #109, 18.00000000000000355, 0.7853981633974447263 ) ;
#138 = DIRECTION ( 'NONE',  ( -1.000000000000000000, 0.000000000000000000, 0.000000000000000000 ) ) ;
#139 = CARTESIAN_POINT ( 'NONE',  ( 16.00000000000000000, 0.000000000000000000, 0.000000000000000000 ) ) ;
#140 = APPROVAL ( #170, 'NEURÈENÝ' ) ;
#141 = SECURITY_CLASSIFICATION_LEVEL ( 'unclassified' ) ;
#142 = CIRCLE ( 'NONE', #17, 16.00000000000000000 ) ;
#143 = CIRCLE ( 'NONE', #50, 18.50000000000000000 ) ;
#144 = CIRCLE ( 'NONE', #83, 18.50000000000000000 ) ;
#145 = ADVANCED_FACE ( 'NONE', ( #183 ), #163, .F. ) ;
#146 = PLANE ( 'NONE',  #86 ) ;
#147 = CARTESIAN_POINT ( 'NONE',  ( 0.000000000000000000, 0.000000000000000000, -50.00000000000000000 ) ) ;
#148 = CARTESIAN_POINT ( 'NONE',  ( 0.000000000000000000, 18.50000000000000000, -6.999999999999999112 ) ) ;
#149 = ORIENTED_EDGE ( 'NONE', *, *, #265, .F. ) ;
#150 = DIRECTION ( 'NONE',  ( 0.000000000000000000, -1.000000000000000000, 0.000000000000000000 ) ) ;
#151 = CARTESIAN_POINT ( 'NONE',  ( 0.000000000000000000, 0.000000000000000000, -50.00000000000000000 ) ) ;
#152 = DIRECTION ( 'NONE',  ( -0.000000000000000000, -0.000000000000000000, 1.000000000000000000 ) ) ;
#153 = EDGE_CURVE ( 'NONE', #167, #246, #142, .T. ) ;
#154 = DIRECTION ( 'NONE',  ( -0.000000000000000000, -0.000000000000000000, 1.000000000000000000 ) ) ;
#155 = EDGE_LOOP ( 'NONE', ( #6, #102, #198, #174 ) ) ;
#156 = CIRCLE ( 'NONE', #107, 15.50000000000000000 ) ;
#157 = DIRECTION ( 'NONE',  ( -0.000000000000000000, -0.000000000000000000, 1.000000000000000000 ) ) ;
#158 = VERTEX_POINT ( 'NONE', #188 ) ;
#159 = APPROVAL_STATUS ( 'not_yet_approved' ) ;
#160 = EDGE_CURVE ( 'NONE', #167, #321, #295, .T. ) ;
#161 = EDGE_CURVE ( 'NONE', #56, #158, #165, .T. ) ;
#162 = EDGE_LOOP ( 'NONE', ( #127, #65, #409, #227 ) ) ;
#163 = TOROIDAL_SURFACE ( 'NONE', #343, 16.00000000000000000, 0.5000000000000000000 ) ;
#164 = CARTESIAN_POINT ( 'NONE',  ( -18.00000000000000355, 0.000000000000000000, 0.000000000000000000 ) ) ;
#165 = CIRCLE ( 'NONE', #82, 18.50000000000000000 ) ;
#166 = TOROIDAL_SURFACE ( 'NONE', #357, 16.00000000000000000, 0.5000000000000000000 ) ;
#167 = VERTEX_POINT ( 'NONE', #133 ) ;
#168 = DIRECTION ( 'NONE',  ( -0.000000000000000000, -0.000000000000000000, 1.000000000000000000 ) ) ;
#169 = EDGE_LOOP ( 'NONE', ( #15, #185 ) ) ;
#170 = APPROVAL_STATUS ( 'not_yet_approved' ) ;
#171 = CARTESIAN_POINT ( 'NONE',  ( -16.00000000000000000, 1.959434878635765131E-15, -7.500000000000000000 ) ) ;
#172 = CYLINDRICAL_SURFACE ( 'NONE', #222, 18.50000000000000000 ) ;
#173 = CARTESIAN_POINT ( 'NONE',  ( 16.00000000000000000, 0.000000000000000000, -50.00000000000000000 ) ) ;
#174 = ORIENTED_EDGE ( 'NONE', *, *, #324, .F. ) ;
#175 = AXIS2_PLACEMENT_3D ( 'NONE', #284, #150, #214 ) ;
#176 = LOCAL_TIME ( 20, 15, 56.00000000000000000, #330 ) ;
#177 = DIRECTION ( 'NONE',  ( 1.000000000000000000, 0.000000000000000000, 0.000000000000000000 ) ) ;
#178 = CC_DESIGN_PERSON_AND_ORGANIZATION_ASSIGNMENT ( #232, #358, ( #12 ) ) ;
#179 = ORIENTED_EDGE ( 'NONE', *, *, #261, .F. ) ;
#180 = FACE_OUTER_BOUND ( 'NONE', #169, .T. ) ;
#181 = EDGE_CURVE ( 'NONE', #56, #37, #359, .T. ) ;
#182 = ORIENTED_EDGE ( 'NONE', *, *, #265, .T. ) ;
#183 = FACE_OUTER_BOUND ( 'NONE', #120, .T. ) ;
#184 = AXIS2_PLACEMENT_3D ( 'NONE', #403, #114, #247 ) ;
#185 = ORIENTED_EDGE ( 'NONE', *, *, #216, .F. ) ;
#186 = DIRECTION ( 'NONE',  ( -0.000000000000000000, -0.000000000000000000, 1.000000000000000000 ) ) ;
#187 = FACE_OUTER_BOUND ( 'NONE', #155, .T. ) ;
#188 = CARTESIAN_POINT ( 'NONE',  ( -18.50000000000000000, 2.265596578422603396E-15, -6.999999999999999112 ) ) ;
#189 = ORIENTED_EDGE ( 'NONE', *, *, #153, .F. ) ;
#190 = APPLICATION_PROTOCOL_DEFINITION ( 'international standard', 'config_control_design', 1994, #99 ) ;
#191 = ORGANIZATION ( 'NEURÈENÝ', 'NEURÈENÝ', '' ) ;
#192 = PERSON_AND_ORGANIZATION_ROLE ( 'creator' ) ;
#193 = ORIENTED_EDGE ( 'NONE', *, *, #211, .F. ) ;
#194 =( NAMED_UNIT ( * ) SI_UNIT ( $, .STERADIAN. ) SOLID_ANGLE_UNIT ( ) );
#195 = FACE_OUTER_BOUND ( 'NONE', #18, .T. ) ;
#196 = AXIS2_PLACEMENT_3D ( 'NONE', #131, #39, #303 ) ;
#197 = VECTOR ( 'NONE', #96, 1000.000000000000000 ) ;
#198 = ORIENTED_EDGE ( 'NONE', *, *, #372, .F. ) ;
#199 = DIRECTION ( 'NONE',  ( -0.000000000000000000, -0.000000000000000000, 1.000000000000000000 ) ) ;
#200 = DIRECTION ( 'NONE',  ( -1.000000000000000000, -1.224646799147349509E-16, 0.000000000000000000 ) ) ;
#201 = EDGE_CURVE ( 'NONE', #115, #130, #103, .T. ) ;
#202 = DIRECTION ( 'NONE',  ( -0.000000000000000000, -0.000000000000000000, 1.000000000000000000 ) ) ;
#203 = ORIENTED_EDGE ( 'NONE', *, *, #60, .F. ) ;
#204 = ORIENTED_EDGE ( 'NONE', *, *, #324, .T. ) ;
#205 = CIRCLE ( 'NONE', #175, 0.5000000000000004441 ) ;
#206 = SHAPE_DEFINITION_REPRESENTATION ( #78, #54 ) ;
#207 = PRODUCT ( 'd463', 'd463', '', ( #132 ) ) ;
#208 = CARTESIAN_POINT ( 'NONE',  ( 0.000000000000000000, 0.000000000000000000, 0.000000000000000000 ) ) ;
#209 = COORDINATED_UNIVERSAL_TIME_OFFSET ( 1, 0, .AHEAD. ) ;
#210 = DIRECTION ( 'NONE',  ( 0.000000000000000000, 0.000000000000000000, -1.000000000000000000 ) ) ;
#211 = EDGE_CURVE ( 'NONE', #300, #321, #231, .T. ) ;
#212 = PLANE ( 'NONE',  #314 ) ;
#213 = CARTESIAN_POINT ( 'NONE',  ( 0.000000000000000000, 0.000000000000000000, -6.999999999999999112 ) ) ;
#214 = DIRECTION ( 'NONE',  ( 0.000000000000000000, 0.000000000000000000, -1.000000000000000000 ) ) ;
#215 = CARTESIAN_POINT ( 'NONE',  ( 0.000000000000000000, 0.000000000000000000, -7.500000000000000000 ) ) ;
#216 = EDGE_CURVE ( 'NONE', #158, #56, #143, .T. ) ;
#217 = AXIS2_PLACEMENT_3D ( 'NONE', #213, #400, #365 ) ;
#218 = FACE_OUTER_BOUND ( 'NONE', #290, .T. ) ;
#219 = LOCAL_TIME ( 20, 15, 56.00000000000000000, #277 ) ;
#220 = ORIENTED_EDGE ( 'NONE', *, *, #261, .T. ) ;
#221 = LINE ( 'NONE', #139, #405 ) ;
#222 = AXIS2_PLACEMENT_3D ( 'NONE', #304, #85, #55 ) ;
#223 = FACE_OUTER_BOUND ( 'NONE', #263, .T. ) ;
#224 = AXIS2_PLACEMENT_3D ( 'NONE', #345, #116, #87 ) ;
#225 = PERSON_AND_ORGANIZATION_ROLE ( 'design_owner' ) ;
#226 = DIRECTION ( 'NONE',  ( 0.7071067811865451302, 8.659560562354903276E-17, -0.7071067811865500152 ) ) ;
#227 = ORIENTED_EDGE ( 'NONE', *, *, #316, .F. ) ;
#228 = DIRECTION ( 'NONE',  ( 1.000000000000000000, 0.000000000000000000, 0.000000000000000000 ) ) ;
#229 = DATE_AND_TIME ( #7, #113 ) ;
#230 = EDGE_CURVE ( 'NONE', #305, #233, #375, .T. ) ;
#231 = CIRCLE ( 'NONE', #328, 0.5000000000000004441 ) ;
#232 = PERSON_AND_ORGANIZATION ( #80, #191 ) ;
#233 = VERTEX_POINT ( 'NONE', #164 ) ;
#234 = DATE_AND_TIME ( #306, #219 ) ;
#235 = DIRECTION ( 'NONE',  ( -1.224646799147353207E-16, 1.000000000000000000, 0.000000000000000000 ) ) ;
#236 = PERSON_AND_ORGANIZATION ( #80, #191 ) ;
#237 = CLOSED_SHELL ( 'NONE', ( #339, #47, #262, #361, #408, #88, #63, #2, #111, #402, #145, #350, #342 ) ) ;
#238 = VECTOR ( 'NONE', #251, 1000.000000000000114 ) ;
#239 = APPROVAL_STATUS ( 'not_yet_approved' ) ;
#240 = DIRECTION ( 'NONE',  ( -0.000000000000000000, -0.000000000000000000, 1.000000000000000000 ) ) ;
#241 = PRODUCT_DEFINITION ( 'NEZNÁMÝ', '', #26, #22 ) ;
#242 = DIRECTION ( 'NONE',  ( -1.000000000000000000, 0.000000000000000000, -0.000000000000000000 ) ) ;
#243 = PRODUCT_RELATED_PRODUCT_CATEGORY ( 'detail', '', ( #207 ) ) ;
#244 = EDGE_CURVE ( 'NONE', #305, #37, #332, .T. ) ;
#245 = CARTESIAN_POINT ( 'NONE',  ( 18.50000000000000000, 0.000000000000000000, -6.999999999999999112 ) ) ;
#246 = VERTEX_POINT ( 'NONE', #173 ) ;
#247 = DIRECTION ( 'NONE',  ( 1.000000000000000000, 0.000000000000000000, 0.000000000000000000 ) ) ;
#248 = ORIENTED_EDGE ( 'NONE', *, *, #201, .T. ) ;
#249 = CC_DESIGN_PERSON_AND_ORGANIZATION_ASSIGNMENT ( #236, #396, ( #26 ) ) ;
#250 = CARTESIAN_POINT ( 'NONE',  ( -16.00000000000000000, 0.000000000000000000, -7.500000000000000000 ) ) ;
#251 = DIRECTION ( 'NONE',  ( -0.7071067811865451302, 0.000000000000000000, -0.7071067811865500152 ) ) ;
#252 = DIRECTION ( 'NONE',  ( 1.000000000000000000, 0.000000000000000000, 0.000000000000000000 ) ) ;
#253 = AXIS2_PLACEMENT_3D ( 'NONE', #337, #21, #110 ) ;
#254 = ORIENTED_EDGE ( 'NONE', *, *, #285, .F. ) ;
#255 = DIRECTION ( 'NONE',  ( 0.000000000000000000, 0.000000000000000000, -1.000000000000000000 ) ) ;
#256 = AXIS2_PLACEMENT_3D ( 'NONE', #13, #353, #138 ) ;
#257 = APPLICATION_CONTEXT ( 'configuration controlled 3d designs of mechanical parts and assemblies' ) ;
#258 = CIRCLE ( 'NONE', #270, 15.50000000000000000 ) ;
#259 = ORIENTED_EDGE ( 'NONE', *, *, #244, .F. ) ;
#260 = CARTESIAN_POINT ( 'NONE',  ( 0.000000000000000000, 0.000000000000000000, -8.000000000000000000 ) ) ;
#261 = EDGE_CURVE ( 'NONE', #399, #130, #293, .T. ) ;
#262 = ADVANCED_FACE ( 'NONE', ( #195 ), #69, .F. ) ;
#263 = EDGE_LOOP ( 'NONE', ( #336, #348, #49, #317 ) ) ;
#264 = DATE_AND_TIME ( #323, #76 ) ;
#265 = EDGE_CURVE ( 'NONE', #233, #305, #338, .T. ) ;
#266 = CIRCLE ( 'NONE', #217, 16.00000000000000000 ) ;
#267 = ORIENTED_EDGE ( 'NONE', *, *, #11, .F. ) ;
#268 = LINE ( 'NONE', #273, #197 ) ;
#269 = VECTOR ( 'NONE', #44, 1000.000000000000000 ) ;
#270 = AXIS2_PLACEMENT_3D ( 'NONE', #289, #278, #24 ) ;
#271 = DIRECTION ( 'NONE',  ( -1.000000000000000000, 1.224646799147349509E-16, 0.000000000000000000 ) ) ;
#272 = ORIENTED_EDGE ( 'NONE', *, *, #211, .T. ) ;
#273 = CARTESIAN_POINT ( 'NONE',  ( -18.50000000000000000, 2.265596578422603396E-15, 0.000000000000000000 ) ) ;
#274 = CARTESIAN_POINT ( 'NONE',  ( 18.50000000000000000, 0.000000000000000000, 0.000000000000000000 ) ) ;
#275 = EDGE_CURVE ( 'NONE', #115, #90, #205, .T. ) ;
#276 = CC_DESIGN_DATE_AND_TIME_ASSIGNMENT ( #229, #70, ( #241 ) ) ;
#277 = COORDINATED_UNIVERSAL_TIME_OFFSET ( 1, 0, .AHEAD. ) ;
#278 = DIRECTION ( 'NONE',  ( -0.000000000000000000, -0.000000000000000000, 1.000000000000000000 ) ) ;
#279 = EDGE_LOOP ( 'NONE', ( #254, #189 ) ) ;
#280 = APPROVAL_ROLE ( '' ) ;
#281 = CC_DESIGN_APPROVAL ( #126, ( #26 ) ) ;
#282 = CARTESIAN_POINT ( 'NONE',  ( -18.50000000000000000, 2.265596578422603396E-15, -0.5000000000000004441 ) ) ;
#283 = FACE_OUTER_BOUND ( 'NONE', #62, .T. ) ;
#284 = CARTESIAN_POINT ( 'NONE',  ( 16.00000000000000000, 0.000000000000000000, -7.500000000000000000 ) ) ;
#285 = EDGE_CURVE ( 'NONE', #246, #167, #344, .T. ) ;
#286 = DIRECTION ( 'NONE',  ( -1.000000000000000000, 0.000000000000000000, -0.000000000000000000 ) ) ;
#287 = CARTESIAN_POINT ( 'NONE',  ( -16.00000000000000000, 1.959434878635765131E-15, -8.000000000000000000 ) ) ;
#288 = CARTESIAN_POINT ( 'NONE',  ( 0.000000000000000000, 0.000000000000000000, -7.500000000000000000 ) ) ;
#289 = CARTESIAN_POINT ( 'NONE',  ( 0.000000000000000000, 0.000000000000000000, -7.500000000000000000 ) ) ;
#290 = EDGE_LOOP ( 'NONE', ( #384, #27, #376, #203 ) ) ;
#291 = EDGE_CURVE ( 'NONE', #115, #300, #258, .T. ) ;
#292 =( LENGTH_UNIT ( ) NAMED_UNIT ( * ) SI_UNIT ( .MILLI., .METRE. ) );
#293 = CIRCLE ( 'NONE', #256, 16.00000000000000000 ) ;
#294 =( NAMED_UNIT ( * ) PLANE_ANGLE_UNIT ( ) SI_UNIT ( $, .RADIAN. ) );
#295 = LINE ( 'NONE', #374, #269 ) ;
#296 = DIRECTION ( 'NONE',  ( -1.000000000000000000, 0.000000000000000000, 0.000000000000000000 ) ) ;
#297 = CIRCLE ( 'NONE', #40, 0.5000000000000004441 ) ;
#298 = ORIENTED_EDGE ( 'NONE', *, *, #121, .F. ) ;
#299 = DIRECTION ( 'NONE',  ( 0.000000000000000000, 0.000000000000000000, 1.000000000000000000 ) ) ;
#300 = VERTEX_POINT ( 'NONE', #313 ) ;
#301 = DIRECTION ( 'NONE',  ( -0.000000000000000000, -0.000000000000000000, 1.000000000000000000 ) ) ;
#302 = FACE_OUTER_BOUND ( 'NONE', #118, .T. ) ;
#303 = DIRECTION ( 'NONE',  ( 1.000000000000000000, 0.000000000000000000, 0.000000000000000000 ) ) ;
#304 = CARTESIAN_POINT ( 'NONE',  ( 0.000000000000000000, 0.000000000000000000, 0.000000000000000000 ) ) ;
#305 = VERTEX_POINT ( 'NONE', #106 ) ;
#306 = CALENDAR_DATE ( 2024, 2, 1 ) ;
#307 = FACE_OUTER_BOUND ( 'NONE', #311, .T. ) ;
#308 = CC_DESIGN_PERSON_AND_ORGANIZATION_ASSIGNMENT ( #16, #389, ( #26 ) ) ;
#309 = AXIS2_PLACEMENT_3D ( 'NONE', #394, #154, #341 ) ;
#310 = CARTESIAN_POINT ( 'NONE',  ( 0.000000000000000000, 0.000000000000000000, -7.500000000000000000 ) ) ;
#311 = EDGE_LOOP ( 'NONE', ( #100, #248, #179, #267 ) ) ;
#312 = CARTESIAN_POINT ( 'NONE',  ( 18.50000000000000000, 0.000000000000000000, -0.5000000000000004441 ) ) ;
#313 = CARTESIAN_POINT ( 'NONE',  ( -15.50000000000000000, 1.928818708657081344E-15, -7.500000000000000000 ) ) ;
#314 = AXIS2_PLACEMENT_3D ( 'NONE', #23, #210, #242 ) ;
#315 = FACE_OUTER_BOUND ( 'NONE', #395, .T. ) ;
#316 = EDGE_CURVE ( 'NONE', #233, #30, #77, .T. ) ;
#317 = ORIENTED_EDGE ( 'NONE', *, *, #181, .F. ) ;
#318 = DIRECTION ( 'NONE',  ( 0.000000000000000000, 0.000000000000000000, -1.000000000000000000 ) ) ;
#319 = ORIENTED_EDGE ( 'NONE', *, *, #153, .T. ) ;
#320 = DIRECTION ( 'NONE',  ( 1.000000000000000000, 0.000000000000000000, 0.000000000000000000 ) ) ;
#321 = VERTEX_POINT ( 'NONE', #287 ) ;
#322 = AXIS2_PLACEMENT_3D ( 'NONE', #380, #327, #387 ) ;
#323 = CALENDAR_DATE ( 2024, 2, 1 ) ;
#324 = EDGE_CURVE ( 'NONE', #246, #90, #221, .T. ) ;
#325 = ORIENTED_EDGE ( 'NONE', *, *, #181, .T. ) ;
#326 = DIRECTION ( 'NONE',  ( 1.000000000000000000, 0.000000000000000000, 0.000000000000000000 ) ) ;
#327 = DIRECTION ( 'NONE',  ( -0.000000000000000000, -0.000000000000000000, 1.000000000000000000 ) ) ;
#328 = AXIS2_PLACEMENT_3D ( 'NONE', #171, #67, #271 ) ;
#329 = APPROVAL_PERSON_ORGANIZATION ( #136, #126, #280 ) ;
#330 = COORDINATED_UNIVERSAL_TIME_OFFSET ( 1, 0, .AHEAD. ) ;
#331 = ORIENTED_EDGE ( 'NONE', *, *, #216, .T. ) ;
#332 = LINE ( 'NONE', #97, #19 ) ;
#333 = EDGE_CURVE ( 'NONE', #37, #30, #144, .T. ) ;
#334 = EDGE_CURVE ( 'NONE', #30, #37, #404, .T. ) ;
#335 = DIRECTION ( 'NONE',  ( 0.000000000000000000, 0.000000000000000000, -1.000000000000000000 ) ) ;
#336 = ORIENTED_EDGE ( 'NONE', *, *, #161, .T. ) ;
#337 = CARTESIAN_POINT ( 'NONE',  ( 0.000000000000000000, 0.000000000000000000, 0.000000000000000000 ) ) ;
#338 = CIRCLE ( 'NONE', #390, 18.00000000000000355 ) ;
#339 = ADVANCED_FACE ( 'NONE', ( #122 ), #377, .T. ) ;
#340 = APPROVAL_PERSON_ORGANIZATION ( #68, #108, #3 ) ;
#341 = DIRECTION ( 'NONE',  ( 1.000000000000000000, 0.000000000000000000, 0.000000000000000000 ) ) ;
#342 = ADVANCED_FACE ( 'NONE', ( #315 ), #137, .T. ) ;
#343 = AXIS2_PLACEMENT_3D ( 'NONE', #288, #117, #349 ) ;
#344 = CIRCLE ( 'NONE', #351, 16.00000000000000000 ) ;
#345 = CARTESIAN_POINT ( 'NONE',  ( 0.000000000000000000, 0.000000000000000000, -0.5000000000000004441 ) ) ;
#346 = DIRECTION ( 'NONE',  ( -0.000000000000000000, -0.000000000000000000, 1.000000000000000000 ) ) ;
#347 = UNCERTAINTY_MEASURE_WITH_UNIT (LENGTH_MEASURE( 1.000000000000000082E-05 ), #292, 'distance_accuracy_value', 'NONE');
#348 = ORIENTED_EDGE ( 'NONE', *, *, #366, .T. ) ;
#349 = DIRECTION ( 'NONE',  ( 1.000000000000000000, 0.000000000000000000, 0.000000000000000000 ) ) ;
#350 = ADVANCED_FACE ( 'NONE', ( #218 ), #166, .F. ) ;
#351 = AXIS2_PLACEMENT_3D ( 'NONE', #147, #186, #320 ) ;
#352 = APPLICATION_PROTOCOL_DEFINITION ( 'international standard', 'config_control_design', 1994, #257 ) ;
#353 = DIRECTION ( 'NONE',  ( -0.000000000000000000, -0.000000000000000000, 1.000000000000000000 ) ) ;
#354 = ORIENTED_EDGE ( 'NONE', *, *, #121, .T. ) ;
#355 = ORIENTED_EDGE ( 'NONE', *, *, #333, .F. ) ;
#356 = APPROVAL_DATE_TIME ( #264, #108 ) ;
#357 = AXIS2_PLACEMENT_3D ( 'NONE', #45, #318, #296 ) ;
#358 = PERSON_AND_ORGANIZATION_ROLE ( 'classification_officer' ) ;
#359 = LINE ( 'NONE', #274, #135 ) ;
#360 = CIRCLE ( 'NONE', #184, 16.00000000000000000 ) ;
#361 = ADVANCED_FACE ( 'NONE', ( #187 ), #5, .T. ) ;
#362 = APPROVAL_DATE_TIME ( #42, #140 ) ;
#363 = EDGE_LOOP ( 'NONE', ( #220, #8 ) ) ;
#364 = CALENDAR_DATE ( 2024, 2, 1 ) ;
#365 = DIRECTION ( 'NONE',  ( -1.000000000000000000, 0.000000000000000000, 0.000000000000000000 ) ) ;
#366 = EDGE_CURVE ( 'NONE', #158, #30, #268, .T. ) ;
#367 = DIRECTION ( 'NONE',  ( -0.000000000000000000, -1.000000000000000000, -0.000000000000000000 ) ) ;
#368 = CARTESIAN_POINT ( 'NONE',  ( 15.50000000000000000, 0.000000000000000000, -7.500000000000000000 ) ) ;
#369 = AXIS2_PLACEMENT_3D ( 'NONE', #388, #299, #326 ) ;
#370 = CARTESIAN_POINT ( 'NONE',  ( -18.00000000000000355, 0.000000000000000000, 0.000000000000000000 ) ) ;
#371 = CARTESIAN_POINT ( 'NONE',  ( 16.00000000000000000, 0.000000000000000000, -8.000000000000000000 ) ) ;
#372 = EDGE_CURVE ( 'NONE', #90, #321, #20, .T. ) ;
#373 = DIRECTION ( 'NONE',  ( -1.000000000000000000, 0.000000000000000000, 0.000000000000000000 ) ) ;
#374 = CARTESIAN_POINT ( 'NONE',  ( -16.00000000000000000, 1.959434878635765131E-15, 0.000000000000000000 ) ) ;
#375 = CIRCLE ( 'NONE', #196, 18.00000000000000355 ) ;
#376 = ORIENTED_EDGE ( 'NONE', *, *, #11, .T. ) ;
#377 = CONICAL_SURFACE ( 'NONE', #43, 18.00000000000000355, 0.7853981633974447263 ) ;
#378 = DIRECTION ( 'NONE',  ( -1.000000000000000000, 0.000000000000000000, 0.000000000000000000 ) ) ;
#379 = ORIENTED_EDGE ( 'NONE', *, *, #160, .F. ) ;
#380 = CARTESIAN_POINT ( 'NONE',  ( 0.000000000000000000, 0.000000000000000000, 0.000000000000000000 ) ) ;
#381 = ORIENTED_EDGE ( 'NONE', *, *, #275, .F. ) ;
#382 = PERSON_AND_ORGANIZATION ( #80, #191 ) ;
#383 = TOROIDAL_SURFACE ( 'NONE', #93, 16.00000000000000000, 0.5000000000000000000 ) ;
#384 = ORIENTED_EDGE ( 'NONE', *, *, #201, .F. ) ;
#385 = DIRECTION ( 'NONE',  ( 1.000000000000000000, 0.000000000000000000, 0.000000000000000000 ) ) ;
#386 = ORIENTED_EDGE ( 'NONE', *, *, #230, .T. ) ;
#387 = DIRECTION ( 'NONE',  ( 1.000000000000000000, 0.000000000000000000, 0.000000000000000000 ) ) ;
#388 = CARTESIAN_POINT ( 'NONE',  ( 0.000000000000000000, 0.000000000000000000, 0.000000000000000000 ) ) ;
#389 = PERSON_AND_ORGANIZATION_ROLE ( 'creator' ) ;
#390 = AXIS2_PLACEMENT_3D ( 'NONE', #401, #152, #119 ) ;
#391 = LOCAL_TIME ( 20, 15, 56.00000000000000000, #209 ) ;
#392 = ORIENTED_EDGE ( 'NONE', *, *, #291, .F. ) ;
#393 = DATE_AND_TIME ( #38, #176 ) ;
#394 = CARTESIAN_POINT ( 'NONE',  ( 0.000000000000000000, 0.000000000000000000, -7.500000000000000000 ) ) ;
#395 = EDGE_LOOP ( 'NONE', ( #259, #149, #41, #355 ) ) ;
#396 = PERSON_AND_ORGANIZATION_ROLE ( 'design_supplier' ) ;
#397 = AXIS2_PLACEMENT_3D ( 'NONE', #14, #235, #200 ) ;
#398 = CC_DESIGN_APPROVAL ( #108, ( #241 ) ) ;
#399 = VERTEX_POINT ( 'NONE', #92 ) ;
#400 = DIRECTION ( 'NONE',  ( -0.000000000000000000, -0.000000000000000000, 1.000000000000000000 ) ) ;
#401 = CARTESIAN_POINT ( 'NONE',  ( 0.000000000000000000, 0.000000000000000000, 0.000000000000000000 ) ) ;
#402 = ADVANCED_FACE ( 'NONE', ( #66 ), #33, .T. ) ;
#403 = CARTESIAN_POINT ( 'NONE',  ( 0.000000000000000000, 0.000000000000000000, -8.000000000000000000 ) ) ;
#404 = CIRCLE ( 'NONE', #224, 18.50000000000000000 ) ;
#405 = VECTOR ( 'NONE', #346, 1000.000000000000000 ) ;
#406 = CARTESIAN_POINT ( 'NONE',  ( 0.000000000000000000, 0.000000000000000000, -0.5000000000000004441 ) ) ;
#407 = DIRECTION ( 'NONE',  ( 0.000000000000000000, 0.000000000000000000, -1.000000000000000000 ) ) ;
#408 = ADVANCED_FACE ( 'NONE', ( #223 ), #98, .T. ) ;
#409 = ORIENTED_EDGE ( 'NONE', *, *, #334, .F. ) ;
ENDSEC;
END-ISO-10303-21;
