ISO-10303-21;
HEADER;
FILE_DESCRIPTION (( 'STEP AP203' ),
    '1' );
FILE_NAME ('f8f2.STEP',
    '2024-01-02T19:15:40',
    ( '' ),
    ( '' ),
    'SwSTEP 2.0',
    'SolidWorks 2019',
    '' );
FILE_SCHEMA (( 'CONFIG_CONTROL_DESIGN' ));
ENDSEC;

DATA;
#1 = ORIENTED_EDGE ( 'NONE', *, *, #402, .F. ) ;
#2 = CARTESIAN_POINT ( 'NONE',  ( -16.00000000000000000, 1.959434878635765131E-15, 0.000000000000000000 ) ) ;
#3 = TOROIDAL_SURFACE ( 'NONE', #294, 16.00000000000000000, 0.5000000000000000000 ) ;
#4 = DIRECTION ( 'NONE',  ( 0.000000000000000000, 0.000000000000000000, -1.000000000000000000 ) ) ;
#5 =( LENGTH_UNIT ( ) NAMED_UNIT ( * ) SI_UNIT ( .MILLI., .METRE. ) );
#6 = EDGE_LOOP ( 'NONE', ( #109, #56 ) ) ;
#7 = CARTESIAN_POINT ( 'NONE',  ( 0.000000000000000000, 0.000000000000000000, 0.000000000000000000 ) ) ;
#8 = VERTEX_POINT ( 'NONE', #184 ) ;
#9 = LINE ( 'NONE', #2, #391 ) ;
#10 = ADVANCED_FACE ( 'NONE', ( #98 ), #285, .F. ) ;
#11 = CARTESIAN_POINT ( 'NONE',  ( 0.000000000000000000, 0.000000000000000000, -7.500000000000000000 ) ) ;
#12 = CIRCLE ( 'NONE', #175, 0.5000000000000004441 ) ;
#13 = ADVANCED_FACE ( 'NONE', ( #39 ), #3, .F. ) ;
#14 = AXIS2_PLACEMENT_3D ( 'NONE', #409, #221, #118 ) ;
#15 = APPROVAL_DATE_TIME ( #297, #192 ) ;
#16 = VERTEX_POINT ( 'NONE', #30 ) ;
#17 = DIRECTION ( 'NONE',  ( 1.000000000000000000, 0.000000000000000000, 0.000000000000000000 ) ) ;
#18 = VECTOR ( 'NONE', #346, 1000.000000000000000 ) ;
#19 = ORIENTED_EDGE ( 'NONE', *, *, #133, .F. ) ;
#20 = CARTESIAN_POINT ( 'NONE',  ( 0.000000000000000000, 0.000000000000000000, 0.000000000000000000 ) ) ;
#21 = ORIENTED_EDGE ( 'NONE', *, *, #102, .T. ) ;
#22 = DIRECTION ( 'NONE',  ( -0.000000000000000000, -0.000000000000000000, 1.000000000000000000 ) ) ;
#23 = ORIENTED_EDGE ( 'NONE', *, *, #36, .F. ) ;
#24 = DIRECTION ( 'NONE',  ( 1.000000000000000000, 0.000000000000000000, 0.000000000000000000 ) ) ;
#25 = AXIS2_PLACEMENT_3D ( 'NONE', #292, #160, #127 ) ;
#26 = ORIENTED_EDGE ( 'NONE', *, *, #376, .F. ) ;
#27 = CARTESIAN_POINT ( 'NONE',  ( -16.00000000000000000, 1.959434878635765131E-15, -50.00000000000000000 ) ) ;
#28 = CIRCLE ( 'NONE', #45, 18.50000000000000000 ) ;
#29 = ORIENTED_EDGE ( 'NONE', *, *, #325, .F. ) ;
#30 = CARTESIAN_POINT ( 'NONE',  ( -15.50000000000000000, 1.928818708657081344E-15, -7.500000000000000000 ) ) ;
#31 = DIRECTION ( 'NONE',  ( -0.000000000000000000, -0.000000000000000000, 1.000000000000000000 ) ) ;
#32 = ORIENTED_EDGE ( 'NONE', *, *, #236, .F. ) ;
#33 = CARTESIAN_POINT ( 'NONE',  ( 16.00000000000000000, 1.959434878635765131E-15, -6.999999999999999112 ) ) ;
#34 = AXIS2_PLACEMENT_3D ( 'NONE', #7, #124, #258 ) ;
#35 = CIRCLE ( 'NONE', #407, 15.50000000000000000 ) ;
#36 = EDGE_CURVE ( 'NONE', #362, #87, #342, .T. ) ;
#37 = CARTESIAN_POINT ( 'NONE',  ( 0.000000000000000000, 0.000000000000000000, 0.000000000000000000 ) ) ;
#38 = CARTESIAN_POINT ( 'NONE',  ( -16.00000000000000000, 1.959434878635765131E-15, -8.000000000000000000 ) ) ;
#39 = FACE_OUTER_BOUND ( 'NONE', #404, .T. ) ;
#40 =( NAMED_UNIT ( * ) SI_UNIT ( $, .STERADIAN. ) SOLID_ANGLE_UNIT ( ) );
#41 = DIRECTION ( 'NONE',  ( 1.000000000000000000, 0.000000000000000000, 0.000000000000000000 ) ) ;
#42 = APPROVAL_PERSON_ORGANIZATION ( #271, #208, #105 ) ;
#43 = CALENDAR_DATE ( 2024, 2, 1 ) ;
#44 = TOROIDAL_SURFACE ( 'NONE', #264, 16.00000000000000000, 0.5000000000000000000 ) ;
#45 = AXIS2_PLACEMENT_3D ( 'NONE', #299, #91, #17 ) ;
#46 = ORIENTED_EDGE ( 'NONE', *, *, #65, .T. ) ;
#47 = DIRECTION ( 'NONE',  ( -0.000000000000000000, -0.000000000000000000, 1.000000000000000000 ) ) ;
#48 = COORDINATED_UNIVERSAL_TIME_OFFSET ( 1, 0, .AHEAD. ) ;
#49 = ORIENTED_EDGE ( 'NONE', *, *, #324, .F. ) ;
#50 = DIRECTION ( 'NONE',  ( -1.000000000000000000, 0.000000000000000000, 0.000000000000000000 ) ) ;
#51 = DIRECTION ( 'NONE',  ( 1.000000000000000000, 0.000000000000000000, 0.000000000000000000 ) ) ;
#52 = AXIS2_PLACEMENT_3D ( 'NONE', #206, #272, #181 ) ;
#53 = COORDINATED_UNIVERSAL_TIME_OFFSET ( 1, 0, .AHEAD. ) ;
#54 = ORIENTED_EDGE ( 'NONE', *, *, #251, .F. ) ;
#55 = DIRECTION ( 'NONE',  ( 0.000000000000000000, 0.000000000000000000, -1.000000000000000000 ) ) ;
#56 = ORIENTED_EDGE ( 'NONE', *, *, #376, .T. ) ;
#57 = CARTESIAN_POINT ( 'NONE',  ( 0.000000000000000000, 0.000000000000000000, -8.000000000000000000 ) ) ;
#58 = DIRECTION ( 'NONE',  ( -0.000000000000000000, -0.000000000000000000, 1.000000000000000000 ) ) ;
#59 = CARTESIAN_POINT ( 'NONE',  ( 16.00000000000000000, 0.000000000000000000, -50.00000000000000000 ) ) ;
#60 = APPROVAL_PERSON_ORGANIZATION ( #215, #192, #306 ) ;
#61 = AXIS2_PLACEMENT_3D ( 'NONE', #110, #88, #235 ) ;
#62 = FACE_OUTER_BOUND ( 'NONE', #154, .T. ) ;
#63 = CARTESIAN_POINT ( 'NONE',  ( 0.000000000000000000, 16.00000000000000000, -50.00000000000000000 ) ) ;
#64 = CARTESIAN_POINT ( 'NONE',  ( 15.50000000000000000, 0.000000000000000000, -7.500000000000000000 ) ) ;
#65 = EDGE_CURVE ( 'NONE', #358, #301, #382, .T. ) ;
#66 = FACE_OUTER_BOUND ( 'NONE', #106, .T. ) ;
#67 = APPLICATION_PROTOCOL_DEFINITION ( 'international standard', 'config_control_design', 1994, #314 ) ;
#68 = AXIS2_PLACEMENT_3D ( 'NONE', #185, #150, #70 ) ;
#69 = ORIENTED_EDGE ( 'NONE', *, *, #344, .T. ) ;
#70 = DIRECTION ( 'NONE',  ( -1.000000000000000000, 0.000000000000000000, 0.000000000000000000 ) ) ;
#71 = CARTESIAN_POINT ( 'NONE',  ( 0.000000000000000000, 0.000000000000000000, -7.500000000000000000 ) ) ;
#72 = PERSON_AND_ORGANIZATION ( #210, #113 ) ;
#73 = LOCAL_TIME ( 20, 15, 40.00000000000000000, #137 ) ;
#74 = ADVANCED_FACE ( 'NONE', ( #66 ), #193, .T. ) ;
#75 = ADVANCED_FACE ( 'NONE', ( #260 ), #254, .F. ) ;
#76 = APPROVAL_DATE_TIME ( #265, #232 ) ;
#77 = ADVANCED_FACE ( 'NONE', ( #62 ), #86, .T. ) ;
#78 = PERSON_AND_ORGANIZATION ( #210, #113 ) ;
#79 = EDGE_LOOP ( 'NONE', ( #141, #29, #213, #381 ) ) ;
#80 = AXIS2_PLACEMENT_3D ( 'NONE', #146, #55, #332 ) ;
#81 = LINE ( 'NONE', #171, #288 ) ;
#82 = ORIENTED_EDGE ( 'NONE', *, *, #310, .F. ) ;
#83 = PLANE ( 'NONE',  #61 ) ;
#84 = PERSON_AND_ORGANIZATION ( #210, #113 ) ;
#85 = FACE_OUTER_BOUND ( 'NONE', #249, .T. ) ;
#86 = CONICAL_SURFACE ( 'NONE', #130, 18.00000000000000355, 0.7853981633974447263 ) ;
#87 = VERTEX_POINT ( 'NONE', #348 ) ;
#88 = DIRECTION ( 'NONE',  ( 0.000000000000000000, 0.000000000000000000, -1.000000000000000000 ) ) ;
#89 = CIRCLE ( 'NONE', #14, 16.00000000000000000 ) ;
#90 = COORDINATED_UNIVERSAL_TIME_OFFSET ( 1, 0, .AHEAD. ) ;
#91 = DIRECTION ( 'NONE',  ( -0.000000000000000000, -0.000000000000000000, 1.000000000000000000 ) ) ;
#92 = ADVANCED_FACE ( 'NONE', ( #377 ), #44, .F. ) ;
#93 = VERTEX_POINT ( 'NONE', #64 ) ;
#94 = AXIS2_PLACEMENT_3D ( 'NONE', #219, #47, #51 ) ;
#95 = PRODUCT_DEFINITION_SHAPE ( 'NONE', 'NONE',  #305 ) ;
#96 = DIRECTION ( 'NONE',  ( -1.000000000000000000, 0.000000000000000000, 0.000000000000000000 ) ) ;
#97 = DIRECTION ( 'NONE',  ( 1.000000000000000000, 0.000000000000000000, 0.000000000000000000 ) ) ;
#98 = FACE_OUTER_BOUND ( 'NONE', #216, .T. ) ;
#99 = CARTESIAN_POINT ( 'NONE',  ( 0.000000000000000000, 0.000000000000000000, -50.00000000000000000 ) ) ;
#100 = ADVANCED_FACE ( 'NONE', ( #352 ), #199, .T. ) ;
#101 = DIRECTION ( 'NONE',  ( -0.000000000000000000, -0.000000000000000000, 1.000000000000000000 ) ) ;
#102 = EDGE_CURVE ( 'NONE', #289, #301, #385, .T. ) ;
#103 = CC_DESIGN_PERSON_AND_ORGANIZATION_ASSIGNMENT ( #78, #400, ( #183 ) ) ;
#104 = DIRECTION ( 'NONE',  ( 1.000000000000000000, 0.000000000000000000, 0.000000000000000000 ) ) ;
#105 = APPROVAL_ROLE ( '' ) ;
#106 = EDGE_LOOP ( 'NONE', ( #174, #180, #46, #401 ) ) ;
#107 = VECTOR ( 'NONE', #317, 1000.000000000000114 ) ;
#108 = FACE_OUTER_BOUND ( 'NONE', #227, .T. ) ;
#109 = ORIENTED_EDGE ( 'NONE', *, *, #145, .T. ) ;
#110 = CARTESIAN_POINT ( 'NONE',  ( 0.000000000000000000, 18.50000000000000000, -6.999999999999999112 ) ) ;
#111 = ORIENTED_EDGE ( 'NONE', *, *, #136, .T. ) ;
#112 = FACE_BOUND ( 'NONE', #6, .T. ) ;
#113 = ORGANIZATION ( 'NEURÈENÝ', 'NEURÈENÝ', '' ) ;
#114 = DIRECTION ( 'NONE',  ( -0.000000000000000000, -0.000000000000000000, 1.000000000000000000 ) ) ;
#115 = AXIS2_PLACEMENT_3D ( 'NONE', #363, #22, #50 ) ;
#116 = EDGE_LOOP ( 'NONE', ( #120, #1 ) ) ;
#117 = ORIENTED_EDGE ( 'NONE', *, *, #177, .T. ) ;
#118 = DIRECTION ( 'NONE',  ( 1.000000000000000000, 0.000000000000000000, 0.000000000000000000 ) ) ;
#119 = ADVANCED_FACE ( 'NONE', ( #388 ), #277, .T. ) ;
#120 = ORIENTED_EDGE ( 'NONE', *, *, #334, .F. ) ;
#121 = PRODUCT ( 'f8f2', 'f8f2', '', ( #350 ) ) ;
#122 = LOCAL_TIME ( 20, 15, 40.00000000000000000, #53 ) ;
#123 = ORIENTED_EDGE ( 'NONE', *, *, #136, .F. ) ;
#124 = DIRECTION ( 'NONE',  ( 0.000000000000000000, 0.000000000000000000, 1.000000000000000000 ) ) ;
#125 = DIRECTION ( 'NONE',  ( -0.000000000000000000, -0.000000000000000000, 1.000000000000000000 ) ) ;
#126 = CARTESIAN_POINT ( 'NONE',  ( 0.000000000000000000, 0.000000000000000000, -8.000000000000000000 ) ) ;
#127 = DIRECTION ( 'NONE',  ( 1.000000000000000000, 0.000000000000000000, 0.000000000000000000 ) ) ;
#128 = CIRCLE ( 'NONE', #94, 18.00000000000000355 ) ;
#129 = CC_DESIGN_DATE_AND_TIME_ASSIGNMENT ( #143, #331, ( #152 ) ) ;
#130 = AXIS2_PLACEMENT_3D ( 'NONE', #149, #384, #281 ) ;
#131 = EDGE_CURVE ( 'NONE', #301, #289, #356, .T. ) ;
#132 = PERSON_AND_ORGANIZATION_ROLE ( 'design_owner' ) ;
#133 = EDGE_CURVE ( 'NONE', #358, #307, #360, .T. ) ;
#134 = ORIENTED_EDGE ( 'NONE', *, *, #325, .T. ) ;
#135 = DIRECTION ( 'NONE',  ( 1.000000000000000000, 0.000000000000000000, 0.000000000000000000 ) ) ;
#136 = EDGE_CURVE ( 'NONE', #93, #408, #12, .T. ) ;
#137 = COORDINATED_UNIVERSAL_TIME_OFFSET ( 1, 0, .AHEAD. ) ;
#138 = CIRCLE ( 'NONE', #293, 0.5000000000000004441 ) ;
#139 = DIRECTION ( 'NONE',  ( 0.7071067811865451302, 8.659560562354903276E-17, -0.7071067811865500152 ) ) ;
#140 = PRODUCT_RELATED_PRODUCT_CATEGORY ( 'detail', '', ( #121 ) ) ;
#141 = ORIENTED_EDGE ( 'NONE', *, *, #196, .F. ) ;
#142 = DIRECTION ( 'NONE',  ( -0.000000000000000000, -1.000000000000000000, -0.000000000000000000 ) ) ;
#143 = DATE_AND_TIME ( #212, #122 ) ;
#144 = ORIENTED_EDGE ( 'NONE', *, *, #177, .F. ) ;
#145 = EDGE_CURVE ( 'NONE', #8, #408, #237, .T. ) ;
#146 = CARTESIAN_POINT ( 'NONE',  ( 0.000000000000000000, 0.000000000000000000, 0.000000000000000000 ) ) ;
#147 = CARTESIAN_POINT ( 'NONE',  ( 0.000000000000000000, 0.000000000000000000, 0.000000000000000000 ) ) ;
#148 = AXIS2_PLACEMENT_3D ( 'NONE', #179, #405, #304 ) ;
#149 = CARTESIAN_POINT ( 'NONE',  ( 0.000000000000000000, 0.000000000000000000, 0.000000000000000000 ) ) ;
#150 = DIRECTION ( 'NONE',  ( -0.000000000000000000, -0.000000000000000000, 1.000000000000000000 ) ) ;
#151 = ORIENTED_EDGE ( 'NONE', *, *, #259, .T. ) ;
#152 = SECURITY_CLASSIFICATION ( '', '', #397 ) ;
#153 = CIRCLE ( 'NONE', #379, 16.00000000000000000 ) ;
#154 = EDGE_LOOP ( 'NONE', ( #54, #117, #316, #49 ) ) ;
#155 = ADVANCED_FACE ( 'NONE', ( #108 ), #403, .T. ) ;
#156 = DIRECTION ( 'NONE',  ( -1.000000000000000000, 0.000000000000000000, -0.000000000000000000 ) ) ;
#157 = DIRECTION ( 'NONE',  ( 0.000000000000000000, 0.000000000000000000, -1.000000000000000000 ) ) ;
#158 = DIRECTION ( 'NONE',  ( 1.000000000000000000, 0.000000000000000000, 0.000000000000000000 ) ) ;
#159 = EDGE_CURVE ( 'NONE', #16, #8, #369, .T. ) ;
#160 = DIRECTION ( 'NONE',  ( 0.000000000000000000, 0.000000000000000000, -1.000000000000000000 ) ) ;
#161 = CC_DESIGN_PERSON_AND_ORGANIZATION_ASSIGNMENT ( #291, #329, ( #305 ) ) ;
#162 = AXIS2_PLACEMENT_3D ( 'NONE', #99, #313, #188 ) ;
#163 = APPLICATION_PROTOCOL_DEFINITION ( 'international standard', 'config_control_design', 1994, #353 ) ;
#164 = AXIS2_PLACEMENT_3D ( 'NONE', #386, #253, #374 ) ;
#165 = EDGE_CURVE ( 'NONE', #87, #337, #323, .T. ) ;
#166 = PERSON_AND_ORGANIZATION ( #210, #113 ) ;
#167 = EDGE_LOOP ( 'NONE', ( #69, #370 ) ) ;
#168 = LINE ( 'NONE', #247, #335 ) ;
#169 = DESIGN_CONTEXT ( 'detailed design', #353, 'design' ) ;
#170 = ORIENTED_EDGE ( 'NONE', *, *, #295, .F. ) ;
#171 = CARTESIAN_POINT ( 'NONE',  ( 18.00000000000000355, 2.204364238465235822E-15, 0.000000000000000000 ) ) ;
#172 = LOCAL_TIME ( 20, 15, 40.00000000000000000, #48 ) ;
#173 = APPROVAL_STATUS ( 'not_yet_approved' ) ;
#174 = ORIENTED_EDGE ( 'NONE', *, *, #259, .F. ) ;
#175 = AXIS2_PLACEMENT_3D ( 'NONE', #308, #275, #336 ) ;
#176 = DIRECTION ( 'NONE',  ( 0.000000000000000000, 0.000000000000000000, -1.000000000000000000 ) ) ;
#177 = EDGE_CURVE ( 'NONE', #276, #301, #81, .T. ) ;
#178 = ORIENTED_EDGE ( 'NONE', *, *, #36, .T. ) ;
#179 = CARTESIAN_POINT ( 'NONE',  ( 0.000000000000000000, 0.000000000000000000, -0.5000000000000004441 ) ) ;
#180 = ORIENTED_EDGE ( 'NONE', *, *, #266, .T. ) ;
#181 = DIRECTION ( 'NONE',  ( -1.000000000000000000, 1.224646799147349509E-16, 0.000000000000000000 ) ) ;
#182 = CLOSED_SHELL ( 'NONE', ( #77, #10, #75, #119, #267, #387, #100, #74, #202, #155, #92, #13, #248 ) ) ;
#183 = PRODUCT_DEFINITION_FORMATION_WITH_SPECIFIED_SOURCE ( 'LIBOVOLNÝ', '', #121, .NOT_KNOWN. ) ;
#184 = CARTESIAN_POINT ( 'NONE',  ( -16.00000000000000000, 0.000000000000000000, -6.999999999999999112 ) ) ;
#185 = CARTESIAN_POINT ( 'NONE',  ( 0.000000000000000000, 0.000000000000000000, -6.999999999999999112 ) ) ;
#186 = AXIS2_PLACEMENT_3D ( 'NONE', #399, #114, #359 ) ;
#187 = VERTEX_POINT ( 'NONE', #367 ) ;
#188 = DIRECTION ( 'NONE',  ( 1.000000000000000000, 0.000000000000000000, 0.000000000000000000 ) ) ;
#189 = ORIENTED_EDGE ( 'NONE', *, *, #165, .F. ) ;
#190 = DIRECTION ( 'NONE',  ( -0.000000000000000000, -0.000000000000000000, 1.000000000000000000 ) ) ;
#191 = AXIS2_PLACEMENT_3D ( 'NONE', #321, #263, #41 ) ;
#192 = APPROVAL ( #173, 'NEURÈENÝ' ) ;
#193 = CYLINDRICAL_SURFACE ( 'NONE', #300, 18.50000000000000000 ) ;
#194 = LINE ( 'NONE', #250, #107 ) ;
#195 = AXIS2_PLACEMENT_3D ( 'NONE', #147, #280, #135 ) ;
#196 = EDGE_CURVE ( 'NONE', #16, #337, #296, .T. ) ;
#197 = ORIENTED_EDGE ( 'NONE', *, *, #131, .F. ) ;
#198 =( NAMED_UNIT ( * ) PLANE_ANGLE_UNIT ( ) SI_UNIT ( $, .RADIAN. ) );
#199 = PLANE ( 'NONE',  #191 ) ;
#200 = CIRCLE ( 'NONE', #246, 18.00000000000000355 ) ;
#201 = CC_DESIGN_PERSON_AND_ORGANIZATION_ASSIGNMENT ( #166, #357, ( #183 ) ) ;
#202 = ADVANCED_FACE ( 'NONE', ( #112, #85 ), #83, .T. ) ;
#203 = AXIS2_PLACEMENT_3D ( 'NONE', #20, #238, #330 ) ;
#204 = PERSON_AND_ORGANIZATION_ROLE ( 'classification_officer' ) ;
#205 = ORIENTED_EDGE ( 'NONE', *, *, #324, .T. ) ;
#206 = CARTESIAN_POINT ( 'NONE',  ( -16.00000000000000000, 1.959434878635765131E-15, -7.500000000000000000 ) ) ;
#207 = ORIENTED_EDGE ( 'NONE', *, *, #159, .F. ) ;
#208 = APPROVAL ( #234, 'NEURÈENÝ' ) ;
#209 = FACE_OUTER_BOUND ( 'NONE', #398, .T. ) ;
#210 = PERSON ( 'NEURÈENÝ', 'NEURÈENÝ', 'NEURÈENÝ', ('NEURÈENÝ'), ('NEURÈENÝ'), ('NEURÈENÝ') ) ;
#211 = AXIS2_PLACEMENT_3D ( 'NONE', #312, #229, #252 ) ;
#212 = CALENDAR_DATE ( 2024, 2, 1 ) ;
#213 = ORIENTED_EDGE ( 'NONE', *, *, #236, .T. ) ;
#214 = CARTESIAN_POINT ( 'NONE',  ( 0.000000000000000000, 0.000000000000000000, 0.000000000000000000 ) ) ;
#215 = PERSON_AND_ORGANIZATION ( #210, #113 ) ;
#216 = EDGE_LOOP ( 'NONE', ( #298, #111, #274, #207 ) ) ;
#217 = DIRECTION ( 'NONE',  ( 0.000000000000000000, 0.000000000000000000, -1.000000000000000000 ) ) ;
#218 = CALENDAR_DATE ( 2024, 2, 1 ) ;
#219 = CARTESIAN_POINT ( 'NONE',  ( 0.000000000000000000, 0.000000000000000000, 0.000000000000000000 ) ) ;
#220 = CARTESIAN_POINT ( 'NONE',  ( 0.000000000000000000, 0.000000000000000000, -7.500000000000000000 ) ) ;
#221 = DIRECTION ( 'NONE',  ( -0.000000000000000000, -0.000000000000000000, 1.000000000000000000 ) ) ;
#222 = ORIENTED_EDGE ( 'NONE', *, *, #402, .T. ) ;
#223 = DIRECTION ( 'NONE',  ( -0.000000000000000000, -0.000000000000000000, 1.000000000000000000 ) ) ;
#224 = AXIS2_PLACEMENT_3D ( 'NONE', #243, #142, #176 ) ;
#225 = CARTESIAN_POINT ( 'NONE',  ( 18.50000000000000000, 0.000000000000000000, 0.000000000000000000 ) ) ;
#226 = PLANE ( 'NONE',  #327 ) ;
#227 = EDGE_LOOP ( 'NONE', ( #82, #222, #178, #170 ) ) ;
#228 = DIRECTION ( 'NONE',  ( 0.000000000000000000, 0.000000000000000000, -1.000000000000000000 ) ) ;
#229 = DIRECTION ( 'NONE',  ( -0.000000000000000000, -0.000000000000000000, 1.000000000000000000 ) ) ;
#230 = CC_DESIGN_APPROVAL ( #192, ( #152 ) ) ;
#231 = CIRCLE ( 'NONE', #164, 15.50000000000000000 ) ;
#232 = APPROVAL ( #322, 'NEURÈENÝ' ) ;
#233 = DIRECTION ( 'NONE',  ( 1.000000000000000000, 0.000000000000000000, 0.000000000000000000 ) ) ;
#234 = APPROVAL_STATUS ( 'not_yet_approved' ) ;
#235 = DIRECTION ( 'NONE',  ( -1.000000000000000000, 0.000000000000000000, -0.000000000000000000 ) ) ;
#236 = EDGE_CURVE ( 'NONE', #93, #87, #138, .T. ) ;
#237 = CIRCLE ( 'NONE', #115, 16.00000000000000000 ) ;
#238 = DIRECTION ( 'NONE',  ( -0.000000000000000000, -0.000000000000000000, 1.000000000000000000 ) ) ;
#239 = DATE_AND_TIME ( #273, #73 ) ;
#240 = ORIENTED_EDGE ( 'NONE', *, *, #196, .T. ) ;
#241 = CARTESIAN_POINT ( 'NONE',  ( 16.00000000000000000, 0.000000000000000000, -7.500000000000000000 ) ) ;
#242 = DATE_AND_TIME ( #393, #172 ) ;
#243 = CARTESIAN_POINT ( 'NONE',  ( -16.00000000000000000, 0.000000000000000000, -7.500000000000000000 ) ) ;
#244 = APPROVAL_PERSON_ORGANIZATION ( #326, #232, #390 ) ;
#245 = CIRCLE ( 'NONE', #162, 16.00000000000000000 ) ;
#246 = AXIS2_PLACEMENT_3D ( 'NONE', #340, #31, #97 ) ;
#247 = CARTESIAN_POINT ( 'NONE',  ( -18.50000000000000000, 2.265596578422603396E-15, 0.000000000000000000 ) ) ;
#248 = ADVANCED_FACE ( 'NONE', ( #209 ), #355, .T. ) ;
#249 = EDGE_LOOP ( 'NONE', ( #19, #366 ) ) ;
#250 = CARTESIAN_POINT ( 'NONE',  ( -18.00000000000000355, 0.000000000000000000, 0.000000000000000000 ) ) ;
#251 = EDGE_CURVE ( 'NONE', #276, #187, #128, .T. ) ;
#252 = DIRECTION ( 'NONE',  ( 1.000000000000000000, 0.000000000000000000, 0.000000000000000000 ) ) ;
#253 = DIRECTION ( 'NONE',  ( -0.000000000000000000, -0.000000000000000000, 1.000000000000000000 ) ) ;
#254 = TOROIDAL_SURFACE ( 'NONE', #211, 16.00000000000000000, 0.5000000000000000000 ) ;
#255 = CC_DESIGN_APPROVAL ( #232, ( #305 ) ) ;
#256 = ORIENTED_EDGE ( 'NONE', *, *, #133, .T. ) ;
#257 = VERTEX_POINT ( 'NONE', #27 ) ;
#258 = DIRECTION ( 'NONE',  ( 1.000000000000000000, 0.000000000000000000, 0.000000000000000000 ) ) ;
#259 = EDGE_CURVE ( 'NONE', #307, #289, #168, .T. ) ;
#260 = FACE_OUTER_BOUND ( 'NONE', #320, .T. ) ;
#261 = DIRECTION ( 'NONE',  ( -0.000000000000000000, -0.000000000000000000, 1.000000000000000000 ) ) ;
#262 = CC_DESIGN_PERSON_AND_ORGANIZATION_ASSIGNMENT ( #84, #204, ( #152 ) ) ;
#263 = DIRECTION ( 'NONE',  ( 0.000000000000000000, -0.000000000000000000, 1.000000000000000000 ) ) ;
#264 = AXIS2_PLACEMENT_3D ( 'NONE', #71, #101, #233 ) ;
#265 = DATE_AND_TIME ( #43, #395 ) ;
#266 = EDGE_CURVE ( 'NONE', #307, #358, #28, .T. ) ;
#267 = ADVANCED_FACE ( 'NONE', ( #338 ), #311, .T. ) ;
#268 = ORIENTED_EDGE ( 'NONE', *, *, #344, .F. ) ;
#269 = CARTESIAN_POINT ( 'NONE',  ( 18.00000000000000355, 2.234980408443919609E-15, 0.000000000000000000 ) ) ;
#270 =( GEOMETRIC_REPRESENTATION_CONTEXT ( 3 ) GLOBAL_UNCERTAINTY_ASSIGNED_CONTEXT ( ( #392 ) ) GLOBAL_UNIT_ASSIGNED_CONTEXT ( ( #5, #198, #40 ) ) REPRESENTATION_CONTEXT ( 'NONE', 'WORKASPACE' ) );
#271 = PERSON_AND_ORGANIZATION ( #210, #113 ) ;
#272 = DIRECTION ( 'NONE',  ( 1.224646799147353207E-16, 1.000000000000000000, 0.000000000000000000 ) ) ;
#273 = CALENDAR_DATE ( 2024, 2, 1 ) ;
#274 = ORIENTED_EDGE ( 'NONE', *, *, #145, .F. ) ;
#275 = DIRECTION ( 'NONE',  ( -1.224646799147353207E-16, 1.000000000000000000, 0.000000000000000000 ) ) ;
#276 = VERTEX_POINT ( 'NONE', #269 ) ;
#277 = CYLINDRICAL_SURFACE ( 'NONE', #319, 16.00000000000000000 ) ;
#278 = CIRCLE ( 'NONE', #68, 16.00000000000000000 ) ;
#279 = EDGE_LOOP ( 'NONE', ( #256, #151, #21, #394 ) ) ;
#280 = DIRECTION ( 'NONE',  ( -0.000000000000000000, -0.000000000000000000, 1.000000000000000000 ) ) ;
#281 = DIRECTION ( 'NONE',  ( -1.000000000000000000, 0.000000000000000000, 0.000000000000000000 ) ) ;
#282 = CARTESIAN_POINT ( 'NONE',  ( -18.50000000000000000, 2.265596578422603396E-15, -6.999999999999999112 ) ) ;
#283 = CC_DESIGN_DATE_AND_TIME_ASSIGNMENT ( #239, #361, ( #305 ) ) ;
#284 = ORIENTED_EDGE ( 'NONE', *, *, #295, .T. ) ;
#285 = TOROIDAL_SURFACE ( 'NONE', #375, 16.00000000000000000, 0.5000000000000000000 ) ;
#286 = DIRECTION ( 'NONE',  ( 1.000000000000000000, 0.000000000000000000, 0.000000000000000000 ) ) ;
#287 = ORIENTED_EDGE ( 'NONE', *, *, #310, .T. ) ;
#288 = VECTOR ( 'NONE', #139, 1000.000000000000114 ) ;
#289 = VERTEX_POINT ( 'NONE', #396 ) ;
#290 = CARTESIAN_POINT ( 'NONE',  ( 18.50000000000000000, 0.000000000000000000, -0.5000000000000004441 ) ) ;
#291 = PERSON_AND_ORGANIZATION ( #210, #113 ) ;
#292 = CARTESIAN_POINT ( 'NONE',  ( 0.000000000000000000, 0.000000000000000000, -0.5000000000000004441 ) ) ;
#293 = AXIS2_PLACEMENT_3D ( 'NONE', #241, #328, #217 ) ;
#294 = AXIS2_PLACEMENT_3D ( 'NONE', #220, #157, #96 ) ;
#295 = EDGE_CURVE ( 'NONE', #337, #87, #153, .T. ) ;
#296 = CIRCLE ( 'NONE', #52, 0.5000000000000004441 ) ;
#297 = DATE_AND_TIME ( #218, #368 ) ;
#298 = ORIENTED_EDGE ( 'NONE', *, *, #351, .T. ) ;
#299 = CARTESIAN_POINT ( 'NONE',  ( 0.000000000000000000, 0.000000000000000000, -6.999999999999999112 ) ) ;
#300 = AXIS2_PLACEMENT_3D ( 'NONE', #37, #58, #345 ) ;
#301 = VERTEX_POINT ( 'NONE', #290 ) ;
#302 = DIRECTION ( 'NONE',  ( -0.000000000000000000, -0.000000000000000000, 1.000000000000000000 ) ) ;
#303 = EDGE_LOOP ( 'NONE', ( #309, #287, #189, #23 ) ) ;
#304 = DIRECTION ( 'NONE',  ( 1.000000000000000000, 0.000000000000000000, 0.000000000000000000 ) ) ;
#305 = PRODUCT_DEFINITION ( 'NEZNÁMÝ', '', #183, #169 ) ;
#306 = APPROVAL_ROLE ( '' ) ;
#307 = VERTEX_POINT ( 'NONE', #282 ) ;
#308 = CARTESIAN_POINT ( 'NONE',  ( 16.00000000000000000, 1.959434878635765131E-15, -7.500000000000000000 ) ) ;
#309 = ORIENTED_EDGE ( 'NONE', *, *, #334, .T. ) ;
#310 = EDGE_CURVE ( 'NONE', #257, #337, #9, .T. ) ;
#311 = CYLINDRICAL_SURFACE ( 'NONE', #195, 18.50000000000000000 ) ;
#312 = CARTESIAN_POINT ( 'NONE',  ( 0.000000000000000000, 0.000000000000000000, -7.500000000000000000 ) ) ;
#313 = DIRECTION ( 'NONE',  ( -0.000000000000000000, -0.000000000000000000, 1.000000000000000000 ) ) ;
#314 = APPLICATION_CONTEXT ( 'configuration controlled 3d designs of mechanical parts and assemblies' ) ;
#315 = DIRECTION ( 'NONE',  ( -1.000000000000000000, 0.000000000000000000, 0.000000000000000000 ) ) ;
#316 = ORIENTED_EDGE ( 'NONE', *, *, #102, .F. ) ;
#317 = DIRECTION ( 'NONE',  ( -0.7071067811865451302, 0.000000000000000000, -0.7071067811865500152 ) ) ;
#318 = ORIENTED_EDGE ( 'NONE', *, *, #159, .T. ) ;
#319 = AXIS2_PLACEMENT_3D ( 'NONE', #214, #302, #104 ) ;
#320 = EDGE_LOOP ( 'NONE', ( #373, #240, #284, #32 ) ) ;
#321 = CARTESIAN_POINT ( 'NONE',  ( 0.000000000000000000, 0.000000000000000000, 0.000000000000000000 ) ) ;
#322 = APPROVAL_STATUS ( 'not_yet_approved' ) ;
#323 = CIRCLE ( 'NONE', #349, 16.00000000000000000 ) ;
#324 = EDGE_CURVE ( 'NONE', #187, #289, #194, .T. ) ;
#325 = EDGE_CURVE ( 'NONE', #93, #16, #35, .T. ) ;
#326 = PERSON_AND_ORGANIZATION ( #210, #113 ) ;
#327 = AXIS2_PLACEMENT_3D ( 'NONE', #63, #228, #156 ) ;
#328 = DIRECTION ( 'NONE',  ( 0.000000000000000000, -1.000000000000000000, 0.000000000000000000 ) ) ;
#329 = PERSON_AND_ORGANIZATION_ROLE ( 'creator' ) ;
#330 = DIRECTION ( 'NONE',  ( 1.000000000000000000, 0.000000000000000000, 0.000000000000000000 ) ) ;
#331 = DATE_TIME_ROLE ( 'classification_date' ) ;
#332 = DIRECTION ( 'NONE',  ( -1.000000000000000000, 0.000000000000000000, 0.000000000000000000 ) ) ;
#333 = CC_DESIGN_APPROVAL ( #208, ( #183 ) ) ;
#334 = EDGE_CURVE ( 'NONE', #362, #257, #89, .T. ) ;
#335 = VECTOR ( 'NONE', #371, 1000.000000000000000 ) ;
#336 = DIRECTION ( 'NONE',  ( -1.000000000000000000, -1.224646799147349509E-16, 0.000000000000000000 ) ) ;
#337 = VERTEX_POINT ( 'NONE', #38 ) ;
#338 = FACE_OUTER_BOUND ( 'NONE', #279, .T. ) ;
#339 = CARTESIAN_POINT ( 'NONE',  ( 16.00000000000000000, 0.000000000000000000, 0.000000000000000000 ) ) ;
#340 = CARTESIAN_POINT ( 'NONE',  ( 0.000000000000000000, 0.000000000000000000, 0.000000000000000000 ) ) ;
#341 = SHAPE_DEFINITION_REPRESENTATION ( #95, #380 ) ;
#342 = LINE ( 'NONE', #339, #347 ) ;
#343 = CARTESIAN_POINT ( 'NONE',  ( 18.50000000000000000, 0.000000000000000000, -6.999999999999999112 ) ) ;
#344 = EDGE_CURVE ( 'NONE', #187, #276, #200, .T. ) ;
#345 = DIRECTION ( 'NONE',  ( 1.000000000000000000, 0.000000000000000000, 0.000000000000000000 ) ) ;
#346 = DIRECTION ( 'NONE',  ( -0.000000000000000000, -0.000000000000000000, 1.000000000000000000 ) ) ;
#347 = VECTOR ( 'NONE', #125, 1000.000000000000000 ) ;
#348 = CARTESIAN_POINT ( 'NONE',  ( 16.00000000000000000, 0.000000000000000000, -8.000000000000000000 ) ) ;
#349 = AXIS2_PLACEMENT_3D ( 'NONE', #57, #365, #24 ) ;
#350 = MECHANICAL_CONTEXT ( 'NONE', #314, 'mechanical' ) ;
#351 = EDGE_CURVE ( 'NONE', #16, #93, #231, .T. ) ;
#352 = FACE_OUTER_BOUND ( 'NONE', #167, .T. ) ;
#353 = APPLICATION_CONTEXT ( 'configuration controlled 3d designs of mechanical parts and assemblies' ) ;
#354 = COORDINATED_UNIVERSAL_TIME_OFFSET ( 1, 0, .AHEAD. ) ;
#355 = CONICAL_SURFACE ( 'NONE', #80, 18.00000000000000355, 0.7853981633974447263 ) ;
#356 = CIRCLE ( 'NONE', #148, 18.50000000000000000 ) ;
#357 = PERSON_AND_ORGANIZATION_ROLE ( 'creator' ) ;
#358 = VERTEX_POINT ( 'NONE', #343 ) ;
#359 = DIRECTION ( 'NONE',  ( 1.000000000000000000, 0.000000000000000000, 0.000000000000000000 ) ) ;
#360 = CIRCLE ( 'NONE', #186, 18.50000000000000000 ) ;
#361 = DATE_TIME_ROLE ( 'creation_date' ) ;
#362 = VERTEX_POINT ( 'NONE', #59 ) ;
#363 = CARTESIAN_POINT ( 'NONE',  ( 0.000000000000000000, 0.000000000000000000, -6.999999999999999112 ) ) ;
#364 = APPROVAL_DATE_TIME ( #242, #208 ) ;
#365 = DIRECTION ( 'NONE',  ( -0.000000000000000000, -0.000000000000000000, 1.000000000000000000 ) ) ;
#366 = ORIENTED_EDGE ( 'NONE', *, *, #266, .F. ) ;
#367 = CARTESIAN_POINT ( 'NONE',  ( -18.00000000000000355, 0.000000000000000000, 0.000000000000000000 ) ) ;
#368 = LOCAL_TIME ( 20, 15, 40.00000000000000000, #90 ) ;
#369 = CIRCLE ( 'NONE', #224, 0.5000000000000004441 ) ;
#370 = ORIENTED_EDGE ( 'NONE', *, *, #251, .T. ) ;
#371 = DIRECTION ( 'NONE',  ( -0.000000000000000000, -0.000000000000000000, 1.000000000000000000 ) ) ;
#372 = CC_DESIGN_PERSON_AND_ORGANIZATION_ASSIGNMENT ( #72, #132, ( #121 ) ) ;
#373 = ORIENTED_EDGE ( 'NONE', *, *, #351, .F. ) ;
#374 = DIRECTION ( 'NONE',  ( 1.000000000000000000, 0.000000000000000000, 0.000000000000000000 ) ) ;
#375 = AXIS2_PLACEMENT_3D ( 'NONE', #11, #4, #315 ) ;
#376 = EDGE_CURVE ( 'NONE', #408, #8, #278, .T. ) ;
#377 = FACE_OUTER_BOUND ( 'NONE', #79, .T. ) ;
#378 = FACE_OUTER_BOUND ( 'NONE', #116, .T. ) ;
#379 = AXIS2_PLACEMENT_3D ( 'NONE', #126, #223, #286 ) ;
#380 = ADVANCED_BREP_SHAPE_REPRESENTATION ( 'f8f2', ( #389, #34 ), #270 ) ;
#381 = ORIENTED_EDGE ( 'NONE', *, *, #165, .T. ) ;
#382 = LINE ( 'NONE', #225, #18 ) ;
#383 = CARTESIAN_POINT ( 'NONE',  ( 0.000000000000000000, 0.000000000000000000, -7.500000000000000000 ) ) ;
#384 = DIRECTION ( 'NONE',  ( 0.000000000000000000, 0.000000000000000000, -1.000000000000000000 ) ) ;
#385 = CIRCLE ( 'NONE', #25, 18.50000000000000000 ) ;
#386 = CARTESIAN_POINT ( 'NONE',  ( 0.000000000000000000, 0.000000000000000000, -7.500000000000000000 ) ) ;
#387 = ADVANCED_FACE ( 'NONE', ( #378 ), #226, .T. ) ;
#388 = FACE_OUTER_BOUND ( 'NONE', #303, .T. ) ;
#389 = MANIFOLD_SOLID_BREP ( 'Zkosení1', #182 ) ;
#390 = APPROVAL_ROLE ( '' ) ;
#391 = VECTOR ( 'NONE', #190, 1000.000000000000000 ) ;
#392 = UNCERTAINTY_MEASURE_WITH_UNIT (LENGTH_MEASURE( 1.000000000000000082E-05 ), #5, 'distance_accuracy_value', 'NONE');
#393 = CALENDAR_DATE ( 2024, 2, 1 ) ;
#394 = ORIENTED_EDGE ( 'NONE', *, *, #65, .F. ) ;
#395 = LOCAL_TIME ( 20, 15, 40.00000000000000000, #354 ) ;
#396 = CARTESIAN_POINT ( 'NONE',  ( -18.50000000000000000, 2.265596578422603396E-15, -0.5000000000000004441 ) ) ;
#397 = SECURITY_CLASSIFICATION_LEVEL ( 'unclassified' ) ;
#398 = EDGE_LOOP ( 'NONE', ( #144, #268, #205, #197 ) ) ;
#399 = CARTESIAN_POINT ( 'NONE',  ( 0.000000000000000000, 0.000000000000000000, -6.999999999999999112 ) ) ;
#400 = PERSON_AND_ORGANIZATION_ROLE ( 'design_supplier' ) ;
#401 = ORIENTED_EDGE ( 'NONE', *, *, #131, .T. ) ;
#402 = EDGE_CURVE ( 'NONE', #257, #362, #245, .T. ) ;
#403 = CYLINDRICAL_SURFACE ( 'NONE', #203, 16.00000000000000000 ) ;
#404 = EDGE_LOOP ( 'NONE', ( #123, #134, #318, #26 ) ) ;
#405 = DIRECTION ( 'NONE',  ( 0.000000000000000000, 0.000000000000000000, -1.000000000000000000 ) ) ;
#406 = CC_DESIGN_SECURITY_CLASSIFICATION ( #152, ( #183 ) ) ;
#407 = AXIS2_PLACEMENT_3D ( 'NONE', #383, #261, #158 ) ;
#408 = VERTEX_POINT ( 'NONE', #33 ) ;
#409 = CARTESIAN_POINT ( 'NONE',  ( 0.000000000000000000, 0.000000000000000000, -50.00000000000000000 ) ) ;
ENDSEC;
END-ISO-10303-21;
