ISO-10303-21;
HEADER;
FILE_DESCRIPTION (( 'STEP AP203' ),
    '1' );
FILE_NAME ('0183.STEP',
    '2024-01-02T19:16:33',
    ( '' ),
    ( '' ),
    'SwSTEP 2.0',
    'SolidWorks 2019',
    '' );
FILE_SCHEMA (( 'CONFIG_CONTROL_DESIGN' ));
ENDSEC;

DATA;
#1 = CC_DESIGN_PERSON_AND_ORGANIZATION_ASSIGNMENT ( #118, #175, ( #137 ) ) ;
#2 = ORIENTED_EDGE ( 'NONE', *, *, #197, .T. ) ;
#3 = PERSON_AND_ORGANIZATION ( #160, #292 ) ;
#4 = DIRECTION ( 'NONE',  ( 1.000000000000000000, 0.000000000000000000, 0.000000000000000000 ) ) ;
#5 = ORIENTED_EDGE ( 'NONE', *, *, #280, .F. ) ;
#6 = VERTEX_POINT ( 'NONE', #318 ) ;
#7 = DIRECTION ( 'NONE',  ( -0.000000000000000000, -0.000000000000000000, 1.000000000000000000 ) ) ;
#8 = VECTOR ( 'NONE', #310, 1000.000000000000000 ) ;
#9 = DIRECTION ( 'NONE',  ( -0.000000000000000000, -0.000000000000000000, 1.000000000000000000 ) ) ;
#10 = SHAPE_DEFINITION_REPRESENTATION ( #304, #257 ) ;
#11 = DIRECTION ( 'NONE',  ( 0.000000000000000000, 0.000000000000000000, -1.000000000000000000 ) ) ;
#12 = APPROVAL ( #121, 'NEURÈENÝ' ) ;
#13 = EDGE_CURVE ( 'NONE', #254, #6, #337, .T. ) ;
#14 = CYLINDRICAL_SURFACE ( 'NONE', #195, 16.00000000000000000 ) ;
#15 = DIRECTION ( 'NONE',  ( -0.000000000000000000, -0.000000000000000000, 1.000000000000000000 ) ) ;
#16 = EDGE_CURVE ( 'NONE', #335, #51, #356, .T. ) ;
#17 = DIRECTION ( 'NONE',  ( 1.224646799147353207E-16, 1.000000000000000000, 0.000000000000000000 ) ) ;
#18 = DIRECTION ( 'NONE',  ( 0.000000000000000000, 0.000000000000000000, -1.000000000000000000 ) ) ;
#19 = SECURITY_CLASSIFICATION ( '', '', #178 ) ;
#20 = CC_DESIGN_SECURITY_CLASSIFICATION ( #19, ( #341 ) ) ;
#21 = LOCAL_TIME ( 20, 16, 33.00000000000000000, #89 ) ;
#22 = FACE_BOUND ( 'NONE', #117, .T. ) ;
#23 = CARTESIAN_POINT ( 'NONE',  ( -16.00000000000000000, 0.000000000000000000, -6.999999999999999112 ) ) ;
#24 = ORIENTED_EDGE ( 'NONE', *, *, #230, .T. ) ;
#25 = EDGE_CURVE ( 'NONE', #6, #35, #215, .T. ) ;
#26 = DIRECTION ( 'NONE',  ( 1.000000000000000000, 0.000000000000000000, 0.000000000000000000 ) ) ;
#27 = CALENDAR_DATE ( 2024, 2, 1 ) ;
#28 = ORIENTED_EDGE ( 'NONE', *, *, #116, .T. ) ;
#29 = CALENDAR_DATE ( 2024, 2, 1 ) ;
#30 = CARTESIAN_POINT ( 'NONE',  ( -16.00000000000000000, 1.959434878635765131E-15, -8.000000000000000000 ) ) ;
#31 = DATE_AND_TIME ( #34, #359 ) ;
#32 = ORIENTED_EDGE ( 'NONE', *, *, #208, .T. ) ;
#33 = EDGE_CURVE ( 'NONE', #184, #270, #224, .T. ) ;
#34 = CALENDAR_DATE ( 2024, 2, 1 ) ;
#35 = VERTEX_POINT ( 'NONE', #355 ) ;
#36 = APPLICATION_PROTOCOL_DEFINITION ( 'international standard', 'config_control_design', 1994, #293 ) ;
#37 = CARTESIAN_POINT ( 'NONE',  ( 16.00000000000000000, 0.000000000000000000, -8.000000000000000000 ) ) ;
#38 = ORIENTED_EDGE ( 'NONE', *, *, #33, .T. ) ;
#39 = AXIS2_PLACEMENT_3D ( 'NONE', #342, #17, #267 ) ;
#40 = FACE_OUTER_BOUND ( 'NONE', #311, .T. ) ;
#41 = AXIS2_PLACEMENT_3D ( 'NONE', #138, #47, #209 ) ;
#42 = FACE_OUTER_BOUND ( 'NONE', #404, .T. ) ;
#43 = CIRCLE ( 'NONE', #346, 15.50000000000000000 ) ;
#44 = CARTESIAN_POINT ( 'NONE',  ( 0.000000000000000000, 0.000000000000000000, -0.4999999999999865663 ) ) ;
#45 = CARTESIAN_POINT ( 'NONE',  ( 0.000000000000000000, 0.000000000000000000, 0.000000000000000000 ) ) ;
#46 = PRODUCT_RELATED_PRODUCT_CATEGORY ( 'detail', '', ( #321 ) ) ;
#47 = DIRECTION ( 'NONE',  ( -0.000000000000000000, -0.000000000000000000, 1.000000000000000000 ) ) ;
#48 = ORIENTED_EDGE ( 'NONE', *, *, #280, .T. ) ;
#49 = AXIS2_PLACEMENT_3D ( 'NONE', #44, #165, #327 ) ;
#50 = CARTESIAN_POINT ( 'NONE',  ( 15.50000000000000000, 0.000000000000000000, -7.500000000000000000 ) ) ;
#51 = VERTEX_POINT ( 'NONE', #37 ) ;
#52 = AXIS2_PLACEMENT_3D ( 'NONE', #407, #18, #53 ) ;
#53 = DIRECTION ( 'NONE',  ( 1.000000000000000000, 0.000000000000000000, 0.000000000000000000 ) ) ;
#54 = AXIS2_PLACEMENT_3D ( 'NONE', #298, #228, #99 ) ;
#55 = CARTESIAN_POINT ( 'NONE',  ( 0.000000000000000000, 0.000000000000000000, -6.999999999999999112 ) ) ;
#56 = VERTEX_POINT ( 'NONE', #30 ) ;
#57 = APPROVAL_STATUS ( 'not_yet_approved' ) ;
#58 = ORIENTED_EDGE ( 'NONE', *, *, #386, .F. ) ;
#59 = DIRECTION ( 'NONE',  ( -0.000000000000000000, -0.000000000000000000, 1.000000000000000000 ) ) ;
#60 = APPROVAL_ROLE ( '' ) ;
#61 = CIRCLE ( 'NONE', #295, 16.00000000000000000 ) ;
#62 = VERTEX_POINT ( 'NONE', #149 ) ;
#63 = CARTESIAN_POINT ( 'NONE',  ( -16.00000000000000000, 1.959434878635765131E-15, -45.00000000000000000 ) ) ;
#64 = DIRECTION ( 'NONE',  ( 1.000000000000000000, 0.000000000000000000, 0.000000000000000000 ) ) ;
#65 = ORIENTED_EDGE ( 'NONE', *, *, #370, .T. ) ;
#66 = VERTEX_POINT ( 'NONE', #63 ) ;
#67 = CIRCLE ( 'NONE', #98, 16.00000000000000000 ) ;
#68 = ADVANCED_FACE ( 'NONE', ( #75 ), #84, .F. ) ;
#69 = DIRECTION ( 'NONE',  ( 1.000000000000000000, 0.000000000000000000, 0.000000000000000000 ) ) ;
#70 = VECTOR ( 'NONE', #269, 1000.000000000000000 ) ;
#71 = AXIS2_PLACEMENT_3D ( 'NONE', #83, #345, #173 ) ;
#72 = FACE_OUTER_BOUND ( 'NONE', #92, .T. ) ;
#73 = AXIS2_PLACEMENT_3D ( 'NONE', #132, #15, #261 ) ;
#74 = CARTESIAN_POINT ( 'NONE',  ( 0.000000000000000000, 0.000000000000000000, -7.500000000000000000 ) ) ;
#75 = FACE_OUTER_BOUND ( 'NONE', #204, .T. ) ;
#76 = CARTESIAN_POINT ( 'NONE',  ( -16.00000000000000000, 1.959434878635765131E-15, 0.000000000000000000 ) ) ;
#77 = VERTEX_POINT ( 'NONE', #135 ) ;
#78 = DIRECTION ( 'NONE',  ( -0.000000000000000000, -0.000000000000000000, 1.000000000000000000 ) ) ;
#79 = CIRCLE ( 'NONE', #180, 0.5000000000000004441 ) ;
#80 = CARTESIAN_POINT ( 'NONE',  ( 0.000000000000000000, 0.000000000000000000, 0.000000000000000000 ) ) ;
#81 = LINE ( 'NONE', #76, #8 ) ;
#82 = ORIENTED_EDGE ( 'NONE', *, *, #151, .T. ) ;
#83 = CARTESIAN_POINT ( 'NONE',  ( 0.000000000000000000, 0.000000000000000000, 0.000000000000000000 ) ) ;
#84 = TOROIDAL_SURFACE ( 'NONE', #218, 16.00000000000000000, 0.5000000000000000000 ) ;
#85 = APPROVAL_STATUS ( 'not_yet_approved' ) ;
#86 = ORIENTED_EDGE ( 'NONE', *, *, #197, .F. ) ;
#87 = AXIS2_PLACEMENT_3D ( 'NONE', #288, #183, #282 ) ;
#88 = AXIS2_PLACEMENT_3D ( 'NONE', #80, #338, #302 ) ;
#89 = COORDINATED_UNIVERSAL_TIME_OFFSET ( 1, 0, .AHEAD. ) ;
#90 = DIRECTION ( 'NONE',  ( -0.000000000000000000, -0.000000000000000000, 1.000000000000000000 ) ) ;
#91 =( NAMED_UNIT ( * ) SI_UNIT ( $, .STERADIAN. ) SOLID_ANGLE_UNIT ( ) );
#92 = EDGE_LOOP ( 'NONE', ( #182, #167, #65, #212 ) ) ;
#93 = CIRCLE ( 'NONE', #49, 18.50000000000000000 ) ;
#94 = EDGE_LOOP ( 'NONE', ( #38, #179 ) ) ;
#95 = DIRECTION ( 'NONE',  ( 1.000000000000000000, 0.000000000000000000, 0.000000000000000000 ) ) ;
#96 = CARTESIAN_POINT ( 'NONE',  ( 0.000000000000000000, 0.000000000000000000, -6.999999999999999112 ) ) ;
#97 = CARTESIAN_POINT ( 'NONE',  ( 0.000000000000000000, 0.000000000000000000, -6.999999999999999112 ) ) ;
#98 = AXIS2_PLACEMENT_3D ( 'NONE', #391, #392, #69 ) ;
#99 = DIRECTION ( 'NONE',  ( 1.000000000000000000, 0.000000000000000000, 0.000000000000000000 ) ) ;
#100 = FACE_OUTER_BOUND ( 'NONE', #347, .T. ) ;
#101 = EDGE_CURVE ( 'NONE', #335, #77, #43, .T. ) ;
#102 = EDGE_CURVE ( 'NONE', #35, #200, #93, .T. ) ;
#103 = CARTESIAN_POINT ( 'NONE',  ( 16.00000000000000000, 1.959434878635765131E-15, -7.500000000000000000 ) ) ;
#104 = DIRECTION ( 'NONE',  ( -0.000000000000000000, -0.000000000000000000, 1.000000000000000000 ) ) ;
#105 = DIRECTION ( 'NONE',  ( -1.000000000000000000, 0.000000000000000000, -0.000000000000000000 ) ) ;
#106 = APPROVAL_PERSON_ORGANIZATION ( #389, #365, #248 ) ;
#107 = CARTESIAN_POINT ( 'NONE',  ( 0.000000000000000000, 18.50000000000000000, -6.999999999999999112 ) ) ;
#108 = ORIENTED_EDGE ( 'NONE', *, *, #25, .F. ) ;
#109 = CC_DESIGN_DATE_AND_TIME_ASSIGNMENT ( #31, #150, ( #19 ) ) ;
#110 = DIRECTION ( 'NONE',  ( -0.7071067811865500152, 0.000000000000000000, -0.7071067811865451302 ) ) ;
#111 = ORIENTED_EDGE ( 'NONE', *, *, #171, .F. ) ;
#112 = CARTESIAN_POINT ( 'NONE',  ( 0.000000000000000000, 16.00000000000000000, -45.00000000000000000 ) ) ;
#113 = ADVANCED_FACE ( 'NONE', ( #258 ), #324, .F. ) ;
#114 = LOCAL_TIME ( 20, 16, 33.00000000000000000, #312 ) ;
#115 = FACE_OUTER_BOUND ( 'NONE', #375, .T. ) ;
#116 = EDGE_CURVE ( 'NONE', #335, #122, #79, .T. ) ;
#117 = EDGE_LOOP ( 'NONE', ( #313, #82 ) ) ;
#118 = PERSON_AND_ORGANIZATION ( #160, #292 ) ;
#119 = EDGE_LOOP ( 'NONE', ( #111, #380, #48, #390 ) ) ;
#120 = VECTOR ( 'NONE', #110, 1000.000000000000114 ) ;
#121 = APPROVAL_STATUS ( 'not_yet_approved' ) ;
#122 = VERTEX_POINT ( 'NONE', #129 ) ;
#123 = CONICAL_SURFACE ( 'NONE', #364, 18.00000000000001066, 0.7853981633974517207 ) ;
#124 = PERSON_AND_ORGANIZATION ( #160, #292 ) ;
#125 = EDGE_LOOP ( 'NONE', ( #285, #170, #2, #157 ) ) ;
#126 = ORIENTED_EDGE ( 'NONE', *, *, #13, .F. ) ;
#127 = ADVANCED_FACE ( 'NONE', ( #72 ), #123, .T. ) ;
#128 = AXIS2_PLACEMENT_3D ( 'NONE', #55, #398, #274 ) ;
#129 = CARTESIAN_POINT ( 'NONE',  ( 16.00000000000000000, 1.959434878635765131E-15, -6.999999999999999112 ) ) ;
#130 = CARTESIAN_POINT ( 'NONE',  ( 0.000000000000000000, 0.000000000000000000, 0.000000000000000000 ) ) ;
#131 = CIRCLE ( 'NONE', #234, 0.5000000000000004441 ) ;
#132 = CARTESIAN_POINT ( 'NONE',  ( 0.000000000000000000, 0.000000000000000000, -45.00000000000000000 ) ) ;
#133 = AXIS2_PLACEMENT_3D ( 'NONE', #96, #90, #320 ) ;
#134 = DIRECTION ( 'NONE',  ( 0.000000000000000000, 0.000000000000000000, -1.000000000000000000 ) ) ;
#135 = CARTESIAN_POINT ( 'NONE',  ( -15.50000000000000000, 1.928818708657081344E-15, -7.500000000000000000 ) ) ;
#136 = DIRECTION ( 'NONE',  ( -1.000000000000000000, 0.000000000000000000, 0.000000000000000000 ) ) ;
#137 = PRODUCT_DEFINITION ( 'NEZNÁMÝ', '', #341, #255 ) ;
#138 = CARTESIAN_POINT ( 'NONE',  ( 0.000000000000000000, 0.000000000000000000, -7.500000000000000000 ) ) ;
#139 = ORIENTED_EDGE ( 'NONE', *, *, #193, .F. ) ;
#140 = AXIS2_PLACEMENT_3D ( 'NONE', #112, #237, #369 ) ;
#141 = PLANE ( 'NONE',  #368 ) ;
#142 = PLANE ( 'NONE',  #140 ) ;
#143 = LINE ( 'NONE', #379, #70 ) ;
#144 = AXIS2_PLACEMENT_3D ( 'NONE', #316, #319, #95 ) ;
#145 = CC_DESIGN_PERSON_AND_ORGANIZATION_ASSIGNMENT ( #354, #385, ( #19 ) ) ;
#146 = DATE_AND_TIME ( #27, #383 ) ;
#147 = ORIENTED_EDGE ( 'NONE', *, *, #328, .T. ) ;
#148 = CALENDAR_DATE ( 2024, 2, 1 ) ;
#149 = CARTESIAN_POINT ( 'NONE',  ( 16.00000000000000000, 0.000000000000000000, -45.00000000000000000 ) ) ;
#150 = DATE_TIME_ROLE ( 'classification_date' ) ;
#151 = EDGE_CURVE ( 'NONE', #122, #315, #287, .T. ) ;
#152 = ORIENTED_EDGE ( 'NONE', *, *, #328, .F. ) ;
#153 = TOROIDAL_SURFACE ( 'NONE', #41, 16.00000000000000000, 0.5000000000000000000 ) ;
#154 = EDGE_CURVE ( 'NONE', #51, #56, #67, .T. ) ;
#155 =( LENGTH_UNIT ( ) NAMED_UNIT ( * ) SI_UNIT ( .MILLI., .METRE. ) );
#156 = DIRECTION ( 'NONE',  ( 0.000000000000000000, -1.000000000000000000, 0.000000000000000000 ) ) ;
#157 = ORIENTED_EDGE ( 'NONE', *, *, #151, .F. ) ;
#158 = UNCERTAINTY_MEASURE_WITH_UNIT (LENGTH_MEASURE( 1.000000000000000082E-05 ), #155, 'distance_accuracy_value', 'NONE');
#159 = EDGE_LOOP ( 'NONE', ( #278, #147, #217, #108 ) ) ;
#160 = PERSON ( 'NEURÈENÝ', 'NEURÈENÝ', 'NEURÈENÝ', ('NEURÈENÝ'), ('NEURÈENÝ'), ('NEURÈENÝ') ) ;
#161 = DIRECTION ( 'NONE',  ( -0.000000000000000000, -0.000000000000000000, 1.000000000000000000 ) ) ;
#162 = DIRECTION ( 'NONE',  ( -1.000000000000000000, 0.000000000000000000, 0.000000000000000000 ) ) ;
#163 = CIRCLE ( 'NONE', #73, 16.00000000000000000 ) ;
#164 = DIRECTION ( 'NONE',  ( -0.000000000000000000, -0.000000000000000000, 1.000000000000000000 ) ) ;
#165 = DIRECTION ( 'NONE',  ( 0.000000000000000000, 0.000000000000000000, -1.000000000000000000 ) ) ;
#166 = FACE_OUTER_BOUND ( 'NONE', #159, .T. ) ;
#167 = ORIENTED_EDGE ( 'NONE', *, *, #33, .F. ) ;
#168 = CARTESIAN_POINT ( 'NONE',  ( 18.00000000000001066, 2.234980408443920004E-15, 0.000000000000000000 ) ) ;
#169 = CC_DESIGN_APPROVAL ( #12, ( #19 ) ) ;
#170 = ORIENTED_EDGE ( 'NONE', *, *, #101, .T. ) ;
#171 = EDGE_CURVE ( 'NONE', #77, #335, #352, .T. ) ;
#172 = CARTESIAN_POINT ( 'NONE',  ( 0.000000000000000000, 0.000000000000000000, -7.500000000000000000 ) ) ;
#173 = DIRECTION ( 'NONE',  ( 1.000000000000000000, 0.000000000000000000, 0.000000000000000000 ) ) ;
#174 = ORIENTED_EDGE ( 'NONE', *, *, #101, .F. ) ;
#175 = PERSON_AND_ORGANIZATION_ROLE ( 'creator' ) ;
#176 = MECHANICAL_CONTEXT ( 'NONE', #241, 'mechanical' ) ;
#177 = DIRECTION ( 'NONE',  ( -0.000000000000000000, -0.000000000000000000, 1.000000000000000000 ) ) ;
#178 = SECURITY_CLASSIFICATION_LEVEL ( 'unclassified' ) ;
#179 = ORIENTED_EDGE ( 'NONE', *, *, #397, .T. ) ;
#180 = AXIS2_PLACEMENT_3D ( 'NONE', #103, #366, #294 ) ;
#181 = PERSON_AND_ORGANIZATION ( #160, #292 ) ;
#182 = ORIENTED_EDGE ( 'NONE', *, *, #230, .F. ) ;
#183 = DIRECTION ( 'NONE',  ( -0.000000000000000000, -0.000000000000000000, 1.000000000000000000 ) ) ;
#184 = VERTEX_POINT ( 'NONE', #333 ) ;
#185 = EDGE_LOOP ( 'NONE', ( #221, #126 ) ) ;
#186 = DIRECTION ( 'NONE',  ( -1.000000000000000000, 0.000000000000000000, 0.000000000000000000 ) ) ;
#187 = CC_DESIGN_APPROVAL ( #336, ( #341 ) ) ;
#188 = LOCAL_TIME ( 20, 16, 33.00000000000000000, #393 ) ;
#189 = APPROVAL_PERSON_ORGANIZATION ( #408, #336, #60 ) ;
#190 = DIRECTION ( 'NONE',  ( -1.000000000000000000, 0.000000000000000000, 0.000000000000000000 ) ) ;
#191 = CARTESIAN_POINT ( 'NONE',  ( -18.50000000000000000, 2.265596578422603396E-15, -0.4999999999999865663 ) ) ;
#192 = MANIFOLD_SOLID_BREP ( 'Zkosení1', #297 ) ;
#193 = EDGE_CURVE ( 'NONE', #62, #51, #331, .T. ) ;
#194 = CYLINDRICAL_SURFACE ( 'NONE', #353, 18.50000000000000000 ) ;
#195 = AXIS2_PLACEMENT_3D ( 'NONE', #263, #303, #238 ) ;
#196 = CARTESIAN_POINT ( 'NONE',  ( 0.000000000000000000, 0.000000000000000000, -7.500000000000000000 ) ) ;
#197 = EDGE_CURVE ( 'NONE', #77, #315, #131, .T. ) ;
#198 = CARTESIAN_POINT ( 'NONE',  ( 0.000000000000000000, 0.000000000000000000, 0.000000000000000000 ) ) ;
#199 = VECTOR ( 'NONE', #229, 1000.000000000000000 ) ;
#200 = VERTEX_POINT ( 'NONE', #191 ) ;
#201 = EDGE_CURVE ( 'NONE', #315, #122, #61, .T. ) ;
#202 = PLANE ( 'NONE',  #88 ) ;
#203 = DIRECTION ( 'NONE',  ( 0.000000000000000000, 0.000000000000000000, -1.000000000000000000 ) ) ;
#204 = EDGE_LOOP ( 'NONE', ( #388, #28, #250, #86 ) ) ;
#205 = AXIS2_PLACEMENT_3D ( 'NONE', #395, #7, #162 ) ;
#206 = FACE_OUTER_BOUND ( 'NONE', #125, .T. ) ;
#207 = ORIENTED_EDGE ( 'NONE', *, *, #102, .T. ) ;
#208 = EDGE_CURVE ( 'NONE', #62, #66, #163, .T. ) ;
#209 = DIRECTION ( 'NONE',  ( 1.000000000000000000, 0.000000000000000000, 0.000000000000000000 ) ) ;
#210 = VECTOR ( 'NONE', #59, 1000.000000000000000 ) ;
#211 = PERSON_AND_ORGANIZATION_ROLE ( 'creator' ) ;
#212 = ORIENTED_EDGE ( 'NONE', *, *, #102, .F. ) ;
#213 = CC_DESIGN_APPROVAL ( #365, ( #137 ) ) ;
#214 = APPROVAL_DATE_TIME ( #239, #336 ) ;
#215 = LINE ( 'NONE', #351, #210 ) ;
#216 = PERSON_AND_ORGANIZATION_ROLE ( 'design_owner' ) ;
#217 = ORIENTED_EDGE ( 'NONE', *, *, #322, .T. ) ;
#218 = AXIS2_PLACEMENT_3D ( 'NONE', #196, #291, #190 ) ;
#219 = ORIENTED_EDGE ( 'NONE', *, *, #326, .F. ) ;
#220 = CIRCLE ( 'NONE', #232, 18.00000000000001066 ) ;
#221 = ORIENTED_EDGE ( 'NONE', *, *, #329, .F. ) ;
#222 = DIRECTION ( 'NONE',  ( 1.000000000000000000, 0.000000000000000000, 0.000000000000000000 ) ) ;
#223 = ADVANCED_FACE ( 'NONE', ( #100 ), #396, .T. ) ;
#224 = CIRCLE ( 'NONE', #373, 18.00000000000001066 ) ;
#225 = CARTESIAN_POINT ( 'NONE',  ( -16.00000000000000000, 0.000000000000000000, -7.500000000000000000 ) ) ;
#226 = CALENDAR_DATE ( 2024, 2, 1 ) ;
#227 = CONICAL_SURFACE ( 'NONE', #286, 18.00000000000001066, 0.7853981633974517207 ) ;
#228 = DIRECTION ( 'NONE',  ( -0.000000000000000000, -0.000000000000000000, 1.000000000000000000 ) ) ;
#229 = DIRECTION ( 'NONE',  ( -0.000000000000000000, -0.000000000000000000, 1.000000000000000000 ) ) ;
#230 = EDGE_CURVE ( 'NONE', #270, #35, #330, .T. ) ;
#231 = DIRECTION ( 'NONE',  ( -0.000000000000000000, -1.000000000000000000, -0.000000000000000000 ) ) ;
#232 = AXIS2_PLACEMENT_3D ( 'NONE', #198, #334, #64 ) ;
#233 = LINE ( 'NONE', #376, #120 ) ;
#234 = AXIS2_PLACEMENT_3D ( 'NONE', #225, #231, #11 ) ;
#235 = FACE_OUTER_BOUND ( 'NONE', #94, .T. ) ;
#236 = ORIENTED_EDGE ( 'NONE', *, *, #16, .T. ) ;
#237 = DIRECTION ( 'NONE',  ( 0.000000000000000000, 0.000000000000000000, -1.000000000000000000 ) ) ;
#238 = DIRECTION ( 'NONE',  ( 1.000000000000000000, 0.000000000000000000, 0.000000000000000000 ) ) ;
#239 = DATE_AND_TIME ( #148, #21 ) ;
#240 = DIRECTION ( 'NONE',  ( 0.000000000000000000, 0.000000000000000000, -1.000000000000000000 ) ) ;
#241 = APPLICATION_CONTEXT ( 'configuration controlled 3d designs of mechanical parts and assemblies' ) ;
#242 = ADVANCED_FACE ( 'NONE', ( #40 ), #194, .T. ) ;
#243 = COORDINATED_UNIVERSAL_TIME_OFFSET ( 1, 0, .AHEAD. ) ;
#244 = APPROVAL_PERSON_ORGANIZATION ( #3, #12, #262 ) ;
#245 = EDGE_LOOP ( 'NONE', ( #219, #174, #236, #283 ) ) ;
#246 = CC_DESIGN_PERSON_AND_ORGANIZATION_ASSIGNMENT ( #124, #216, ( #321 ) ) ;
#247 = AXIS2_PLACEMENT_3D ( 'NONE', #371, #78, #26 ) ;
#248 = APPROVAL_ROLE ( '' ) ;
#249 = ADVANCED_FACE ( 'NONE', ( #42 ), #14, .T. ) ;
#250 = ORIENTED_EDGE ( 'NONE', *, *, #201, .F. ) ;
#251 = ADVANCED_FACE ( 'NONE', ( #166 ), #276, .T. ) ;
#252 =( NAMED_UNIT ( * ) PLANE_ANGLE_UNIT ( ) SI_UNIT ( $, .RADIAN. ) );
#253 = ORIENTED_EDGE ( 'NONE', *, *, #154, .F. ) ;
#254 = VERTEX_POINT ( 'NONE', #372 ) ;
#255 = DESIGN_CONTEXT ( 'detailed design', #293, 'design' ) ;
#256 = CIRCLE ( 'NONE', #247, 16.00000000000000000 ) ;
#257 = ADVANCED_BREP_SHAPE_REPRESENTATION ( '0183', ( #192, #144 ), #268 ) ;
#258 = FACE_OUTER_BOUND ( 'NONE', #119, .T. ) ;
#259 = CARTESIAN_POINT ( 'NONE',  ( 0.000000000000000000, 0.000000000000000000, -7.500000000000000000 ) ) ;
#260 = CC_DESIGN_PERSON_AND_ORGANIZATION_ASSIGNMENT ( #348, #350, ( #341 ) ) ;
#261 = DIRECTION ( 'NONE',  ( 1.000000000000000000, 0.000000000000000000, 0.000000000000000000 ) ) ;
#262 = APPROVAL_ROLE ( '' ) ;
#263 = CARTESIAN_POINT ( 'NONE',  ( 0.000000000000000000, 0.000000000000000000, 0.000000000000000000 ) ) ;
#264 = ADVANCED_FACE ( 'NONE', ( #272 ), #153, .F. ) ;
#265 = DATE_AND_TIME ( #226, #188 ) ;
#266 = DIRECTION ( 'NONE',  ( -1.000000000000000000, 0.000000000000000000, 0.000000000000000000 ) ) ;
#267 = DIRECTION ( 'NONE',  ( -1.000000000000000000, 1.224646799147349509E-16, 0.000000000000000000 ) ) ;
#268 =( GEOMETRIC_REPRESENTATION_CONTEXT ( 3 ) GLOBAL_UNCERTAINTY_ASSIGNED_CONTEXT ( ( #158 ) ) GLOBAL_UNIT_ASSIGNED_CONTEXT ( ( #155, #252, #91 ) ) REPRESENTATION_CONTEXT ( 'NONE', 'WORKASPACE' ) );
#269 = DIRECTION ( 'NONE',  ( -0.000000000000000000, -0.000000000000000000, 1.000000000000000000 ) ) ;
#270 = VERTEX_POINT ( 'NONE', #168 ) ;
#271 = ADVANCED_FACE ( 'NONE', ( #206 ), #399, .F. ) ;
#272 = FACE_OUTER_BOUND ( 'NONE', #245, .T. ) ;
#273 = CC_DESIGN_PERSON_AND_ORGANIZATION_ASSIGNMENT ( #181, #211, ( #341 ) ) ;
#274 = DIRECTION ( 'NONE',  ( 1.000000000000000000, 0.000000000000000000, 0.000000000000000000 ) ) ;
#275 = AXIS2_PLACEMENT_3D ( 'NONE', #349, #156, #240 ) ;
#276 = CYLINDRICAL_SURFACE ( 'NONE', #71, 18.50000000000000000 ) ;
#277 = DATE_TIME_ROLE ( 'creation_date' ) ;
#278 = ORIENTED_EDGE ( 'NONE', *, *, #329, .T. ) ;
#279 = AXIS2_PLACEMENT_3D ( 'NONE', #259, #164, #394 ) ;
#280 = EDGE_CURVE ( 'NONE', #56, #51, #256, .T. ) ;
#281 = ADVANCED_FACE ( 'NONE', ( #115 ), #227, .T. ) ;
#282 = DIRECTION ( 'NONE',  ( 1.000000000000000000, 0.000000000000000000, 0.000000000000000000 ) ) ;
#283 = ORIENTED_EDGE ( 'NONE', *, *, #154, .T. ) ;
#284 = APPROVAL_DATE_TIME ( #357, #365 ) ;
#285 = ORIENTED_EDGE ( 'NONE', *, *, #116, .F. ) ;
#286 = AXIS2_PLACEMENT_3D ( 'NONE', #343, #203, #136 ) ;
#287 = CIRCLE ( 'NONE', #205, 16.00000000000000000 ) ;
#288 = CARTESIAN_POINT ( 'NONE',  ( 0.000000000000000000, 0.000000000000000000, -45.00000000000000000 ) ) ;
#289 = ORIENTED_EDGE ( 'NONE', *, *, #400, .T. ) ;
#290 = EDGE_LOOP ( 'NONE', ( #360, #308 ) ) ;
#291 = DIRECTION ( 'NONE',  ( 0.000000000000000000, 0.000000000000000000, -1.000000000000000000 ) ) ;
#292 = ORGANIZATION ( 'NEURÈENÝ', 'NEURÈENÝ', '' ) ;
#293 = APPLICATION_CONTEXT ( 'configuration controlled 3d designs of mechanical parts and assemblies' ) ;
#294 = DIRECTION ( 'NONE',  ( -1.000000000000000000, -1.224646799147349509E-16, 0.000000000000000000 ) ) ;
#295 = AXIS2_PLACEMENT_3D ( 'NONE', #97, #104, #186 ) ;
#296 = CARTESIAN_POINT ( 'NONE',  ( 16.00000000000000000, 0.000000000000000000, 0.000000000000000000 ) ) ;
#297 = CLOSED_SHELL ( 'NONE', ( #281, #68, #113, #249, #251, #374, #317, #242, #340, #223, #264, #271, #127 ) ) ;
#298 = CARTESIAN_POINT ( 'NONE',  ( 0.000000000000000000, 0.000000000000000000, 0.000000000000000000 ) ) ;
#299 = AXIS2_PLACEMENT_3D ( 'NONE', #172, #307, #401 ) ;
#300 = APPROVAL_DATE_TIME ( #265, #12 ) ;
#301 = CARTESIAN_POINT ( 'NONE',  ( 0.000000000000000000, 0.000000000000000000, -7.500000000000000000 ) ) ;
#302 = DIRECTION ( 'NONE',  ( 1.000000000000000000, 0.000000000000000000, 0.000000000000000000 ) ) ;
#303 = DIRECTION ( 'NONE',  ( -0.000000000000000000, -0.000000000000000000, 1.000000000000000000 ) ) ;
#304 = PRODUCT_DEFINITION_SHAPE ( 'NONE', 'NONE',  #137 ) ;
#305 = ORIENTED_EDGE ( 'NONE', *, *, #25, .T. ) ;
#306 = CIRCLE ( 'NONE', #128, 18.50000000000000000 ) ;
#307 = DIRECTION ( 'NONE',  ( 0.000000000000000000, 0.000000000000000000, -1.000000000000000000 ) ) ;
#308 = ORIENTED_EDGE ( 'NONE', *, *, #400, .F. ) ;
#309 = FACE_OUTER_BOUND ( 'NONE', #290, .T. ) ;
#310 = DIRECTION ( 'NONE',  ( -0.000000000000000000, -0.000000000000000000, 1.000000000000000000 ) ) ;
#311 = EDGE_LOOP ( 'NONE', ( #152, #384, #305, #207 ) ) ;
#312 = COORDINATED_UNIVERSAL_TIME_OFFSET ( 1, 0, .AHEAD. ) ;
#313 = ORIENTED_EDGE ( 'NONE', *, *, #201, .T. ) ;
#314 = COORDINATED_UNIVERSAL_TIME_OFFSET ( 1, 0, .AHEAD. ) ;
#315 = VERTEX_POINT ( 'NONE', #23 ) ;
#316 = CARTESIAN_POINT ( 'NONE',  ( 0.000000000000000000, 0.000000000000000000, 0.000000000000000000 ) ) ;
#317 = ADVANCED_FACE ( 'NONE', ( #235 ), #202, .T. ) ;
#318 = CARTESIAN_POINT ( 'NONE',  ( 18.50000000000000000, 0.000000000000000000, -6.999999999999999112 ) ) ;
#319 = DIRECTION ( 'NONE',  ( 0.000000000000000000, 0.000000000000000000, 1.000000000000000000 ) ) ;
#320 = DIRECTION ( 'NONE',  ( 1.000000000000000000, 0.000000000000000000, 0.000000000000000000 ) ) ;
#321 = PRODUCT ( '0183', '0183', '', ( #176 ) ) ;
#322 = EDGE_CURVE ( 'NONE', #200, #35, #332, .T. ) ;
#323 = ORIENTED_EDGE ( 'NONE', *, *, #386, .T. ) ;
#324 = TOROIDAL_SURFACE ( 'NONE', #339, 16.00000000000000000, 0.5000000000000000000 ) ;
#325 = DIRECTION ( 'NONE',  ( 0.7071067811865500152, 8.659560562354962440E-17, -0.7071067811865451302 ) ) ;
#326 = EDGE_CURVE ( 'NONE', #77, #56, #406, .T. ) ;
#327 = DIRECTION ( 'NONE',  ( 1.000000000000000000, 0.000000000000000000, 0.000000000000000000 ) ) ;
#328 = EDGE_CURVE ( 'NONE', #254, #200, #143, .T. ) ;
#329 = EDGE_CURVE ( 'NONE', #6, #254, #306, .T. ) ;
#330 = LINE ( 'NONE', #367, #402 ) ;
#331 = LINE ( 'NONE', #296, #199 ) ;
#332 = CIRCLE ( 'NONE', #52, 18.50000000000000000 ) ;
#333 = CARTESIAN_POINT ( 'NONE',  ( -18.00000000000001066, 0.000000000000000000, 0.000000000000000000 ) ) ;
#334 = DIRECTION ( 'NONE',  ( -0.000000000000000000, -0.000000000000000000, 1.000000000000000000 ) ) ;
#335 = VERTEX_POINT ( 'NONE', #50 ) ;
#336 = APPROVAL ( #85, 'NEURÈENÝ' ) ;
#337 = CIRCLE ( 'NONE', #133, 18.50000000000000000 ) ;
#338 = DIRECTION ( 'NONE',  ( 0.000000000000000000, -0.000000000000000000, 1.000000000000000000 ) ) ;
#339 = AXIS2_PLACEMENT_3D ( 'NONE', #74, #9, #361 ) ;
#340 = ADVANCED_FACE ( 'NONE', ( #22, #405 ), #141, .T. ) ;
#341 = PRODUCT_DEFINITION_FORMATION_WITH_SPECIFIED_SOURCE ( 'LIBOVOLNÝ', '', #321, .NOT_KNOWN. ) ;
#342 = CARTESIAN_POINT ( 'NONE',  ( -16.00000000000000000, 1.959434878635765131E-15, -7.500000000000000000 ) ) ;
#343 = CARTESIAN_POINT ( 'NONE',  ( 0.000000000000000000, 0.000000000000000000, 0.000000000000000000 ) ) ;
#344 = ORIENTED_EDGE ( 'NONE', *, *, #370, .F. ) ;
#345 = DIRECTION ( 'NONE',  ( -0.000000000000000000, -0.000000000000000000, 1.000000000000000000 ) ) ;
#346 = AXIS2_PLACEMENT_3D ( 'NONE', #301, #362, #222 ) ;
#347 = EDGE_LOOP ( 'NONE', ( #58, #289, #409, #5 ) ) ;
#348 = PERSON_AND_ORGANIZATION ( #160, #292 ) ;
#349 = CARTESIAN_POINT ( 'NONE',  ( 16.00000000000000000, 0.000000000000000000, -7.500000000000000000 ) ) ;
#350 = PERSON_AND_ORGANIZATION_ROLE ( 'design_supplier' ) ;
#351 = CARTESIAN_POINT ( 'NONE',  ( 18.50000000000000000, 0.000000000000000000, 0.000000000000000000 ) ) ;
#352 = CIRCLE ( 'NONE', #279, 15.50000000000000000 ) ;
#353 = AXIS2_PLACEMENT_3D ( 'NONE', #45, #161, #363 ) ;
#354 = PERSON_AND_ORGANIZATION ( #160, #292 ) ;
#355 = CARTESIAN_POINT ( 'NONE',  ( 18.50000000000000000, 0.000000000000000000, -0.4999999999999865663 ) ) ;
#356 = CIRCLE ( 'NONE', #275, 0.5000000000000004441 ) ;
#357 = DATE_AND_TIME ( #29, #114 ) ;
#358 = ORIENTED_EDGE ( 'NONE', *, *, #322, .F. ) ;
#359 = LOCAL_TIME ( 20, 16, 33.00000000000000000, #314 ) ;
#360 = ORIENTED_EDGE ( 'NONE', *, *, #208, .F. ) ;
#361 = DIRECTION ( 'NONE',  ( 1.000000000000000000, 0.000000000000000000, 0.000000000000000000 ) ) ;
#362 = DIRECTION ( 'NONE',  ( -0.000000000000000000, -0.000000000000000000, 1.000000000000000000 ) ) ;
#363 = DIRECTION ( 'NONE',  ( 1.000000000000000000, 0.000000000000000000, 0.000000000000000000 ) ) ;
#364 = AXIS2_PLACEMENT_3D ( 'NONE', #130, #134, #266 ) ;
#365 = APPROVAL ( #57, 'NEURÈENÝ' ) ;
#366 = DIRECTION ( 'NONE',  ( -1.224646799147353207E-16, 1.000000000000000000, 0.000000000000000000 ) ) ;
#367 = CARTESIAN_POINT ( 'NONE',  ( 18.00000000000001066, 2.204364238465237006E-15, 0.000000000000000000 ) ) ;
#368 = AXIS2_PLACEMENT_3D ( 'NONE', #107, #403, #105 ) ;
#369 = DIRECTION ( 'NONE',  ( -1.000000000000000000, 0.000000000000000000, -0.000000000000000000 ) ) ;
#370 = EDGE_CURVE ( 'NONE', #184, #200, #233, .T. ) ;
#371 = CARTESIAN_POINT ( 'NONE',  ( 0.000000000000000000, 0.000000000000000000, -8.000000000000000000 ) ) ;
#372 = CARTESIAN_POINT ( 'NONE',  ( -18.50000000000000000, 2.265596578422603396E-15, -6.999999999999999112 ) ) ;
#373 = AXIS2_PLACEMENT_3D ( 'NONE', #387, #177, #4 ) ;
#374 = ADVANCED_FACE ( 'NONE', ( #309 ), #142, .T. ) ;
#375 = EDGE_LOOP ( 'NONE', ( #377, #24, #358, #344 ) ) ;
#376 = CARTESIAN_POINT ( 'NONE',  ( -18.00000000000001066, 0.000000000000000000, 0.000000000000000000 ) ) ;
#377 = ORIENTED_EDGE ( 'NONE', *, *, #397, .F. ) ;
#378 = CC_DESIGN_DATE_AND_TIME_ASSIGNMENT ( #146, #277, ( #137 ) ) ;
#379 = CARTESIAN_POINT ( 'NONE',  ( -18.50000000000000000, 2.265596578422603396E-15, 0.000000000000000000 ) ) ;
#380 = ORIENTED_EDGE ( 'NONE', *, *, #326, .T. ) ;
#381 = CIRCLE ( 'NONE', #87, 16.00000000000000000 ) ;
#382 = APPLICATION_PROTOCOL_DEFINITION ( 'international standard', 'config_control_design', 1994, #241 ) ;
#383 = LOCAL_TIME ( 20, 16, 33.00000000000000000, #243 ) ;
#384 = ORIENTED_EDGE ( 'NONE', *, *, #13, .T. ) ;
#385 = PERSON_AND_ORGANIZATION_ROLE ( 'classification_officer' ) ;
#386 = EDGE_CURVE ( 'NONE', #66, #56, #81, .T. ) ;
#387 = CARTESIAN_POINT ( 'NONE',  ( 0.000000000000000000, 0.000000000000000000, 0.000000000000000000 ) ) ;
#388 = ORIENTED_EDGE ( 'NONE', *, *, #171, .T. ) ;
#389 = PERSON_AND_ORGANIZATION ( #160, #292 ) ;
#390 = ORIENTED_EDGE ( 'NONE', *, *, #16, .F. ) ;
#391 = CARTESIAN_POINT ( 'NONE',  ( 0.000000000000000000, 0.000000000000000000, -8.000000000000000000 ) ) ;
#392 = DIRECTION ( 'NONE',  ( -0.000000000000000000, -0.000000000000000000, 1.000000000000000000 ) ) ;
#393 = COORDINATED_UNIVERSAL_TIME_OFFSET ( 1, 0, .AHEAD. ) ;
#394 = DIRECTION ( 'NONE',  ( 1.000000000000000000, 0.000000000000000000, 0.000000000000000000 ) ) ;
#395 = CARTESIAN_POINT ( 'NONE',  ( 0.000000000000000000, 0.000000000000000000, -6.999999999999999112 ) ) ;
#396 = CYLINDRICAL_SURFACE ( 'NONE', #54, 16.00000000000000000 ) ;
#397 = EDGE_CURVE ( 'NONE', #270, #184, #220, .T. ) ;
#398 = DIRECTION ( 'NONE',  ( -0.000000000000000000, -0.000000000000000000, 1.000000000000000000 ) ) ;
#399 = TOROIDAL_SURFACE ( 'NONE', #299, 16.00000000000000000, 0.5000000000000000000 ) ;
#400 = EDGE_CURVE ( 'NONE', #66, #62, #381, .T. ) ;
#401 = DIRECTION ( 'NONE',  ( -1.000000000000000000, 0.000000000000000000, 0.000000000000000000 ) ) ;
#402 = VECTOR ( 'NONE', #325, 1000.000000000000114 ) ;
#403 = DIRECTION ( 'NONE',  ( 0.000000000000000000, 0.000000000000000000, -1.000000000000000000 ) ) ;
#404 = EDGE_LOOP ( 'NONE', ( #32, #323, #253, #139 ) ) ;
#405 = FACE_OUTER_BOUND ( 'NONE', #185, .T. ) ;
#406 = CIRCLE ( 'NONE', #39, 0.5000000000000004441 ) ;
#407 = CARTESIAN_POINT ( 'NONE',  ( 0.000000000000000000, 0.000000000000000000, -0.4999999999999865663 ) ) ;
#408 = PERSON_AND_ORGANIZATION ( #160, #292 ) ;
#409 = ORIENTED_EDGE ( 'NONE', *, *, #193, .T. ) ;
ENDSEC;
END-ISO-10303-21;
