ISO-10303-21;
HEADER;
FILE_DESCRIPTION (( 'STEP AP203' ),
    '1' );
FILE_NAME ('0f0b.STEP',
    '2022-06-20T09:16:28',
    ( '' ),
    ( '' ),
    'SwSTEP 2.0',
    'SolidWorks 2019',
    '' );
FILE_SCHEMA (( 'CONFIG_CONTROL_DESIGN' ));
ENDSEC;

DATA;
#1 = CC_DESIGN_APPROVAL ( #238, ( #303 ) ) ;
#2 = PERSON_AND_ORGANIZATION ( #93, #173 ) ;
#3 = ORIENTED_EDGE ( 'NONE', *, *, #90, .F. ) ;
#4 =( NAMED_UNIT ( * ) SI_UNIT ( $, .STERADIAN. ) SOLID_ANGLE_UNIT ( ) );
#5 = CARTESIAN_POINT ( 'NONE',  ( 0.000000000000000000, 0.000000000000000000, 10.00000000000000000 ) ) ;
#6 = PLANE ( 'NONE',  #291 ) ;
#7 = CALENDAR_DATE ( 2022, 20, 6 ) ;
#8 = APPROVAL ( #147, 'NEURÈENÝ' ) ;
#9 = CARTESIAN_POINT ( 'NONE',  ( -16.00000000000000000, 0.000000000000000000, 10.19999999999998685 ) ) ;
#10 = ORIENTED_EDGE ( 'NONE', *, *, #209, .F. ) ;
#11 = VERTEX_POINT ( 'NONE', #9 ) ;
#12 = VERTEX_POINT ( 'NONE', #163 ) ;
#13 = ADVANCED_FACE ( 'NONE', ( #267 ), #120, .T. ) ;
#14 = ORIENTED_EDGE ( 'NONE', *, *, #282, .F. ) ;
#15 = DIRECTION ( 'NONE',  ( 0.000000000000000000, 0.000000000000000000, 1.000000000000000000 ) ) ;
#16 = CC_DESIGN_PERSON_AND_ORGANIZATION_ASSIGNMENT ( #2, #97, ( #303 ) ) ;
#17 = CARTESIAN_POINT ( 'NONE',  ( 0.000000000000000000, 0.000000000000000000, 260.0000000000000000 ) ) ;
#18 = CARTESIAN_POINT ( 'NONE',  ( 20.00000000000000000, 2.449293598294706513E-15, 0.000000000000000000 ) ) ;
#19 = DIRECTION ( 'NONE',  ( -0.000000000000000000, -0.000000000000000000, -1.000000000000000000 ) ) ;
#20 = DIRECTION ( 'NONE',  ( 0.000000000000000000, 0.000000000000000000, 1.000000000000000000 ) ) ;
#21 = DIRECTION ( 'NONE',  ( 0.000000000000000000, 0.000000000000000000, 1.000000000000000000 ) ) ;
#22 = ORIENTED_EDGE ( 'NONE', *, *, #222, .T. ) ;
#23 = CC_DESIGN_APPROVAL ( #8, ( #201 ) ) ;
#24 = DIRECTION ( 'NONE',  ( 1.000000000000000000, 0.000000000000000000, -0.000000000000000000 ) ) ;
#25 =( NAMED_UNIT ( * ) PLANE_ANGLE_UNIT ( ) SI_UNIT ( $, .RADIAN. ) );
#26 = AXIS2_PLACEMENT_3D ( 'NONE', #112, #133, #44 ) ;
#27 = APPLICATION_PROTOCOL_DEFINITION ( 'international standard', 'config_control_design', 1994, #293 ) ;
#28 = UNCERTAINTY_MEASURE_WITH_UNIT (LENGTH_MEASURE( 1.000000000000000082E-05 ), #253, 'distance_accuracy_value', 'NONE');
#29 = APPLICATION_CONTEXT ( 'configuration controlled 3d designs of mechanical parts and assemblies' ) ;
#30 = ORIENTED_EDGE ( 'NONE', *, *, #72, .T. ) ;
#31 = ADVANCED_FACE ( 'NONE', ( #184 ), #79, .T. ) ;
#32 = PERSON_AND_ORGANIZATION_ROLE ( 'design_supplier' ) ;
#33 = ORIENTED_EDGE ( 'NONE', *, *, #47, .F. ) ;
#34 = EDGE_LOOP ( 'NONE', ( #298, #187 ) ) ;
#35 = AXIS2_PLACEMENT_3D ( 'NONE', #244, #20, #300 ) ;
#36 = VERTEX_POINT ( 'NONE', #151 ) ;
#37 = CC_DESIGN_PERSON_AND_ORGANIZATION_ASSIGNMENT ( #85, #32, ( #201 ) ) ;
#38 = VERTEX_POINT ( 'NONE', #69 ) ;
#39 = VECTOR ( 'NONE', #46, 1000.000000000000000 ) ;
#40 = DIRECTION ( 'NONE',  ( -1.000000000000000000, 0.000000000000000000, 0.000000000000000000 ) ) ;
#41 = VECTOR ( 'NONE', #277, 1000.000000000000000 ) ;
#42 = DIRECTION ( 'NONE',  ( 0.000000000000000000, 0.000000000000000000, 1.000000000000000000 ) ) ;
#43 = DIRECTION ( 'NONE',  ( 1.000000000000000000, 0.000000000000000000, 0.000000000000000000 ) ) ;
#44 = DIRECTION ( 'NONE',  ( 1.000000000000000000, 0.000000000000000000, 0.000000000000000000 ) ) ;
#45 = APPROVAL_PERSON_ORGANIZATION ( #51, #238, #286 ) ;
#46 = DIRECTION ( 'NONE',  ( -0.000000000000000000, -0.000000000000000000, -1.000000000000000000 ) ) ;
#47 = EDGE_CURVE ( 'NONE', #11, #295, #206, .T. ) ;
#48 = DIRECTION ( 'NONE',  ( 1.000000000000000000, 0.000000000000000000, 0.000000000000000000 ) ) ;
#49 = PRODUCT_DEFINITION_SHAPE ( 'NONE', 'NONE',  #303 ) ;
#50 = EDGE_CURVE ( 'NONE', #292, #254, #307, .T. ) ;
#51 = PERSON_AND_ORGANIZATION ( #93, #173 ) ;
#52 = APPROVAL_PERSON_ORGANIZATION ( #56, #290, #237 ) ;
#53 = FACE_OUTER_BOUND ( 'NONE', #217, .T. ) ;
#54 = AXIS2_PLACEMENT_3D ( 'NONE', #61, #127, #221 ) ;
#55 = ORIENTED_EDGE ( 'NONE', *, *, #50, .T. ) ;
#56 = PERSON_AND_ORGANIZATION ( #93, #173 ) ;
#57 = CALENDAR_DATE ( 2022, 20, 6 ) ;
#58 = CARTESIAN_POINT ( 'NONE',  ( 0.000000000000000000, 0.000000000000000000, 10.00000000000000000 ) ) ;
#59 = EDGE_LOOP ( 'NONE', ( #55, #140 ) ) ;
#60 = CALENDAR_DATE ( 2022, 20, 6 ) ;
#61 = CARTESIAN_POINT ( 'NONE',  ( 0.000000000000000000, 0.000000000000000000, 10.19999999999998685 ) ) ;
#62 = AXIS2_PLACEMENT_3D ( 'NONE', #302, #15, #155 ) ;
#63 = CARTESIAN_POINT ( 'NONE',  ( 0.000000000000000000, 0.000000000000000000, 260.0000000000000000 ) ) ;
#64 = LOCAL_TIME ( 11, 16, 28.00000000000000000, #165 ) ;
#65 = DIRECTION ( 'NONE',  ( 0.000000000000000000, 0.000000000000000000, 1.000000000000000000 ) ) ;
#66 = CYLINDRICAL_SURFACE ( 'NONE', #117, 20.00000000000000000 ) ;
#67 = CIRCLE ( 'NONE', #84, 16.19999999999999929 ) ;
#68 = EDGE_CURVE ( 'NONE', #218, #36, #67, .T. ) ;
#69 = CARTESIAN_POINT ( 'NONE',  ( -16.00000000000000000, 0.000000000000000000, 260.0000000000000000 ) ) ;
#70 = APPLICATION_PROTOCOL_DEFINITION ( 'international standard', 'config_control_design', 1994, #29 ) ;
#71 = CARTESIAN_POINT ( 'NONE',  ( 0.000000000000000000, 0.000000000000000000, 260.0000000000000000 ) ) ;
#72 = EDGE_CURVE ( 'NONE', #38, #11, #91, .T. ) ;
#73 = DIRECTION ( 'NONE',  ( 0.000000000000000000, 0.000000000000000000, 1.000000000000000000 ) ) ;
#74 = EDGE_LOOP ( 'NONE', ( #125, #80, #158, #10 ) ) ;
#75 = DIRECTION ( 'NONE',  ( 1.000000000000000000, 0.000000000000000000, 0.000000000000000000 ) ) ;
#76 = APPROVAL_STATUS ( 'not_yet_approved' ) ;
#77 = ORIENTED_EDGE ( 'NONE', *, *, #282, .T. ) ;
#78 = AXIS2_PLACEMENT_3D ( 'NONE', #175, #42, #113 ) ;
#79 = CYLINDRICAL_SURFACE ( 'NONE', #285, 16.00000000000000000 ) ;
#80 = ORIENTED_EDGE ( 'NONE', *, *, #215, .T. ) ;
#81 = PRODUCT_RELATED_PRODUCT_CATEGORY ( 'detail', '', ( #248 ) ) ;
#82 = COORDINATED_UNIVERSAL_TIME_OFFSET ( 1, 0, .AHEAD. ) ;
#83 = ORIENTED_EDGE ( 'NONE', *, *, #50, .F. ) ;
#84 = AXIS2_PLACEMENT_3D ( 'NONE', #95, #252, #43 ) ;
#85 = PERSON_AND_ORGANIZATION ( #93, #173 ) ;
#86 = ORIENTED_EDGE ( 'NONE', *, *, #139, .F. ) ;
#87 = AXIS2_PLACEMENT_3D ( 'NONE', #227, #21, #75 ) ;
#88 = CARTESIAN_POINT ( 'NONE',  ( -20.00000000000000000, 0.000000000000000000, 0.000000000000000000 ) ) ;
#89 = CARTESIAN_POINT ( 'NONE',  ( 0.000000000000000000, 0.000000000000000000, 10.00000000000000000 ) ) ;
#90 = EDGE_CURVE ( 'NONE', #295, #11, #296, .T. ) ;
#91 = LINE ( 'NONE', #305, #251 ) ;
#92 = CIRCLE ( 'NONE', #268, 16.19999999999999929 ) ;
#93 = PERSON ( 'NEURÈENÝ', 'NEURÈENÝ', 'NEURÈENÝ', ('NEURÈENÝ'), ('NEURÈENÝ'), ('NEURÈENÝ') ) ;
#94 = LINE ( 'NONE', #174, #41 ) ;
#95 = CARTESIAN_POINT ( 'NONE',  ( 0.000000000000000000, 0.000000000000000000, 10.00000000000000000 ) ) ;
#96 = AXIS2_PLACEMENT_3D ( 'NONE', #246, #65, #301 ) ;
#97 = PERSON_AND_ORGANIZATION_ROLE ( 'creator' ) ;
#98 = DIRECTION ( 'NONE',  ( 0.000000000000000000, 0.000000000000000000, -1.000000000000000000 ) ) ;
#99 = AXIS2_PLACEMENT_3D ( 'NONE', #58, #211, #103 ) ;
#100 = CARTESIAN_POINT ( 'NONE',  ( 16.19999999999999929, 0.000000000000000000, 10.19999999999998685 ) ) ;
#101 = CC_DESIGN_DATE_AND_TIME_ASSIGNMENT ( #141, #294, ( #185 ) ) ;
#102 = COORDINATED_UNIVERSAL_TIME_OFFSET ( 1, 0, .AHEAD. ) ;
#103 = DIRECTION ( 'NONE',  ( -1.000000000000000000, 0.000000000000000000, 0.000000000000000000 ) ) ;
#104 = CIRCLE ( 'NONE', #279, 0.1999999999999987899 ) ;
#105 = ORIENTED_EDGE ( 'NONE', *, *, #119, .T. ) ;
#106 = EDGE_CURVE ( 'NONE', #12, #295, #132, .T. ) ;
#107 = APPROVAL_ROLE ( '' ) ;
#108 = ORIENTED_EDGE ( 'NONE', *, *, #233, .F. ) ;
#109 = ORIENTED_EDGE ( 'NONE', *, *, #90, .T. ) ;
#110 = ORIENTED_EDGE ( 'NONE', *, *, #68, .F. ) ;
#111 = CIRCLE ( 'NONE', #259, 20.00000000000000000 ) ;
#112 = CARTESIAN_POINT ( 'NONE',  ( 0.000000000000000000, 0.000000000000000000, 10.19999999999998685 ) ) ;
#113 = DIRECTION ( 'NONE',  ( 1.000000000000000000, 0.000000000000000000, 0.000000000000000000 ) ) ;
#114 = CARTESIAN_POINT ( 'NONE',  ( -16.19999999999999929, 1.983927814618711846E-15, 9.999999999999992895 ) ) ;
#115 = CARTESIAN_POINT ( 'NONE',  ( 16.00000000000000000, 1.959434878635765131E-15, 260.0000000000000000 ) ) ;
#116 = MECHANICAL_CONTEXT ( 'NONE', #29, 'mechanical' ) ;
#117 = AXIS2_PLACEMENT_3D ( 'NONE', #89, #273, #247 ) ;
#118 = COORDINATED_UNIVERSAL_TIME_OFFSET ( 1, 0, .AHEAD. ) ;
#119 = EDGE_CURVE ( 'NONE', #11, #218, #104, .T. ) ;
#120 = CYLINDRICAL_SURFACE ( 'NONE', #99, 20.00000000000000000 ) ;
#121 = EDGE_CURVE ( 'NONE', #254, #292, #198, .T. ) ;
#122 = ORIENTED_EDGE ( 'NONE', *, *, #68, .T. ) ;
#123 = DIRECTION ( 'NONE',  ( -1.000000000000000000, 0.000000000000000000, 0.000000000000000000 ) ) ;
#124 = LOCAL_TIME ( 11, 16, 28.00000000000000000, #82 ) ;
#125 = ORIENTED_EDGE ( 'NONE', *, *, #121, .F. ) ;
#126 = ORIENTED_EDGE ( 'NONE', *, *, #106, .F. ) ;
#127 = DIRECTION ( 'NONE',  ( 0.000000000000000000, 0.000000000000000000, 1.000000000000000000 ) ) ;
#128 = CIRCLE ( 'NONE', #224, 20.00000000000000000 ) ;
#129 = FACE_OUTER_BOUND ( 'NONE', #148, .T. ) ;
#130 = CC_DESIGN_DATE_AND_TIME_ASSIGNMENT ( #216, #210, ( #303 ) ) ;
#131 = DIRECTION ( 'NONE',  ( 1.000000000000000000, 0.000000000000000000, 0.000000000000000000 ) ) ;
#132 = LINE ( 'NONE', #115, #39 ) ;
#133 = DIRECTION ( 'NONE',  ( 0.000000000000000000, 0.000000000000000000, 1.000000000000000000 ) ) ;
#134 = PLANE ( 'NONE',  #145 ) ;
#135 = ADVANCED_FACE ( 'NONE', ( #193 ), #272, .F. ) ;
#136 = CARTESIAN_POINT ( 'NONE',  ( 16.00000000000000000, 1.959434878635765131E-15, 10.19999999999998685 ) ) ;
#137 = AXIS2_PLACEMENT_3D ( 'NONE', #5, #156, #231 ) ;
#138 = CARTESIAN_POINT ( 'NONE',  ( 0.000000000000000000, 0.000000000000000000, 0.000000000000000000 ) ) ;
#139 = EDGE_CURVE ( 'NONE', #12, #38, #274, .T. ) ;
#140 = ORIENTED_EDGE ( 'NONE', *, *, #121, .T. ) ;
#141 = DATE_AND_TIME ( #143, #64 ) ;
#142 = VERTEX_POINT ( 'NONE', #88 ) ;
#143 = CALENDAR_DATE ( 2022, 20, 6 ) ;
#144 = PERSON_AND_ORGANIZATION_ROLE ( 'classification_officer' ) ;
#145 = AXIS2_PLACEMENT_3D ( 'NONE', #71, #73, #24 ) ;
#146 = EDGE_LOOP ( 'NONE', ( #33, #105, #200, #14 ) ) ;
#147 = APPROVAL_STATUS ( 'not_yet_approved' ) ;
#148 = EDGE_LOOP ( 'NONE', ( #164, #3, #77, #110 ) ) ;
#149 = ADVANCED_FACE ( 'NONE', ( #129 ), #208, .F. ) ;
#150 = CYLINDRICAL_SURFACE ( 'NONE', #240, 16.00000000000000000 ) ;
#151 = CARTESIAN_POINT ( 'NONE',  ( 16.19999999999999929, 0.000000000000000000, 9.999999999999992895 ) ) ;
#152 = LOCAL_TIME ( 11, 16, 28.00000000000000000, #297 ) ;
#153 = CARTESIAN_POINT ( 'NONE',  ( 0.000000000000000000, 0.000000000000000000, 0.000000000000000000 ) ) ;
#154 = LINE ( 'NONE', #250, #280 ) ;
#155 = DIRECTION ( 'NONE',  ( 1.000000000000000000, 0.000000000000000000, 0.000000000000000000 ) ) ;
#156 = DIRECTION ( 'NONE',  ( 0.000000000000000000, 0.000000000000000000, 1.000000000000000000 ) ) ;
#157 = PERSON_AND_ORGANIZATION ( #93, #173 ) ;
#158 = ORIENTED_EDGE ( 'NONE', *, *, #167, .T. ) ;
#159 = DIRECTION ( 'NONE',  ( 1.000000000000000000, 0.000000000000000000, 0.000000000000000000 ) ) ;
#160 = EDGE_LOOP ( 'NONE', ( #22, #122 ) ) ;
#161 = LOCAL_TIME ( 11, 16, 28.00000000000000000, #102 ) ;
#162 = CARTESIAN_POINT ( 'NONE',  ( 0.000000000000000000, 0.000000000000000000, 260.0000000000000000 ) ) ;
#163 = CARTESIAN_POINT ( 'NONE',  ( 16.00000000000000000, 1.959434878635765131E-15, 260.0000000000000000 ) ) ;
#164 = ORIENTED_EDGE ( 'NONE', *, *, #119, .F. ) ;
#165 = COORDINATED_UNIVERSAL_TIME_OFFSET ( 1, 0, .AHEAD. ) ;
#166 =( GEOMETRIC_REPRESENTATION_CONTEXT ( 3 ) GLOBAL_UNCERTAINTY_ASSIGNED_CONTEXT ( ( #28 ) ) GLOBAL_UNIT_ASSIGNED_CONTEXT ( ( #253, #25, #4 ) ) REPRESENTATION_CONTEXT ( 'NONE', 'WORKASPACE' ) );
#167 = EDGE_CURVE ( 'NONE', #191, #142, #111, .T. ) ;
#168 = ORIENTED_EDGE ( 'NONE', *, *, #204, .F. ) ;
#169 = DIRECTION ( 'NONE',  ( 0.000000000000000000, 0.000000000000000000, 1.000000000000000000 ) ) ;
#170 = DIRECTION ( 'NONE',  ( 1.224646799147353207E-16, 1.000000000000000000, -0.000000000000000000 ) ) ;
#171 = ADVANCED_FACE ( 'NONE', ( #223 ), #150, .T. ) ;
#172 = DIRECTION ( 'NONE',  ( -0.000000000000000000, -0.000000000000000000, -1.000000000000000000 ) ) ;
#173 = ORGANIZATION ( 'NEURÈENÝ', 'NEURÈENÝ', '' ) ;
#174 = CARTESIAN_POINT ( 'NONE',  ( -20.00000000000000000, 0.000000000000000000, 10.00000000000000000 ) ) ;
#175 = CARTESIAN_POINT ( 'NONE',  ( 0.000000000000000000, 0.000000000000000000, 10.00000000000000000 ) ) ;
#176 = DATE_AND_TIME ( #229, #263 ) ;
#177 = CIRCLE ( 'NONE', #181, 0.2000000000000005107 ) ;
#178 = FACE_OUTER_BOUND ( 'NONE', #34, .T. ) ;
#179 = PERSON_AND_ORGANIZATION_ROLE ( 'design_owner' ) ;
#180 = ADVANCED_FACE ( 'NONE', ( #195 ), #66, .T. ) ;
#181 = AXIS2_PLACEMENT_3D ( 'NONE', #100, #283, #98 ) ;
#182 = CARTESIAN_POINT ( 'NONE',  ( -20.00000000000000000, 0.000000000000000000, 10.00000000000000000 ) ) ;
#183 = PERSON_AND_ORGANIZATION ( #93, #173 ) ;
#184 = FACE_OUTER_BOUND ( 'NONE', #236, .T. ) ;
#185 = SECURITY_CLASSIFICATION ( '', '', #264 ) ;
#186 = DATE_AND_TIME ( #60, #152 ) ;
#187 = ORIENTED_EDGE ( 'NONE', *, *, #139, .T. ) ;
#188 = PERSON_AND_ORGANIZATION ( #93, #173 ) ;
#189 = ORIENTED_EDGE ( 'NONE', *, *, #47, .T. ) ;
#190 = ORIENTED_EDGE ( 'NONE', *, *, #209, .T. ) ;
#191 = VERTEX_POINT ( 'NONE', #18 ) ;
#192 = DIRECTION ( 'NONE',  ( 1.000000000000000000, 0.000000000000000000, 0.000000000000000000 ) ) ;
#193 = FACE_OUTER_BOUND ( 'NONE', #146, .T. ) ;
#194 = DIRECTION ( 'NONE',  ( 0.000000000000000000, 0.000000000000000000, 1.000000000000000000 ) ) ;
#195 = FACE_OUTER_BOUND ( 'NONE', #289, .T. ) ;
#196 = CC_DESIGN_PERSON_AND_ORGANIZATION_ASSIGNMENT ( #183, #144, ( #185 ) ) ;
#197 = DIRECTION ( 'NONE',  ( 1.000000000000000000, 0.000000000000000000, -0.000000000000000000 ) ) ;
#198 = CIRCLE ( 'NONE', #78, 20.00000000000000000 ) ;
#199 = APPROVAL_DATE_TIME ( #176, #238 ) ;
#200 = ORIENTED_EDGE ( 'NONE', *, *, #222, .F. ) ;
#201 = PRODUCT_DEFINITION_FORMATION_WITH_SPECIFIED_SOURCE ( 'LIBOVOLNÝ', '', #248, .NOT_KNOWN. ) ;
#202 = CC_DESIGN_APPROVAL ( #290, ( #185 ) ) ;
#203 = DIRECTION ( 'NONE',  ( 0.000000000000000000, 0.000000000000000000, 1.000000000000000000 ) ) ;
#204 = EDGE_CURVE ( 'NONE', #38, #12, #299, .T. ) ;
#205 = PLANE ( 'NONE',  #137 ) ;
#206 = CIRCLE ( 'NONE', #54, 16.00000000000000000 ) ;
#207 = CARTESIAN_POINT ( 'NONE',  ( 0.000000000000000000, 0.000000000000000000, 10.00000000000000000 ) ) ;
#208 = TOROIDAL_SURFACE ( 'NONE', #96, 16.19999999999999929, 0.2000000000000000111 ) ;
#209 = EDGE_CURVE ( 'NONE', #292, #142, #94, .T. ) ;
#210 = DATE_TIME_ROLE ( 'creation_date' ) ;
#211 = DIRECTION ( 'NONE',  ( -0.000000000000000000, -0.000000000000000000, -1.000000000000000000 ) ) ;
#212 = SHAPE_DEFINITION_REPRESENTATION ( #49, #284 ) ;
#213 = ORIENTED_EDGE ( 'NONE', *, *, #233, .T. ) ;
#214 = ORIENTED_EDGE ( 'NONE', *, *, #72, .F. ) ;
#215 = EDGE_CURVE ( 'NONE', #254, #191, #154, .T. ) ;
#216 = DATE_AND_TIME ( #57, #161 ) ;
#217 = EDGE_LOOP ( 'NONE', ( #108, #270 ) ) ;
#218 = VERTEX_POINT ( 'NONE', #114 ) ;
#219 = MANIFOLD_SOLID_BREP ( 'Zaoblit1', #257 ) ;
#220 = AXIS2_PLACEMENT_3D ( 'NONE', #63, #194, #304 ) ;
#221 = DIRECTION ( 'NONE',  ( 1.000000000000000000, 0.000000000000000000, 0.000000000000000000 ) ) ;
#222 = EDGE_CURVE ( 'NONE', #36, #218, #92, .T. ) ;
#223 = FACE_OUTER_BOUND ( 'NONE', #243, .T. ) ;
#224 = AXIS2_PLACEMENT_3D ( 'NONE', #138, #203, #48 ) ;
#225 = DIRECTION ( 'NONE',  ( 0.000000000000000000, 0.000000000000000000, 1.000000000000000000 ) ) ;
#226 = CARTESIAN_POINT ( 'NONE',  ( 0.000000000000000000, 0.000000000000000000, 260.0000000000000000 ) ) ;
#227 = CARTESIAN_POINT ( 'NONE',  ( 0.000000000000000000, 0.000000000000000000, 0.000000000000000000 ) ) ;
#228 = ADVANCED_FACE ( 'NONE', ( #306, #260 ), #205, .T. ) ;
#229 = CALENDAR_DATE ( 2022, 20, 6 ) ;
#230 = DIRECTION ( 'NONE',  ( 0.000000000000000000, 0.000000000000000000, 1.000000000000000000 ) ) ;
#231 = DIRECTION ( 'NONE',  ( 1.000000000000000000, 0.000000000000000000, -0.000000000000000000 ) ) ;
#232 = AXIS2_PLACEMENT_3D ( 'NONE', #226, #225, #131 ) ;
#233 = EDGE_CURVE ( 'NONE', #142, #191, #128, .T. ) ;
#234 = PERSON_AND_ORGANIZATION_ROLE ( 'creator' ) ;
#235 = DESIGN_CONTEXT ( 'detailed design', #293, 'design' ) ;
#236 = EDGE_LOOP ( 'NONE', ( #86, #241, #109, #214 ) ) ;
#237 = APPROVAL_ROLE ( '' ) ;
#238 = APPROVAL ( #258, 'NEURÈENÝ' ) ;
#239 = ORIENTED_EDGE ( 'NONE', *, *, #215, .F. ) ;
#240 = AXIS2_PLACEMENT_3D ( 'NONE', #17, #271, #40 ) ;
#241 = ORIENTED_EDGE ( 'NONE', *, *, #106, .T. ) ;
#242 = APPROVAL_DATE_TIME ( #288, #290 ) ;
#243 = EDGE_LOOP ( 'NONE', ( #126, #168, #30, #189 ) ) ;
#244 = CARTESIAN_POINT ( 'NONE',  ( 0.000000000000000000, 0.000000000000000000, 10.19999999999998685 ) ) ;
#245 = APPROVAL_PERSON_ORGANIZATION ( #269, #8, #107 ) ;
#246 = CARTESIAN_POINT ( 'NONE',  ( 0.000000000000000000, 0.000000000000000000, 10.19999999999998685 ) ) ;
#247 = DIRECTION ( 'NONE',  ( -1.000000000000000000, 0.000000000000000000, 0.000000000000000000 ) ) ;
#248 = PRODUCT ( '0f0b', '0f0b', '', ( #116 ) ) ;
#249 = ADVANCED_FACE ( 'NONE', ( #53 ), #6, .F. ) ;
#250 = CARTESIAN_POINT ( 'NONE',  ( 20.00000000000000000, 2.449293598294706513E-15, 10.00000000000000000 ) ) ;
#251 = VECTOR ( 'NONE', #172, 1000.000000000000000 ) ;
#252 = DIRECTION ( 'NONE',  ( -0.000000000000000000, -0.000000000000000000, -1.000000000000000000 ) ) ;
#253 =( LENGTH_UNIT ( ) NAMED_UNIT ( * ) SI_UNIT ( .MILLI., .METRE. ) );
#254 = VERTEX_POINT ( 'NONE', #261 ) ;
#255 = ADVANCED_FACE ( 'NONE', ( #178 ), #134, .T. ) ;
#256 = CARTESIAN_POINT ( 'NONE',  ( 0.000000000000000000, 0.000000000000000000, 0.000000000000000000 ) ) ;
#257 = CLOSED_SHELL ( 'NONE', ( #135, #31, #13, #180, #228, #249, #171, #255, #149 ) ) ;
#258 = APPROVAL_STATUS ( 'not_yet_approved' ) ;
#259 = AXIS2_PLACEMENT_3D ( 'NONE', #153, #169, #192 ) ;
#260 = FACE_OUTER_BOUND ( 'NONE', #59, .T. ) ;
#261 = CARTESIAN_POINT ( 'NONE',  ( 20.00000000000000000, 2.449293598294706513E-15, 10.00000000000000000 ) ) ;
#262 = CC_DESIGN_PERSON_AND_ORGANIZATION_ASSIGNMENT ( #188, #234, ( #201 ) ) ;
#263 = LOCAL_TIME ( 11, 16, 28.00000000000000000, #118 ) ;
#264 = SECURITY_CLASSIFICATION_LEVEL ( 'unclassified' ) ;
#265 = DIRECTION ( 'NONE',  ( -0.000000000000000000, -0.000000000000000000, -1.000000000000000000 ) ) ;
#266 = APPROVAL_DATE_TIME ( #186, #8 ) ;
#267 = FACE_OUTER_BOUND ( 'NONE', #74, .T. ) ;
#268 = AXIS2_PLACEMENT_3D ( 'NONE', #207, #281, #159 ) ;
#269 = PERSON_AND_ORGANIZATION ( #93, #173 ) ;
#270 = ORIENTED_EDGE ( 'NONE', *, *, #167, .F. ) ;
#271 = DIRECTION ( 'NONE',  ( -0.000000000000000000, -0.000000000000000000, -1.000000000000000000 ) ) ;
#272 = TOROIDAL_SURFACE ( 'NONE', #35, 16.19999999999999929, 0.2000000000000000111 ) ;
#273 = DIRECTION ( 'NONE',  ( -0.000000000000000000, -0.000000000000000000, -1.000000000000000000 ) ) ;
#274 = CIRCLE ( 'NONE', #232, 16.00000000000000000 ) ;
#275 = DIRECTION ( 'NONE',  ( -1.000000000000000000, 1.224646799147353947E-16, 0.000000000000000000 ) ) ;
#276 = CC_DESIGN_PERSON_AND_ORGANIZATION_ASSIGNMENT ( #157, #179, ( #248 ) ) ;
#277 = DIRECTION ( 'NONE',  ( -0.000000000000000000, -0.000000000000000000, -1.000000000000000000 ) ) ;
#278 = CARTESIAN_POINT ( 'NONE',  ( -16.19999999999999929, 1.983927814618711846E-15, 10.19999999999998685 ) ) ;
#279 = AXIS2_PLACEMENT_3D ( 'NONE', #278, #170, #275 ) ;
#280 = VECTOR ( 'NONE', #19, 1000.000000000000000 ) ;
#281 = DIRECTION ( 'NONE',  ( -0.000000000000000000, -0.000000000000000000, -1.000000000000000000 ) ) ;
#282 = EDGE_CURVE ( 'NONE', #295, #36, #177, .T. ) ;
#283 = DIRECTION ( 'NONE',  ( 0.000000000000000000, -1.000000000000000000, 0.000000000000000000 ) ) ;
#284 = ADVANCED_BREP_SHAPE_REPRESENTATION ( '0f0b', ( #219, #87 ), #166 ) ;
#285 = AXIS2_PLACEMENT_3D ( 'NONE', #162, #265, #123 ) ;
#286 = APPROVAL_ROLE ( '' ) ;
#287 = CC_DESIGN_SECURITY_CLASSIFICATION ( #185, ( #201 ) ) ;
#288 = DATE_AND_TIME ( #7, #124 ) ;
#289 = EDGE_LOOP ( 'NONE', ( #239, #83, #190, #213 ) ) ;
#290 = APPROVAL ( #76, 'NEURÈENÝ' ) ;
#291 = AXIS2_PLACEMENT_3D ( 'NONE', #256, #230, #197 ) ;
#292 = VERTEX_POINT ( 'NONE', #182 ) ;
#293 = APPLICATION_CONTEXT ( 'configuration controlled 3d designs of mechanical parts and assemblies' ) ;
#294 = DATE_TIME_ROLE ( 'classification_date' ) ;
#295 = VERTEX_POINT ( 'NONE', #136 ) ;
#296 = CIRCLE ( 'NONE', #26, 16.00000000000000000 ) ;
#297 = COORDINATED_UNIVERSAL_TIME_OFFSET ( 1, 0, .AHEAD. ) ;
#298 = ORIENTED_EDGE ( 'NONE', *, *, #204, .T. ) ;
#299 = CIRCLE ( 'NONE', #220, 16.00000000000000000 ) ;
#300 = DIRECTION ( 'NONE',  ( 1.000000000000000000, 0.000000000000000000, 0.000000000000000000 ) ) ;
#301 = DIRECTION ( 'NONE',  ( 1.000000000000000000, 0.000000000000000000, 0.000000000000000000 ) ) ;
#302 = CARTESIAN_POINT ( 'NONE',  ( 0.000000000000000000, 0.000000000000000000, 10.00000000000000000 ) ) ;
#303 = PRODUCT_DEFINITION ( 'NEZNÁMÝ', '', #201, #235 ) ;
#304 = DIRECTION ( 'NONE',  ( 1.000000000000000000, 0.000000000000000000, 0.000000000000000000 ) ) ;
#305 = CARTESIAN_POINT ( 'NONE',  ( -16.00000000000000000, 0.000000000000000000, 260.0000000000000000 ) ) ;
#306 = FACE_BOUND ( 'NONE', #160, .T. ) ;
#307 = CIRCLE ( 'NONE', #62, 20.00000000000000000 ) ;
ENDSEC;
END-ISO-10303-21;
