ISO-10303-21;
HEADER;
FILE_DESCRIPTION (( 'STEP AP203' ),
    '1' );
FILE_NAME ('a0d1.STEP',
    '2022-06-20T10:30:51',
    ( '' ),
    ( '' ),
    'SwSTEP 2.0',
    'SolidWorks 2019',
    '' );
FILE_SCHEMA (( 'CONFIG_CONTROL_DESIGN' ));
ENDSEC;

DATA;
#1 = APPROVAL_STATUS ( 'not_yet_approved' ) ;
#2 = ORIENTED_EDGE ( 'NONE', *, *, #14, .F. ) ;
#3 = PERSON_AND_ORGANIZATION ( #296, #205 ) ;
#4 = VECTOR ( 'NONE', #184, 1000.000000000000000 ) ;
#5 = MECHANICAL_CONTEXT ( 'NONE', #189, 'mechanical' ) ;
#6 = VERTEX_POINT ( 'NONE', #299 ) ;
#7 = VERTEX_POINT ( 'NONE', #112 ) ;
#8 = CIRCLE ( 'NONE', #140, 0.2000000000000000944 ) ;
#9 = EDGE_LOOP ( 'NONE', ( #49, #174 ) ) ;
#10 = DIRECTION ( 'NONE',  ( 1.000000000000000000, 0.000000000000000000, 0.000000000000000000 ) ) ;
#11 = CARTESIAN_POINT ( 'NONE',  ( 0.000000000000000000, 0.000000000000000000, 101.2000000000000171 ) ) ;
#12 =( GEOMETRIC_REPRESENTATION_CONTEXT ( 3 ) GLOBAL_UNCERTAINTY_ASSIGNED_CONTEXT ( ( #67 ) ) GLOBAL_UNIT_ASSIGNED_CONTEXT ( ( #171, #150, #47 ) ) REPRESENTATION_CONTEXT ( 'NONE', 'WORKASPACE' ) );
#13 = APPROVAL_PERSON_ORGANIZATION ( #137, #86, #154 ) ;
#14 = EDGE_CURVE ( 'NONE', #240, #6, #158, .T. ) ;
#15 = CARTESIAN_POINT ( 'NONE',  ( 0.000000000000000000, 0.000000000000000000, 1.199999999999999956 ) ) ;
#16 = EDGE_CURVE ( 'NONE', #240, #252, #173, .T. ) ;
#17 = DIRECTION ( 'NONE',  ( -0.000000000000000000, -0.000000000000000000, -1.000000000000000000 ) ) ;
#18 = DIRECTION ( 'NONE',  ( 1.000000000000000000, 0.000000000000000000, 0.000000000000000000 ) ) ;
#19 = DIRECTION ( 'NONE',  ( -1.000000000000000000, 0.000000000000000000, 0.000000000000000000 ) ) ;
#20 = ADVANCED_FACE ( 'NONE', ( #106 ), #227, .T. ) ;
#21 = FACE_BOUND ( 'NONE', #280, .T. ) ;
#22 = CIRCLE ( 'NONE', #163, 1.250000000000000000 ) ;
#23 = APPROVAL_DATE_TIME ( #235, #108 ) ;
#24 = DESIGN_CONTEXT ( 'detailed design', #238, 'design' ) ;
#25 = PERSON_AND_ORGANIZATION ( #296, #205 ) ;
#26 = ORIENTED_EDGE ( 'NONE', *, *, #81, .T. ) ;
#27 = MANIFOLD_SOLID_BREP ( 'Zaoblit1', #288 ) ;
#28 = EDGE_LOOP ( 'NONE', ( #229, #197, #218, #155 ) ) ;
#29 = CARTESIAN_POINT ( 'NONE',  ( 0.000000000000000000, 0.000000000000000000, 0.000000000000000000 ) ) ;
#30 = VERTEX_POINT ( 'NONE', #58 ) ;
#31 = DIRECTION ( 'NONE',  ( 0.000000000000000000, 0.000000000000000000, 1.000000000000000000 ) ) ;
#32 = APPROVAL_DATE_TIME ( #246, #86 ) ;
#33 = DIRECTION ( 'NONE',  ( 1.000000000000000000, 0.000000000000000000, 0.000000000000000000 ) ) ;
#34 = CARTESIAN_POINT ( 'NONE',  ( 0.6999999999999999556, 0.000000000000000000, 1.399999999999998579 ) ) ;
#35 = AXIS2_PLACEMENT_3D ( 'NONE', #118, #192, #87 ) ;
#36 = EDGE_CURVE ( 'NONE', #6, #297, #8, .T. ) ;
#37 = ORIENTED_EDGE ( 'NONE', *, *, #230, .T. ) ;
#38 = CARTESIAN_POINT ( 'NONE',  ( 0.000000000000000000, 0.000000000000000000, 1.199999999999999956 ) ) ;
#39 = APPROVAL_STATUS ( 'not_yet_approved' ) ;
#40 = DIRECTION ( 'NONE',  ( -0.000000000000000000, -0.000000000000000000, -1.000000000000000000 ) ) ;
#41 = CARTESIAN_POINT ( 'NONE',  ( -0.5000000000000000000, 0.000000000000000000, 101.2000000000000171 ) ) ;
#42 = DIRECTION ( 'NONE',  ( 1.000000000000000000, 0.000000000000000000, 0.000000000000000000 ) ) ;
#43 = CARTESIAN_POINT ( 'NONE',  ( 0.000000000000000000, 0.000000000000000000, 1.399999999999998579 ) ) ;
#44 = TOROIDAL_SURFACE ( 'NONE', #285, 0.6999999999999999556, 0.2000000000000000111 ) ;
#45 = CARTESIAN_POINT ( 'NONE',  ( 0.000000000000000000, 0.000000000000000000, 101.2000000000000171 ) ) ;
#46 = AXIS2_PLACEMENT_3D ( 'NONE', #145, #284, #301 ) ;
#47 =( NAMED_UNIT ( * ) SI_UNIT ( $, .STERADIAN. ) SOLID_ANGLE_UNIT ( ) );
#48 = CC_DESIGN_DATE_AND_TIME_ASSIGNMENT ( #253, #53, ( #281 ) ) ;
#49 = ORIENTED_EDGE ( 'NONE', *, *, #92, .T. ) ;
#50 = EDGE_LOOP ( 'NONE', ( #99, #102, #151, #294 ) ) ;
#51 = PERSON_AND_ORGANIZATION ( #296, #205 ) ;
#52 = EDGE_CURVE ( 'NONE', #134, #75, #209, .T. ) ;
#53 = DATE_TIME_ROLE ( 'classification_date' ) ;
#54 = CYLINDRICAL_SURFACE ( 'NONE', #195, 0.5000000000000000000 ) ;
#55 = CALENDAR_DATE ( 2022, 20, 6 ) ;
#56 = CARTESIAN_POINT ( 'NONE',  ( 0.000000000000000000, 0.000000000000000000, 1.399999999999998579 ) ) ;
#57 = AXIS2_PLACEMENT_3D ( 'NONE', #170, #245, #264 ) ;
#58 = CARTESIAN_POINT ( 'NONE',  ( 1.250000000000000000, 1.530808498934191571E-16, 0.000000000000000000 ) ) ;
#59 = DIRECTION ( 'NONE',  ( 0.000000000000000000, 0.000000000000000000, 1.000000000000000000 ) ) ;
#60 = APPROVAL_PERSON_ORGANIZATION ( #196, #108, #101 ) ;
#61 = CARTESIAN_POINT ( 'NONE',  ( -0.6999999999999999556, 8.572527594031471957E-17, 1.399999999999998579 ) ) ;
#62 = CARTESIAN_POINT ( 'NONE',  ( 0.000000000000000000, 0.000000000000000000, 1.199999999999999956 ) ) ;
#63 = APPROVAL ( #220, 'NEURÈENÝ' ) ;
#64 = FACE_OUTER_BOUND ( 'NONE', #241, .T. ) ;
#65 = LOCAL_TIME ( 12, 30, 51.00000000000000000, #239 ) ;
#66 = DIRECTION ( 'NONE',  ( -0.000000000000000000, -0.000000000000000000, -1.000000000000000000 ) ) ;
#67 = UNCERTAINTY_MEASURE_WITH_UNIT (LENGTH_MEASURE( 1.000000000000000082E-05 ), #171, 'distance_accuracy_value', 'NONE');
#68 = CIRCLE ( 'NONE', #200, 0.5000000000000000000 ) ;
#69 = APPLICATION_PROTOCOL_DEFINITION ( 'international standard', 'config_control_design', 1994, #189 ) ;
#70 = EDGE_LOOP ( 'NONE', ( #216, #172, #161, #107 ) ) ;
#71 = CALENDAR_DATE ( 2022, 20, 6 ) ;
#72 = CC_DESIGN_PERSON_AND_ORGANIZATION_ASSIGNMENT ( #51, #217, ( #136 ) ) ;
#73 = COORDINATED_UNIVERSAL_TIME_OFFSET ( 1, 0, .AHEAD. ) ;
#74 = AXIS2_PLACEMENT_3D ( 'NONE', #251, #204, #206 ) ;
#75 = VERTEX_POINT ( 'NONE', #131 ) ;
#76 = CARTESIAN_POINT ( 'NONE',  ( 0.000000000000000000, 0.000000000000000000, 101.2000000000000171 ) ) ;
#77 = FACE_OUTER_BOUND ( 'NONE', #183, .T. ) ;
#78 = EDGE_LOOP ( 'NONE', ( #2, #300, #96, #222 ) ) ;
#79 = AXIS2_PLACEMENT_3D ( 'NONE', #119, #144, #113 ) ;
#80 = FACE_OUTER_BOUND ( 'NONE', #50, .T. ) ;
#81 = EDGE_CURVE ( 'NONE', #178, #297, #111, .T. ) ;
#82 = ORIENTED_EDGE ( 'NONE', *, *, #250, .F. ) ;
#83 = DIRECTION ( 'NONE',  ( 0.000000000000000000, 0.000000000000000000, 1.000000000000000000 ) ) ;
#84 = AXIS2_PLACEMENT_3D ( 'NONE', #231, #66, #42 ) ;
#85 = CARTESIAN_POINT ( 'NONE',  ( -1.250000000000000000, 0.000000000000000000, 0.000000000000000000 ) ) ;
#86 = APPROVAL ( #39, 'NEURÈENÝ' ) ;
#87 = DIRECTION ( 'NONE',  ( 1.000000000000000000, 0.000000000000000000, 0.000000000000000000 ) ) ;
#88 = CYLINDRICAL_SURFACE ( 'NONE', #213, 1.250000000000000000 ) ;
#89 = AXIS2_PLACEMENT_3D ( 'NONE', #15, #208, #282 ) ;
#90 = FACE_OUTER_BOUND ( 'NONE', #70, .T. ) ;
#91 = PERSON_AND_ORGANIZATION_ROLE ( 'classification_officer' ) ;
#92 = EDGE_CURVE ( 'NONE', #252, #240, #68, .T. ) ;
#93 = EDGE_CURVE ( 'NONE', #134, #221, #272, .T. ) ;
#94 = ORIENTED_EDGE ( 'NONE', *, *, #289, .F. ) ;
#95 = SECURITY_CLASSIFICATION_LEVEL ( 'unclassified' ) ;
#96 = ORIENTED_EDGE ( 'NONE', *, *, #259, .T. ) ;
#97 = LOCAL_TIME ( 12, 30, 51.00000000000000000, #98 ) ;
#98 = COORDINATED_UNIVERSAL_TIME_OFFSET ( 1, 0, .AHEAD. ) ;
#99 = ORIENTED_EDGE ( 'NONE', *, *, #16, .F. ) ;
#100 = PERSON_AND_ORGANIZATION_ROLE ( 'creator' ) ;
#101 = APPROVAL_ROLE ( '' ) ;
#102 = ORIENTED_EDGE ( 'NONE', *, *, #14, .T. ) ;
#103 = AXIS2_PLACEMENT_3D ( 'NONE', #62, #212, #166 ) ;
#104 = COORDINATED_UNIVERSAL_TIME_OFFSET ( 1, 0, .AHEAD. ) ;
#105 = VECTOR ( 'NONE', #263, 1000.000000000000000 ) ;
#106 = FACE_OUTER_BOUND ( 'NONE', #9, .T. ) ;
#107 = ORIENTED_EDGE ( 'NONE', *, *, #81, .F. ) ;
#108 = APPROVAL ( #1, 'NEURÈENÝ' ) ;
#109 = CYLINDRICAL_SURFACE ( 'NONE', #103, 1.250000000000000000 ) ;
#110 = ORIENTED_EDGE ( 'NONE', *, *, #165, .F. ) ;
#111 = CIRCLE ( 'NONE', #271, 0.6999999999999999556 ) ;
#112 = CARTESIAN_POINT ( 'NONE',  ( -0.5000000000000000000, 0.000000000000000000, 1.399999999999998579 ) ) ;
#113 = DIRECTION ( 'NONE',  ( 1.000000000000000000, 0.000000000000000000, 0.000000000000000000 ) ) ;
#114 = LINE ( 'NONE', #191, #116 ) ;
#115 = CC_DESIGN_PERSON_AND_ORGANIZATION_ASSIGNMENT ( #175, #242, ( #236 ) ) ;
#116 = VECTOR ( 'NONE', #258, 1000.000000000000000 ) ;
#117 = ADVANCED_BREP_SHAPE_REPRESENTATION ( 'a0d1', ( #27, #57 ), #12 ) ;
#118 = CARTESIAN_POINT ( 'NONE',  ( 0.000000000000000000, 0.000000000000000000, 1.399999999999998579 ) ) ;
#119 = CARTESIAN_POINT ( 'NONE',  ( 0.000000000000000000, 0.000000000000000000, 1.399999999999998579 ) ) ;
#120 = DIRECTION ( 'NONE',  ( 0.000000000000000000, 0.000000000000000000, 1.000000000000000000 ) ) ;
#121 = AXIS2_PLACEMENT_3D ( 'NONE', #45, #17, #19 ) ;
#122 = ADVANCED_FACE ( 'NONE', ( #80 ), #54, .T. ) ;
#123 = PERSON_AND_ORGANIZATION ( #296, #205 ) ;
#124 = DATE_AND_TIME ( #290, #97 ) ;
#125 = ORIENTED_EDGE ( 'NONE', *, *, #198, .T. ) ;
#126 = ADVANCED_FACE ( 'NONE', ( #77 ), #44, .F. ) ;
#127 = VECTOR ( 'NONE', #202, 1000.000000000000000 ) ;
#128 = ORIENTED_EDGE ( 'NONE', *, *, #52, .T. ) ;
#129 = APPLICATION_PROTOCOL_DEFINITION ( 'international standard', 'config_control_design', 1994, #238 ) ;
#130 = SHAPE_DEFINITION_REPRESENTATION ( #132, #117 ) ;
#131 = CARTESIAN_POINT ( 'NONE',  ( 1.250000000000000000, 1.530808498934191571E-16, 1.199999999999999956 ) ) ;
#132 = PRODUCT_DEFINITION_SHAPE ( 'NONE', 'NONE',  #305 ) ;
#133 = ADVANCED_FACE ( 'NONE', ( #274 ), #109, .T. ) ;
#134 = VERTEX_POINT ( 'NONE', #283 ) ;
#135 = DIRECTION ( 'NONE',  ( 0.000000000000000000, 0.000000000000000000, 1.000000000000000000 ) ) ;
#136 = PRODUCT ( 'a0d1', 'a0d1', '', ( #5 ) ) ;
#137 = PERSON_AND_ORGANIZATION ( #296, #205 ) ;
#138 = DIRECTION ( 'NONE',  ( 1.000000000000000000, 0.000000000000000000, 0.000000000000000000 ) ) ;
#139 = DIRECTION ( 'NONE',  ( 0.000000000000000000, 0.000000000000000000, 1.000000000000000000 ) ) ;
#140 = AXIS2_PLACEMENT_3D ( 'NONE', #34, #160, #295 ) ;
#141 = CYLINDRICAL_SURFACE ( 'NONE', #121, 0.5000000000000000000 ) ;
#142 = FACE_OUTER_BOUND ( 'NONE', #199, .T. ) ;
#143 = LOCAL_TIME ( 12, 30, 51.00000000000000000, #73 ) ;
#144 = DIRECTION ( 'NONE',  ( 0.000000000000000000, 0.000000000000000000, 1.000000000000000000 ) ) ;
#145 = CARTESIAN_POINT ( 'NONE',  ( 0.000000000000000000, 0.000000000000000000, 1.199999999999999956 ) ) ;
#146 = ADVANCED_FACE ( 'NONE', ( #90 ), #306, .F. ) ;
#147 = CALENDAR_DATE ( 2022, 20, 6 ) ;
#148 = LOCAL_TIME ( 12, 30, 51.00000000000000000, #276 ) ;
#149 = DIRECTION ( 'NONE',  ( 1.000000000000000000, 0.000000000000000000, 0.000000000000000000 ) ) ;
#150 =( NAMED_UNIT ( * ) PLANE_ANGLE_UNIT ( ) SI_UNIT ( $, .RADIAN. ) );
#151 = ORIENTED_EDGE ( 'NONE', *, *, #177, .T. ) ;
#152 = APPROVAL_DATE_TIME ( #267, #63 ) ;
#153 = ORIENTED_EDGE ( 'NONE', *, *, #36, .F. ) ;
#154 = APPROVAL_ROLE ( '' ) ;
#155 = ORIENTED_EDGE ( 'NONE', *, *, #250, .T. ) ;
#156 = CARTESIAN_POINT ( 'NONE',  ( 0.000000000000000000, 0.000000000000000000, 101.2000000000000171 ) ) ;
#157 = CIRCLE ( 'NONE', #84, 0.6999999999999999556 ) ;
#158 = LINE ( 'NONE', #247, #127 ) ;
#159 = ADVANCED_FACE ( 'NONE', ( #260 ), #88, .T. ) ;
#160 = DIRECTION ( 'NONE',  ( 0.000000000000000000, -1.000000000000000000, 0.000000000000000000 ) ) ;
#161 = ORIENTED_EDGE ( 'NONE', *, *, #36, .T. ) ;
#162 = CARTESIAN_POINT ( 'NONE',  ( -0.6999999999999999556, 8.572527594031473190E-17, 1.199999999999999289 ) ) ;
#163 = AXIS2_PLACEMENT_3D ( 'NONE', #234, #83, #168 ) ;
#164 = DIRECTION ( 'NONE',  ( -1.000000000000000000, 0.000000000000000000, 0.000000000000000000 ) ) ;
#165 = EDGE_CURVE ( 'NONE', #7, #6, #302, .T. ) ;
#166 = DIRECTION ( 'NONE',  ( -1.000000000000000000, 0.000000000000000000, 0.000000000000000000 ) ) ;
#167 = CARTESIAN_POINT ( 'NONE',  ( 0.000000000000000000, 0.000000000000000000, 0.000000000000000000 ) ) ;
#168 = DIRECTION ( 'NONE',  ( 1.000000000000000000, 0.000000000000000000, 0.000000000000000000 ) ) ;
#169 = EDGE_CURVE ( 'NONE', #75, #134, #237, .T. ) ;
#170 = CARTESIAN_POINT ( 'NONE',  ( 0.000000000000000000, 0.000000000000000000, 0.000000000000000000 ) ) ;
#171 =( LENGTH_UNIT ( ) NAMED_UNIT ( * ) SI_UNIT ( .MILLI., .METRE. ) );
#172 = ORIENTED_EDGE ( 'NONE', *, *, #177, .F. ) ;
#173 = CIRCLE ( 'NONE', #298, 0.5000000000000000000 ) ;
#174 = ORIENTED_EDGE ( 'NONE', *, *, #16, .T. ) ;
#175 = PERSON_AND_ORGANIZATION ( #296, #205 ) ;
#176 = ORIENTED_EDGE ( 'NONE', *, *, #289, .T. ) ;
#177 = EDGE_CURVE ( 'NONE', #6, #7, #249, .T. ) ;
#178 = VERTEX_POINT ( 'NONE', #162 ) ;
#179 = PRODUCT_RELATED_PRODUCT_CATEGORY ( 'detail', '', ( #136 ) ) ;
#180 = DIRECTION ( 'NONE',  ( 0.000000000000000000, 0.000000000000000000, 1.000000000000000000 ) ) ;
#181 = ADVANCED_FACE ( 'NONE', ( #64 ), #286, .F. ) ;
#182 = CIRCLE ( 'NONE', #243, 1.250000000000000000 ) ;
#183 = EDGE_LOOP ( 'NONE', ( #110, #207, #270, #153 ) ) ;
#184 = DIRECTION ( 'NONE',  ( -0.000000000000000000, -0.000000000000000000, -1.000000000000000000 ) ) ;
#185 = ORIENTED_EDGE ( 'NONE', *, *, #169, .T. ) ;
#186 = AXIS2_PLACEMENT_3D ( 'NONE', #61, #232, #210 ) ;
#187 = CARTESIAN_POINT ( 'NONE',  ( -0.5000000000000000000, 0.000000000000000000, 101.2000000000000171 ) ) ;
#188 = CC_DESIGN_PERSON_AND_ORGANIZATION_ASSIGNMENT ( #123, #100, ( #305 ) ) ;
#189 = APPLICATION_CONTEXT ( 'configuration controlled 3d designs of mechanical parts and assemblies' ) ;
#190 = DIRECTION ( 'NONE',  ( -0.000000000000000000, -0.000000000000000000, -1.000000000000000000 ) ) ;
#191 = CARTESIAN_POINT ( 'NONE',  ( 1.250000000000000000, 1.530808498934191571E-16, 1.199999999999999956 ) ) ;
#192 = DIRECTION ( 'NONE',  ( 0.000000000000000000, 0.000000000000000000, 1.000000000000000000 ) ) ;
#193 = CARTESIAN_POINT ( 'NONE',  ( 0.6999999999999999556, 0.000000000000000000, 1.199999999999999289 ) ) ;
#194 = EDGE_LOOP ( 'NONE', ( #268, #125, #176, #277 ) ) ;
#195 = AXIS2_PLACEMENT_3D ( 'NONE', #156, #279, #248 ) ;
#196 = PERSON_AND_ORGANIZATION ( #296, #205 ) ;
#197 = ORIENTED_EDGE ( 'NONE', *, *, #52, .F. ) ;
#198 = EDGE_CURVE ( 'NONE', #75, #30, #114, .T. ) ;
#199 = EDGE_LOOP ( 'NONE', ( #128, #185 ) ) ;
#200 = AXIS2_PLACEMENT_3D ( 'NONE', #76, #180, #138 ) ;
#201 = CARTESIAN_POINT ( 'NONE',  ( 0.000000000000000000, 0.000000000000000000, 1.199999999999999956 ) ) ;
#202 = DIRECTION ( 'NONE',  ( -0.000000000000000000, -0.000000000000000000, -1.000000000000000000 ) ) ;
#203 = CC_DESIGN_PERSON_AND_ORGANIZATION_ASSIGNMENT ( #3, #215, ( #236 ) ) ;
#204 = DIRECTION ( 'NONE',  ( 0.000000000000000000, 0.000000000000000000, 1.000000000000000000 ) ) ;
#205 = ORGANIZATION ( 'NEURÈENÝ', 'NEURÈENÝ', '' ) ;
#206 = DIRECTION ( 'NONE',  ( 1.000000000000000000, 0.000000000000000000, -0.000000000000000000 ) ) ;
#207 = ORIENTED_EDGE ( 'NONE', *, *, #278, .T. ) ;
#208 = DIRECTION ( 'NONE',  ( 0.000000000000000000, 0.000000000000000000, 1.000000000000000000 ) ) ;
#209 = CIRCLE ( 'NONE', #224, 1.250000000000000000 ) ;
#210 = DIRECTION ( 'NONE',  ( -1.000000000000000000, 1.224646799147352714E-16, 0.000000000000000000 ) ) ;
#211 = DIRECTION ( 'NONE',  ( 1.000000000000000000, 0.000000000000000000, -0.000000000000000000 ) ) ;
#212 = DIRECTION ( 'NONE',  ( -0.000000000000000000, -0.000000000000000000, -1.000000000000000000 ) ) ;
#213 = AXIS2_PLACEMENT_3D ( 'NONE', #257, #190, #164 ) ;
#214 = DATE_TIME_ROLE ( 'creation_date' ) ;
#215 = PERSON_AND_ORGANIZATION_ROLE ( 'creator' ) ;
#216 = ORIENTED_EDGE ( 'NONE', *, *, #278, .F. ) ;
#217 = PERSON_AND_ORGANIZATION_ROLE ( 'design_owner' ) ;
#218 = ORIENTED_EDGE ( 'NONE', *, *, #93, .T. ) ;
#219 = LOCAL_TIME ( 12, 30, 51.00000000000000000, #104 ) ;
#220 = APPROVAL_STATUS ( 'not_yet_approved' ) ;
#221 = VERTEX_POINT ( 'NONE', #85 ) ;
#222 = ORIENTED_EDGE ( 'NONE', *, *, #165, .T. ) ;
#223 = DIRECTION ( 'NONE',  ( 1.000000000000000000, 0.000000000000000000, 0.000000000000000000 ) ) ;
#224 = AXIS2_PLACEMENT_3D ( 'NONE', #201, #254, #225 ) ;
#225 = DIRECTION ( 'NONE',  ( 1.000000000000000000, 0.000000000000000000, 0.000000000000000000 ) ) ;
#226 = CARTESIAN_POINT ( 'NONE',  ( -1.250000000000000000, 0.000000000000000000, 1.199999999999999956 ) ) ;
#227 = PLANE ( 'NONE',  #74 ) ;
#228 = AXIS2_PLACEMENT_3D ( 'NONE', #167, #120, #211 ) ;
#229 = ORIENTED_EDGE ( 'NONE', *, *, #198, .F. ) ;
#230 = EDGE_CURVE ( 'NONE', #297, #178, #157, .T. ) ;
#231 = CARTESIAN_POINT ( 'NONE',  ( 0.000000000000000000, 0.000000000000000000, 1.199999999999999956 ) ) ;
#232 = DIRECTION ( 'NONE',  ( 1.224646799147353207E-16, 1.000000000000000000, -0.000000000000000000 ) ) ;
#233 = CC_DESIGN_APPROVAL ( #108, ( #305 ) ) ;
#234 = CARTESIAN_POINT ( 'NONE',  ( 0.000000000000000000, 0.000000000000000000, 0.000000000000000000 ) ) ;
#235 = DATE_AND_TIME ( #147, #65 ) ;
#236 = PRODUCT_DEFINITION_FORMATION_WITH_SPECIFIED_SOURCE ( 'LIBOVOLNÝ', '', #136, .NOT_KNOWN. ) ;
#237 = CIRCLE ( 'NONE', #46, 1.250000000000000000 ) ;
#238 = APPLICATION_CONTEXT ( 'configuration controlled 3d designs of mechanical parts and assemblies' ) ;
#239 = COORDINATED_UNIVERSAL_TIME_OFFSET ( 1, 0, .AHEAD. ) ;
#240 = VERTEX_POINT ( 'NONE', #262 ) ;
#241 = EDGE_LOOP ( 'NONE', ( #82, #94 ) ) ;
#242 = PERSON_AND_ORGANIZATION_ROLE ( 'design_supplier' ) ;
#243 = AXIS2_PLACEMENT_3D ( 'NONE', #29, #31, #149 ) ;
#244 = CC_DESIGN_SECURITY_CLASSIFICATION ( #281, ( #236 ) ) ;
#245 = DIRECTION ( 'NONE',  ( 0.000000000000000000, 0.000000000000000000, 1.000000000000000000 ) ) ;
#246 = DATE_AND_TIME ( #293, #219 ) ;
#247 = CARTESIAN_POINT ( 'NONE',  ( 0.5000000000000000000, 6.123233995736766036E-17, 101.2000000000000171 ) ) ;
#248 = DIRECTION ( 'NONE',  ( -1.000000000000000000, 0.000000000000000000, 0.000000000000000000 ) ) ;
#249 = CIRCLE ( 'NONE', #292, 0.5000000000000000000 ) ;
#250 = EDGE_CURVE ( 'NONE', #221, #30, #22, .T. ) ;
#251 = CARTESIAN_POINT ( 'NONE',  ( 0.000000000000000000, 0.000000000000000000, 101.2000000000000171 ) ) ;
#252 = VERTEX_POINT ( 'NONE', #41 ) ;
#253 = DATE_AND_TIME ( #55, #148 ) ;
#254 = DIRECTION ( 'NONE',  ( 0.000000000000000000, 0.000000000000000000, 1.000000000000000000 ) ) ;
#255 = ADVANCED_FACE ( 'NONE', ( #303 ), #141, .T. ) ;
#256 = CC_DESIGN_DATE_AND_TIME_ASSIGNMENT ( #124, #214, ( #305 ) ) ;
#257 = CARTESIAN_POINT ( 'NONE',  ( 0.000000000000000000, 0.000000000000000000, 1.199999999999999956 ) ) ;
#258 = DIRECTION ( 'NONE',  ( -0.000000000000000000, -0.000000000000000000, -1.000000000000000000 ) ) ;
#259 = EDGE_CURVE ( 'NONE', #252, #7, #304, .T. ) ;
#260 = FACE_OUTER_BOUND ( 'NONE', #194, .T. ) ;
#261 = CC_DESIGN_APPROVAL ( #63, ( #236 ) ) ;
#262 = CARTESIAN_POINT ( 'NONE',  ( 0.5000000000000000000, 6.123233995736766036E-17, 101.2000000000000171 ) ) ;
#263 = DIRECTION ( 'NONE',  ( -0.000000000000000000, -0.000000000000000000, -1.000000000000000000 ) ) ;
#264 = DIRECTION ( 'NONE',  ( 1.000000000000000000, 0.000000000000000000, 0.000000000000000000 ) ) ;
#265 = CIRCLE ( 'NONE', #186, 0.1999999999999999833 ) ;
#266 = CC_DESIGN_PERSON_AND_ORGANIZATION_ASSIGNMENT ( #269, #91, ( #281 ) ) ;
#267 = DATE_AND_TIME ( #71, #143 ) ;
#268 = ORIENTED_EDGE ( 'NONE', *, *, #169, .F. ) ;
#269 = PERSON_AND_ORGANIZATION ( #296, #205 ) ;
#270 = ORIENTED_EDGE ( 'NONE', *, *, #230, .F. ) ;
#271 = AXIS2_PLACEMENT_3D ( 'NONE', #38, #40, #223 ) ;
#272 = LINE ( 'NONE', #226, #4 ) ;
#273 = ADVANCED_FACE ( 'NONE', ( #21, #142 ), #307, .T. ) ;
#274 = FACE_OUTER_BOUND ( 'NONE', #28, .T. ) ;
#275 = APPROVAL_PERSON_ORGANIZATION ( #25, #63, #291 ) ;
#276 = COORDINATED_UNIVERSAL_TIME_OFFSET ( 1, 0, .AHEAD. ) ;
#277 = ORIENTED_EDGE ( 'NONE', *, *, #93, .F. ) ;
#278 = EDGE_CURVE ( 'NONE', #7, #178, #265, .T. ) ;
#279 = DIRECTION ( 'NONE',  ( -0.000000000000000000, -0.000000000000000000, -1.000000000000000000 ) ) ;
#280 = EDGE_LOOP ( 'NONE', ( #37, #26 ) ) ;
#281 = SECURITY_CLASSIFICATION ( '', '', #95 ) ;
#282 = DIRECTION ( 'NONE',  ( 1.000000000000000000, 0.000000000000000000, -0.000000000000000000 ) ) ;
#283 = CARTESIAN_POINT ( 'NONE',  ( -1.250000000000000000, 0.000000000000000000, 1.199999999999999956 ) ) ;
#284 = DIRECTION ( 'NONE',  ( 0.000000000000000000, 0.000000000000000000, 1.000000000000000000 ) ) ;
#285 = AXIS2_PLACEMENT_3D ( 'NONE', #56, #135, #10 ) ;
#286 = PLANE ( 'NONE',  #228 ) ;
#287 = CC_DESIGN_APPROVAL ( #86, ( #281 ) ) ;
#288 = CLOSED_SHELL ( 'NONE', ( #126, #122, #159, #133, #273, #181, #255, #20, #146 ) ) ;
#289 = EDGE_CURVE ( 'NONE', #30, #221, #182, .T. ) ;
#290 = CALENDAR_DATE ( 2022, 20, 6 ) ;
#291 = APPROVAL_ROLE ( '' ) ;
#292 = AXIS2_PLACEMENT_3D ( 'NONE', #43, #59, #18 ) ;
#293 = CALENDAR_DATE ( 2022, 20, 6 ) ;
#294 = ORIENTED_EDGE ( 'NONE', *, *, #259, .F. ) ;
#295 = DIRECTION ( 'NONE',  ( 0.000000000000000000, 0.000000000000000000, -1.000000000000000000 ) ) ;
#296 = PERSON ( 'NEURÈENÝ', 'NEURÈENÝ', 'NEURÈENÝ', ('NEURÈENÝ'), ('NEURÈENÝ'), ('NEURÈENÝ') ) ;
#297 = VERTEX_POINT ( 'NONE', #193 ) ;
#298 = AXIS2_PLACEMENT_3D ( 'NONE', #11, #139, #33 ) ;
#299 = CARTESIAN_POINT ( 'NONE',  ( 0.5000000000000000000, 6.123233995736766036E-17, 1.399999999999998579 ) ) ;
#300 = ORIENTED_EDGE ( 'NONE', *, *, #92, .F. ) ;
#301 = DIRECTION ( 'NONE',  ( 1.000000000000000000, 0.000000000000000000, 0.000000000000000000 ) ) ;
#302 = CIRCLE ( 'NONE', #79, 0.5000000000000000000 ) ;
#303 = FACE_OUTER_BOUND ( 'NONE', #78, .T. ) ;
#304 = LINE ( 'NONE', #187, #105 ) ;
#305 = PRODUCT_DEFINITION ( 'NEZNÁMÝ', '', #236, #24 ) ;
#306 = TOROIDAL_SURFACE ( 'NONE', #35, 0.6999999999999999556, 0.2000000000000000111 ) ;
#307 = PLANE ( 'NONE',  #89 ) ;
ENDSEC;
END-ISO-10303-21;
