ISO-10303-21;
HEADER;
FILE_DESCRIPTION (( 'STEP AP203' ),
    '1' );
FILE_NAME ('4d5a.STEP',
    '2024-01-02T21:50:12',
    ( '' ),
    ( '' ),
    'SwSTEP 2.0',
    'SolidWorks 2019',
    '' );
FILE_SCHEMA (( 'CONFIG_CONTROL_DESIGN' ));
ENDSEC;

DATA;
#1 = APPROVAL_STATUS ( 'not_yet_approved' ) ;
#2 = EDGE_CURVE ( 'NONE', #281, #12, #371, .T. ) ;
#3 = VECTOR ( 'NONE', #116, 999.9999999999998863 ) ;
#4 = ORIENTED_EDGE ( 'NONE', *, *, #125, .F. ) ;
#5 = CIRCLE ( 'NONE', #22, 8.499999999999998224 ) ;
#6 = EDGE_LOOP ( 'NONE', ( #203, #57, #216, #208 ) ) ;
#7 = CC_DESIGN_APPROVAL ( #68, ( #45 ) ) ;
#8 = CARTESIAN_POINT ( 'NONE',  ( -11.00000000000000000, 1.347111479062088602E-15, -5.000000000000000000 ) ) ;
#9 = CARTESIAN_POINT ( 'NONE',  ( 0.000000000000000000, 0.000000000000000000, -6.000000000000000000 ) ) ;
#10 = ORIENTED_EDGE ( 'NONE', *, *, #88, .T. ) ;
#11 = EDGE_LOOP ( 'NONE', ( #121, #192, #35, #319 ) ) ;
#12 = VERTEX_POINT ( 'NONE', #143 ) ;
#13 = AXIS2_PLACEMENT_3D ( 'NONE', #339, #365, #361 ) ;
#14 = LOCAL_TIME ( 22, 50, 12.00000000000000000, #62 ) ;
#15 = APPROVAL_ROLE ( '' ) ;
#16 = FACE_BOUND ( 'NONE', #354, .T. ) ;
#17 = FACE_OUTER_BOUND ( 'NONE', #71, .T. ) ;
#18 = CARTESIAN_POINT ( 'NONE',  ( 0.000000000000000000, 0.000000000000000000, -5.500000000000000000 ) ) ;
#19 = AXIS2_PLACEMENT_3D ( 'NONE', #400, #81, #198 ) ;
#20 = PLANE ( 'NONE',  #245 ) ;
#21 = LOCAL_TIME ( 22, 50, 12.00000000000000000, #202 ) ;
#22 = AXIS2_PLACEMENT_3D ( 'NONE', #140, #404, #150 ) ;
#23 = DIRECTION ( 'NONE',  ( -1.000000000000000000, 0.000000000000000000, 0.000000000000000000 ) ) ;
#24 = DATE_AND_TIME ( #89, #14 ) ;
#25 = DIRECTION ( 'NONE',  ( 0.000000000000000000, 0.000000000000000000, -1.000000000000000000 ) ) ;
#26 = VECTOR ( 'NONE', #97, 1000.000000000000000 ) ;
#27 = DIRECTION ( 'NONE',  ( 1.000000000000000000, 0.000000000000000000, 0.000000000000000000 ) ) ;
#28 = EDGE_LOOP ( 'NONE', ( #334, #160, #42, #86 ) ) ;
#29 = FACE_OUTER_BOUND ( 'NONE', #11, .T. ) ;
#30 = ADVANCED_FACE ( 'NONE', ( #29 ), #383, .F. ) ;
#31 = ORIENTED_EDGE ( 'NONE', *, *, #247, .T. ) ;
#32 = DIRECTION ( 'NONE',  ( 0.000000000000000000, -1.000000000000000000, 0.000000000000000000 ) ) ;
#33 = CARTESIAN_POINT ( 'NONE',  ( -10.49999999999999467, 0.000000000000000000, 0.000000000000000000 ) ) ;
#34 = CIRCLE ( 'NONE', #137, 11.00000000000000178 ) ;
#35 = ORIENTED_EDGE ( 'NONE', *, *, #346, .T. ) ;
#36 = ORIENTED_EDGE ( 'NONE', *, *, #76, .F. ) ;
#37 = DIRECTION ( 'NONE',  ( -0.000000000000000000, -0.000000000000000000, 1.000000000000000000 ) ) ;
#38 = ORIENTED_EDGE ( 'NONE', *, *, #2, .T. ) ;
#39 = APPROVAL ( #292, 'NEURÈENÝ' ) ;
#40 = ORIENTED_EDGE ( 'NONE', *, *, #240, .F. ) ;
#41 = VECTOR ( 'NONE', #341, 1000.000000000000000 ) ;
#42 = ORIENTED_EDGE ( 'NONE', *, *, #310, .F. ) ;
#43 = AXIS2_PLACEMENT_3D ( 'NONE', #9, #322, #363 ) ;
#44 = CARTESIAN_POINT ( 'NONE',  ( 0.000000000000000000, 0.000000000000000000, -5.000000000000000000 ) ) ;
#45 = PRODUCT_DEFINITION ( 'NEZNÁMÝ', '', #113, #226 ) ;
#46 = ORIENTED_EDGE ( 'NONE', *, *, #131, .T. ) ;
#47 = AXIS2_PLACEMENT_3D ( 'NONE', #177, #147, #315 ) ;
#48 = PERSON_AND_ORGANIZATION_ROLE ( 'design_owner' ) ;
#49 = PERSON_AND_ORGANIZATION_ROLE ( 'creator' ) ;
#50 = DIRECTION ( 'NONE',  ( -1.000000000000000000, 0.000000000000000000, 0.000000000000000000 ) ) ;
#51 = AXIS2_PLACEMENT_3D ( 'NONE', #350, #149, #285 ) ;
#52 = ORIENTED_EDGE ( 'NONE', *, *, #229, .T. ) ;
#53 = VERTEX_POINT ( 'NONE', #277 ) ;
#54 = CIRCLE ( 'NONE', #278, 11.00000000000000000 ) ;
#55 = FACE_OUTER_BOUND ( 'NONE', #6, .T. ) ;
#56 = VECTOR ( 'NONE', #390, 1000.000000000000000 ) ;
#57 = ORIENTED_EDGE ( 'NONE', *, *, #60, .F. ) ;
#58 = VERTEX_POINT ( 'NONE', #284 ) ;
#59 = CIRCLE ( 'NONE', #43, 9.000000000000000000 ) ;
#60 = EDGE_CURVE ( 'NONE', #162, #405, #391, .T. ) ;
#61 = EDGE_LOOP ( 'NONE', ( #357, #46, #242, #114 ) ) ;
#62 = COORDINATED_UNIVERSAL_TIME_OFFSET ( 1, 0, .AHEAD. ) ;
#63 = CARTESIAN_POINT ( 'NONE',  ( 0.000000000000000000, 0.000000000000000000, -5.000000000000000000 ) ) ;
#64 = LINE ( 'NONE', #33, #3 ) ;
#65 = CALENDAR_DATE ( 2024, 2, 1 ) ;
#66 = CARTESIAN_POINT ( 'NONE',  ( 0.000000000000000000, 0.000000000000000000, -5.000000000000000000 ) ) ;
#67 = AXIS2_PLACEMENT_3D ( 'NONE', #370, #375, #83 ) ;
#68 = APPROVAL ( #360, 'NEURÈENÝ' ) ;
#69 = DATE_TIME_ROLE ( 'creation_date' ) ;
#70 = PERSON_AND_ORGANIZATION ( #181, #364 ) ;
#71 = EDGE_LOOP ( 'NONE', ( #4, #110 ) ) ;
#72 = CARTESIAN_POINT ( 'NONE',  ( -9.000000000000000000, 0.000000000000000000, -5.500000000000000000 ) ) ;
#73 = EDGE_CURVE ( 'NONE', #87, #58, #54, .T. ) ;
#74 = CARTESIAN_POINT ( 'NONE',  ( 0.000000000000000000, 0.000000000000000000, 0.000000000000000000 ) ) ;
#75 = CALENDAR_DATE ( 2024, 2, 1 ) ;
#76 = EDGE_CURVE ( 'NONE', #106, #295, #343, .T. ) ;
#77 = FACE_OUTER_BOUND ( 'NONE', #182, .T. ) ;
#78 = DIRECTION ( 'NONE',  ( -0.000000000000000000, -0.000000000000000000, 1.000000000000000000 ) ) ;
#79 = PERSON_AND_ORGANIZATION ( #181, #364 ) ;
#80 = DIRECTION ( 'NONE',  ( -0.000000000000000000, -0.000000000000000000, 1.000000000000000000 ) ) ;
#81 = DIRECTION ( 'NONE',  ( 1.224646799147353207E-16, 1.000000000000000000, 0.000000000000000000 ) ) ;
#82 = DIRECTION ( 'NONE',  ( -1.000000000000000000, 0.000000000000000000, -0.000000000000000000 ) ) ;
#83 = DIRECTION ( 'NONE',  ( 1.000000000000000000, 0.000000000000000000, 0.000000000000000000 ) ) ;
#84 = EDGE_LOOP ( 'NONE', ( #195, #112, #132, #179 ) ) ;
#85 = CC_DESIGN_PERSON_AND_ORGANIZATION_ASSIGNMENT ( #303, #100, ( #45 ) ) ;
#86 = ORIENTED_EDGE ( 'NONE', *, *, #91, .F. ) ;
#87 = VERTEX_POINT ( 'NONE', #8 ) ;
#88 = EDGE_CURVE ( 'NONE', #53, #314, #352, .T. ) ;
#89 = CALENDAR_DATE ( 2024, 2, 1 ) ;
#90 = UNCERTAINTY_MEASURE_WITH_UNIT (LENGTH_MEASURE( 1.000000000000000082E-05 ), #183, 'distance_accuracy_value', 'NONE');
#91 = EDGE_CURVE ( 'NONE', #162, #314, #64, .T. ) ;
#92 = ORIENTED_EDGE ( 'NONE', *, *, #96, .F. ) ;
#93 = TOROIDAL_SURFACE ( 'NONE', #336, 9.000000000000000000, 0.5000000000000000000 ) ;
#94 = PERSON_AND_ORGANIZATION_ROLE ( 'design_supplier' ) ;
#95 = DIRECTION ( 'NONE',  ( 1.000000000000000000, 0.000000000000000000, 0.000000000000000000 ) ) ;
#96 = EDGE_CURVE ( 'NONE', #58, #87, #144, .T. ) ;
#97 = DIRECTION ( 'NONE',  ( -0.000000000000000000, -0.000000000000000000, 1.000000000000000000 ) ) ;
#98 = FACE_OUTER_BOUND ( 'NONE', #28, .T. ) ;
#99 = DIRECTION ( 'NONE',  ( -0.000000000000000000, -0.000000000000000000, 1.000000000000000000 ) ) ;
#100 = PERSON_AND_ORGANIZATION_ROLE ( 'creator' ) ;
#101 = FACE_OUTER_BOUND ( 'NONE', #61, .T. ) ;
#102 = DIRECTION ( 'NONE',  ( -0.000000000000000000, -0.000000000000000000, 1.000000000000000000 ) ) ;
#103 = CARTESIAN_POINT ( 'NONE',  ( 0.000000000000000000, 11.00000000000000000, -5.000000000000000000 ) ) ;
#104 = CIRCLE ( 'NONE', #273, 9.000000000000000000 ) ;
#105 = FACE_OUTER_BOUND ( 'NONE', #289, .T. ) ;
#106 = VERTEX_POINT ( 'NONE', #239 ) ;
#107 = AXIS2_PLACEMENT_3D ( 'NONE', #72, #185, #327 ) ;
#108 = ORIENTED_EDGE ( 'NONE', *, *, #134, .F. ) ;
#109 = DIRECTION ( 'NONE',  ( 1.000000000000000000, 0.000000000000000000, 0.000000000000000000 ) ) ;
#110 = ORIENTED_EDGE ( 'NONE', *, *, #247, .F. ) ;
#111 = APPROVAL_ROLE ( '' ) ;
#112 = ORIENTED_EDGE ( 'NONE', *, *, #158, .T. ) ;
#113 = PRODUCT_DEFINITION_FORMATION_WITH_SPECIFIED_SOURCE ( 'LIBOVOLNÝ', '', #215, .NOT_KNOWN. ) ;
#114 = ORIENTED_EDGE ( 'NONE', *, *, #2, .F. ) ;
#115 = PLANE ( 'NONE',  #305 ) ;
#116 = DIRECTION ( 'NONE',  ( -0.7071067811865425767, 0.000000000000000000, -0.7071067811865525687 ) ) ;
#117 = EDGE_LOOP ( 'NONE', ( #382, #31, #38, #232 ) ) ;
#118 = PERSON_AND_ORGANIZATION ( #181, #364 ) ;
#119 = DIRECTION ( 'NONE',  ( 1.000000000000000000, 0.000000000000000000, 0.000000000000000000 ) ) ;
#120 = AXIS2_PLACEMENT_3D ( 'NONE', #18, #102, #227 ) ;
#121 = ORIENTED_EDGE ( 'NONE', *, *, #158, .F. ) ;
#122 = SHAPE_DEFINITION_REPRESENTATION ( #154, #368 ) ;
#123 = DIRECTION ( 'NONE',  ( 0.000000000000000000, -0.000000000000000000, 1.000000000000000000 ) ) ;
#124 = CARTESIAN_POINT ( 'NONE',  ( -9.000000000000000000, 1.102182119232617714E-15, -6.000000000000000000 ) ) ;
#125 = EDGE_CURVE ( 'NONE', #281, #323, #165, .T. ) ;
#126 = COORDINATED_UNIVERSAL_TIME_OFFSET ( 1, 0, .AHEAD. ) ;
#127 = CARTESIAN_POINT ( 'NONE',  ( 0.000000000000000000, 0.000000000000000000, -5.000000000000000000 ) ) ;
#128 = CALENDAR_DATE ( 2024, 2, 1 ) ;
#129 = DIRECTION ( 'NONE',  ( -1.000000000000000000, 0.000000000000000000, 0.000000000000000000 ) ) ;
#130 = EDGE_LOOP ( 'NONE', ( #308, #348, #288, #175 ) ) ;
#131 = EDGE_CURVE ( 'NONE', #323, #263, #326, .T. ) ;
#132 = ORIENTED_EDGE ( 'NONE', *, *, #313, .T. ) ;
#133 = AXIS2_PLACEMENT_3D ( 'NONE', #127, #80, #218 ) ;
#134 = EDGE_CURVE ( 'NONE', #388, #295, #399, .T. ) ;
#135 = FACE_OUTER_BOUND ( 'NONE', #249, .T. ) ;
#136 = CARTESIAN_POINT ( 'NONE',  ( 10.49999999999999467, 1.285879139104720239E-15, 0.000000000000000000 ) ) ;
#137 = AXIS2_PLACEMENT_3D ( 'NONE', #309, #25, #238 ) ;
#138 =( GEOMETRIC_REPRESENTATION_CONTEXT ( 3 ) GLOBAL_UNCERTAINTY_ASSIGNED_CONTEXT ( ( #90 ) ) GLOBAL_UNIT_ASSIGNED_CONTEXT ( ( #183, #214, #217 ) ) REPRESENTATION_CONTEXT ( 'NONE', 'WORKASPACE' ) );
#139 = ADVANCED_FACE ( 'NONE', ( #155 ), #196, .F. ) ;
#140 = CARTESIAN_POINT ( 'NONE',  ( 0.000000000000000000, 0.000000000000000000, -5.500000000000000000 ) ) ;
#141 = EDGE_CURVE ( 'NONE', #378, #388, #234, .T. ) ;
#142 = ORIENTED_EDGE ( 'NONE', *, *, #76, .T. ) ;
#143 = CARTESIAN_POINT ( 'NONE',  ( 9.000000000000000000, 0.000000000000000000, -6.000000000000000000 ) ) ;
#144 = CIRCLE ( 'NONE', #244, 11.00000000000000000 ) ;
#145 = TOROIDAL_SURFACE ( 'NONE', #385, 9.000000000000000000, 0.5000000000000000000 ) ;
#146 = LOCAL_TIME ( 22, 50, 12.00000000000000000, #126 ) ;
#147 = DIRECTION ( 'NONE',  ( 0.000000000000000000, 0.000000000000000000, -1.000000000000000000 ) ) ;
#148 = DIRECTION ( 'NONE',  ( 0.000000000000000000, 0.000000000000000000, -1.000000000000000000 ) ) ;
#149 = DIRECTION ( 'NONE',  ( 0.000000000000000000, 0.000000000000000000, 1.000000000000000000 ) ) ;
#150 = DIRECTION ( 'NONE',  ( 1.000000000000000000, 0.000000000000000000, 0.000000000000000000 ) ) ;
#151 = LINE ( 'NONE', #282, #56 ) ;
#152 = DATE_AND_TIME ( #65, #21 ) ;
#153 = CARTESIAN_POINT ( 'NONE',  ( 0.000000000000000000, 0.000000000000000000, 0.000000000000000000 ) ) ;
#154 = PRODUCT_DEFINITION_SHAPE ( 'NONE', 'NONE',  #45 ) ;
#155 = FACE_OUTER_BOUND ( 'NONE', #84, .T. ) ;
#156 = AXIS2_PLACEMENT_3D ( 'NONE', #306, #311, #23 ) ;
#157 = LOCAL_TIME ( 22, 50, 12.00000000000000000, #393 ) ;
#158 = EDGE_CURVE ( 'NONE', #106, #263, #264, .T. ) ;
#159 = PERSON_AND_ORGANIZATION ( #181, #364 ) ;
#160 = ORIENTED_EDGE ( 'NONE', *, *, #168, .T. ) ;
#161 = CARTESIAN_POINT ( 'NONE',  ( 0.000000000000000000, 0.000000000000000000, 0.000000000000000000 ) ) ;
#162 = VERTEX_POINT ( 'NONE', #271 ) ;
#163 = CARTESIAN_POINT ( 'NONE',  ( 9.000000000000000000, 1.102182119232617714E-15, -4.999999999999999112 ) ) ;
#164 = PLANE ( 'NONE',  #280 ) ;
#165 = CIRCLE ( 'NONE', #219, 9.000000000000000000 ) ;
#166 = APPROVAL_DATE_TIME ( #24, #223 ) ;
#167 = AXIS2_PLACEMENT_3D ( 'NONE', #297, #406, #269 ) ;
#168 = EDGE_CURVE ( 'NONE', #405, #53, #170, .T. ) ;
#169 = ORIENTED_EDGE ( 'NONE', *, *, #60, .T. ) ;
#170 = LINE ( 'NONE', #136, #401 ) ;
#171 = DIRECTION ( 'NONE',  ( -0.000000000000000000, -0.000000000000000000, 1.000000000000000000 ) ) ;
#172 = ORIENTED_EDGE ( 'NONE', *, *, #190, .T. ) ;
#173 = CIRCLE ( 'NONE', #408, 9.000000000000000000 ) ;
#174 = APPROVAL_PERSON_ORGANIZATION ( #159, #39, #15 ) ;
#175 = ORIENTED_EDGE ( 'NONE', *, *, #229, .F. ) ;
#176 = ORIENTED_EDGE ( 'NONE', *, *, #252, .T. ) ;
#177 = CARTESIAN_POINT ( 'NONE',  ( 0.000000000000000000, 0.000000000000000000, -0.5000000000000125455 ) ) ;
#178 = CARTESIAN_POINT ( 'NONE',  ( 11.00000000000000178, 0.000000000000000000, 0.000000000000000000 ) ) ;
#179 = ORIENTED_EDGE ( 'NONE', *, *, #346, .F. ) ;
#180 = AXIS2_PLACEMENT_3D ( 'NONE', #187, #283, #387 ) ;
#181 = PERSON ( 'NEURÈENÝ', 'NEURÈENÝ', 'NEURÈENÝ', ('NEURÈENÝ'), ('NEURÈENÝ'), ('NEURÈENÝ') ) ;
#182 = EDGE_LOOP ( 'NONE', ( #201, #356, #251, #36 ) ) ;
#183 =( LENGTH_UNIT ( ) NAMED_UNIT ( * ) SI_UNIT ( .MILLI., .METRE. ) );
#184 = DIRECTION ( 'NONE',  ( -0.000000000000000000, -0.000000000000000000, 1.000000000000000000 ) ) ;
#185 = DIRECTION ( 'NONE',  ( -0.000000000000000000, -1.000000000000000000, -0.000000000000000000 ) ) ;
#186 = AXIS2_PLACEMENT_3D ( 'NONE', #321, #204, #119 ) ;
#187 = CARTESIAN_POINT ( 'NONE',  ( 0.000000000000000000, 0.000000000000000000, 0.000000000000000000 ) ) ;
#188 = CYLINDRICAL_SURFACE ( 'NONE', #210, 11.00000000000000178 ) ;
#189 = ORIENTED_EDGE ( 'NONE', *, *, #73, .F. ) ;
#190 = EDGE_CURVE ( 'NONE', #378, #106, #355, .T. ) ;
#191 = FACE_OUTER_BOUND ( 'NONE', #117, .T. ) ;
#192 = ORIENTED_EDGE ( 'NONE', *, *, #190, .F. ) ;
#193 = CARTESIAN_POINT ( 'NONE',  ( -11.00000000000000178, 1.347111479062088602E-15, -0.5000000000000125455 ) ) ;
#194 = ADVANCED_FACE ( 'NONE', ( #55 ), #379, .T. ) ;
#195 = ORIENTED_EDGE ( 'NONE', *, *, #205, .F. ) ;
#196 = TOROIDAL_SURFACE ( 'NONE', #120, 9.000000000000000000, 0.5000000000000000000 ) ;
#197 = CARTESIAN_POINT ( 'NONE',  ( 9.000000000000000000, 0.000000000000000000, 0.000000000000000000 ) ) ;
#198 = DIRECTION ( 'NONE',  ( -1.000000000000000000, 1.224646799147353454E-16, 0.000000000000000000 ) ) ;
#199 = VECTOR ( 'NONE', #171, 1000.000000000000000 ) ;
#200 = CARTESIAN_POINT ( 'NONE',  ( -9.000000000000000000, 0.000000000000000000, -4.999999999999999112 ) ) ;
#201 = ORIENTED_EDGE ( 'NONE', *, *, #205, .T. ) ;
#202 = COORDINATED_UNIVERSAL_TIME_OFFSET ( 1, 0, .AHEAD. ) ;
#203 = ORIENTED_EDGE ( 'NONE', *, *, #168, .F. ) ;
#204 = DIRECTION ( 'NONE',  ( -0.000000000000000000, -0.000000000000000000, 1.000000000000000000 ) ) ;
#205 = EDGE_CURVE ( 'NONE', #106, #378, #5, .T. ) ;
#206 = CARTESIAN_POINT ( 'NONE',  ( 9.000000000000000000, 0.000000000000000000, -5.500000000000000000 ) ) ;
#207 = FACE_OUTER_BOUND ( 'NONE', #287, .T. ) ;
#208 = ORIENTED_EDGE ( 'NONE', *, *, #88, .F. ) ;
#209 = DIRECTION ( 'NONE',  ( 1.000000000000000000, 0.000000000000000000, 0.000000000000000000 ) ) ;
#210 = AXIS2_PLACEMENT_3D ( 'NONE', #161, #99, #331 ) ;
#211 = AXIS2_PLACEMENT_3D ( 'NONE', #221, #362, #129 ) ;
#212 = SECURITY_CLASSIFICATION_LEVEL ( 'unclassified' ) ;
#213 = DIRECTION ( 'NONE',  ( -0.000000000000000000, -0.000000000000000000, 1.000000000000000000 ) ) ;
#214 =( NAMED_UNIT ( * ) PLANE_ANGLE_UNIT ( ) SI_UNIT ( $, .RADIAN. ) );
#215 = PRODUCT ( '4d5a', '4d5a', '', ( #279 ) ) ;
#216 = ORIENTED_EDGE ( 'NONE', *, *, #91, .T. ) ;
#217 =( NAMED_UNIT ( * ) SI_UNIT ( $, .STERADIAN. ) SOLID_ANGLE_UNIT ( ) );
#218 = DIRECTION ( 'NONE',  ( -1.000000000000000000, 0.000000000000000000, 0.000000000000000000 ) ) ;
#219 = AXIS2_PLACEMENT_3D ( 'NONE', #344, #213, #258 ) ;
#220 = AXIS2_PLACEMENT_3D ( 'NONE', #44, #224, #290 ) ;
#221 = CARTESIAN_POINT ( 'NONE',  ( 0.000000000000000000, 0.000000000000000000, 0.000000000000000000 ) ) ;
#222 = CARTESIAN_POINT ( 'NONE',  ( 0.000000000000000000, 0.000000000000000000, -30.00000000000000000 ) ) ;
#223 = APPROVAL ( #1, 'NEURÈENÝ' ) ;
#224 = DIRECTION ( 'NONE',  ( -0.000000000000000000, -0.000000000000000000, 1.000000000000000000 ) ) ;
#225 = CYLINDRICAL_SURFACE ( 'NONE', #13, 11.00000000000000178 ) ;
#226 = DESIGN_CONTEXT ( 'detailed design', #312, 'design' ) ;
#227 = DIRECTION ( 'NONE',  ( 1.000000000000000000, 0.000000000000000000, 0.000000000000000000 ) ) ;
#228 = DIRECTION ( 'NONE',  ( 0.000000000000000000, 0.000000000000000000, -1.000000000000000000 ) ) ;
#229 = EDGE_CURVE ( 'NONE', #58, #53, #250, .T. ) ;
#230 = APPLICATION_PROTOCOL_DEFINITION ( 'international standard', 'config_control_design', 1994, #312 ) ;
#231 = AXIS2_PLACEMENT_3D ( 'NONE', #317, #324, #109 ) ;
#232 = ORIENTED_EDGE ( 'NONE', *, *, #313, .F. ) ;
#233 = DIRECTION ( 'NONE',  ( 1.000000000000000000, 0.000000000000000000, 0.000000000000000000 ) ) ;
#234 = CIRCLE ( 'NONE', #167, 0.5000000000000004441 ) ;
#235 = EDGE_CURVE ( 'NONE', #405, #162, #304, .T. ) ;
#236 = CC_DESIGN_SECURITY_CLASSIFICATION ( #347, ( #113 ) ) ;
#237 = PERSON_AND_ORGANIZATION_ROLE ( 'classification_officer' ) ;
#238 = DIRECTION ( 'NONE',  ( 1.000000000000000000, 0.000000000000000000, 0.000000000000000000 ) ) ;
#239 = CARTESIAN_POINT ( 'NONE',  ( -8.499999999999998224, 1.071565949253933927E-15, -5.500000000000000000 ) ) ;
#240 = EDGE_CURVE ( 'NONE', #87, #314, #151, .T. ) ;
#241 = DATE_TIME_ROLE ( 'classification_date' ) ;
#242 = ORIENTED_EDGE ( 'NONE', *, *, #330, .F. ) ;
#243 = PRODUCT_RELATED_PRODUCT_CATEGORY ( 'detail', '', ( #215 ) ) ;
#244 = AXIS2_PLACEMENT_3D ( 'NONE', #66, #78, #233 ) ;
#245 = AXIS2_PLACEMENT_3D ( 'NONE', #103, #228, #301 ) ;
#246 = DIRECTION ( 'NONE',  ( 1.000000000000000000, 0.000000000000000000, 0.000000000000000000 ) ) ;
#247 = EDGE_CURVE ( 'NONE', #323, #281, #173, .T. ) ;
#248 = MANIFOLD_SOLID_BREP ( 'Zkosení1', #335 ) ;
#249 = EDGE_LOOP ( 'NONE', ( #40, #395, #52, #10 ) ) ;
#250 = LINE ( 'NONE', #178, #199 ) ;
#251 = ORIENTED_EDGE ( 'NONE', *, *, #252, .F. ) ;
#252 = EDGE_CURVE ( 'NONE', #295, #388, #298, .T. ) ;
#253 = APPLICATION_CONTEXT ( 'configuration controlled 3d designs of mechanical parts and assemblies' ) ;
#254 = APPLICATION_PROTOCOL_DEFINITION ( 'international standard', 'config_control_design', 1994, #253 ) ;
#255 = DIRECTION ( 'NONE',  ( -1.000000000000000000, 0.000000000000000000, 0.000000000000000000 ) ) ;
#256 = ADVANCED_FACE ( 'NONE', ( #135 ), #225, .T. ) ;
#257 = FACE_OUTER_BOUND ( 'NONE', #130, .T. ) ;
#258 = DIRECTION ( 'NONE',  ( 1.000000000000000000, 0.000000000000000000, 0.000000000000000000 ) ) ;
#259 = ADVANCED_FACE ( 'NONE', ( #101 ), #266, .T. ) ;
#260 = DIRECTION ( 'NONE',  ( 1.000000000000000000, 0.000000000000000000, 0.000000000000000000 ) ) ;
#261 = DATE_AND_TIME ( #128, #146 ) ;
#262 = CARTESIAN_POINT ( 'NONE',  ( -9.000000000000000000, 1.102182119232617714E-15, -30.00000000000000000 ) ) ;
#263 = VERTEX_POINT ( 'NONE', #124 ) ;
#264 = CIRCLE ( 'NONE', #19, 0.5000000000000004441 ) ;
#265 = CALENDAR_DATE ( 2024, 2, 1 ) ;
#266 = CYLINDRICAL_SURFACE ( 'NONE', #291, 9.000000000000000000 ) ;
#267 = CC_DESIGN_PERSON_AND_ORGANIZATION_ASSIGNMENT ( #70, #237, ( #347 ) ) ;
#268 = CARTESIAN_POINT ( 'NONE',  ( 0.000000000000000000, 0.000000000000000000, -5.500000000000000000 ) ) ;
#269 = DIRECTION ( 'NONE',  ( -1.000000000000000000, -1.224646799147353454E-16, 0.000000000000000000 ) ) ;
#270 = AXIS2_PLACEMENT_3D ( 'NONE', #316, #184, #246 ) ;
#271 = CARTESIAN_POINT ( 'NONE',  ( -10.49999999999999467, 0.000000000000000000, 0.000000000000000000 ) ) ;
#272 = DIRECTION ( 'NONE',  ( 0.000000000000000000, 0.000000000000000000, -1.000000000000000000 ) ) ;
#273 = AXIS2_PLACEMENT_3D ( 'NONE', #367, #407, #27 ) ;
#274 = APPROVAL_PERSON_ORGANIZATION ( #302, #68, #329 ) ;
#275 = PERSON_AND_ORGANIZATION ( #181, #364 ) ;
#276 = ADVANCED_FACE ( 'NONE', ( #257 ), #188, .T. ) ;
#277 = CARTESIAN_POINT ( 'NONE',  ( 11.00000000000000178, 0.000000000000000000, -0.5000000000000125455 ) ) ;
#278 = AXIS2_PLACEMENT_3D ( 'NONE', #63, #37, #95 ) ;
#279 = MECHANICAL_CONTEXT ( 'NONE', #253, 'mechanical' ) ;
#280 = AXIS2_PLACEMENT_3D ( 'NONE', #342, #272, #82 ) ;
#281 = VERTEX_POINT ( 'NONE', #296 ) ;
#282 = CARTESIAN_POINT ( 'NONE',  ( -11.00000000000000178, 1.347111479062088602E-15, 0.000000000000000000 ) ) ;
#283 = DIRECTION ( 'NONE',  ( -0.000000000000000000, -0.000000000000000000, 1.000000000000000000 ) ) ;
#284 = CARTESIAN_POINT ( 'NONE',  ( 11.00000000000000000, 0.000000000000000000, -5.000000000000000000 ) ) ;
#285 = DIRECTION ( 'NONE',  ( 1.000000000000000000, 0.000000000000000000, 0.000000000000000000 ) ) ;
#286 = ADVANCED_FACE ( 'NONE', ( #17 ), #164, .T. ) ;
#287 = EDGE_LOOP ( 'NONE', ( #169, #351 ) ) ;
#288 = ORIENTED_EDGE ( 'NONE', *, *, #310, .T. ) ;
#289 = EDGE_LOOP ( 'NONE', ( #381, #172, #142, #108 ) ) ;
#290 = DIRECTION ( 'NONE',  ( -1.000000000000000000, 0.000000000000000000, 0.000000000000000000 ) ) ;
#291 = AXIS2_PLACEMENT_3D ( 'NONE', #74, #397, #260 ) ;
#292 = APPROVAL_STATUS ( 'not_yet_approved' ) ;
#293 = CARTESIAN_POINT ( 'NONE',  ( 10.49999999999999467, 1.316495309083404420E-15, 0.000000000000000000 ) ) ;
#294 = DIRECTION ( 'NONE',  ( -0.000000000000000000, -0.000000000000000000, 1.000000000000000000 ) ) ;
#295 = VERTEX_POINT ( 'NONE', #200 ) ;
#296 = CARTESIAN_POINT ( 'NONE',  ( 9.000000000000000000, 0.000000000000000000, -30.00000000000000000 ) ) ;
#297 = CARTESIAN_POINT ( 'NONE',  ( 9.000000000000000000, 1.102182119232617714E-15, -5.500000000000000000 ) ) ;
#298 = CIRCLE ( 'NONE', #133, 9.000000000000000000 ) ;
#299 = APPROVAL_PERSON_ORGANIZATION ( #275, #223, #111 ) ;
#300 = APPROVAL_DATE_TIME ( #384, #39 ) ;
#301 = DIRECTION ( 'NONE',  ( -1.000000000000000000, 0.000000000000000000, -0.000000000000000000 ) ) ;
#302 = PERSON_AND_ORGANIZATION ( #181, #364 ) ;
#303 = PERSON_AND_ORGANIZATION ( #181, #364 ) ;
#304 = CIRCLE ( 'NONE', #231, 10.49999999999999467 ) ;
#305 = AXIS2_PLACEMENT_3D ( 'NONE', #153, #123, #209 ) ;
#306 = CARTESIAN_POINT ( 'NONE',  ( 0.000000000000000000, 0.000000000000000000, 0.000000000000000000 ) ) ;
#307 = CC_DESIGN_DATE_AND_TIME_ASSIGNMENT ( #332, #69, ( #45 ) ) ;
#308 = ORIENTED_EDGE ( 'NONE', *, *, #96, .T. ) ;
#309 = CARTESIAN_POINT ( 'NONE',  ( 0.000000000000000000, 0.000000000000000000, -0.5000000000000125455 ) ) ;
#310 = EDGE_CURVE ( 'NONE', #314, #53, #34, .T. ) ;
#311 = DIRECTION ( 'NONE',  ( 0.000000000000000000, 0.000000000000000000, -1.000000000000000000 ) ) ;
#312 = APPLICATION_CONTEXT ( 'configuration controlled 3d designs of mechanical parts and assemblies' ) ;
#313 = EDGE_CURVE ( 'NONE', #263, #12, #59, .T. ) ;
#314 = VERTEX_POINT ( 'NONE', #193 ) ;
#315 = DIRECTION ( 'NONE',  ( 1.000000000000000000, 0.000000000000000000, 0.000000000000000000 ) ) ;
#316 = CARTESIAN_POINT ( 'NONE',  ( 0.000000000000000000, 0.000000000000000000, -5.500000000000000000 ) ) ;
#317 = CARTESIAN_POINT ( 'NONE',  ( 0.000000000000000000, 0.000000000000000000, 0.000000000000000000 ) ) ;
#318 = CONICAL_SURFACE ( 'NONE', #211, 10.49999999999999467, 0.7853981633974412846 ) ;
#319 = ORIENTED_EDGE ( 'NONE', *, *, #330, .T. ) ;
#320 = CYLINDRICAL_SURFACE ( 'NONE', #180, 9.000000000000000000 ) ;
#321 = CARTESIAN_POINT ( 'NONE',  ( 0.000000000000000000, 0.000000000000000000, 0.000000000000000000 ) ) ;
#322 = DIRECTION ( 'NONE',  ( -0.000000000000000000, -0.000000000000000000, 1.000000000000000000 ) ) ;
#323 = VERTEX_POINT ( 'NONE', #262 ) ;
#324 = DIRECTION ( 'NONE',  ( -0.000000000000000000, -0.000000000000000000, 1.000000000000000000 ) ) ;
#325 = EDGE_LOOP ( 'NONE', ( #92, #189 ) ) ;
#326 = LINE ( 'NONE', #389, #26 ) ;
#327 = DIRECTION ( 'NONE',  ( 0.000000000000000000, 0.000000000000000000, -1.000000000000000000 ) ) ;
#328 = CIRCLE ( 'NONE', #345, 0.5000000000000004441 ) ;
#329 = APPROVAL_ROLE ( '' ) ;
#330 = EDGE_CURVE ( 'NONE', #12, #263, #104, .T. ) ;
#331 = DIRECTION ( 'NONE',  ( 1.000000000000000000, 0.000000000000000000, 0.000000000000000000 ) ) ;
#332 = DATE_AND_TIME ( #75, #380 ) ;
#333 = DIRECTION ( 'NONE',  ( 0.000000000000000000, 0.000000000000000000, -1.000000000000000000 ) ) ;
#334 = ORIENTED_EDGE ( 'NONE', *, *, #235, .F. ) ;
#335 = CLOSED_SHELL ( 'NONE', ( #394, #369, #139, #259, #276, #286, #409, #256, #374, #403, #30, #337, #194 ) ) ;
#336 = AXIS2_PLACEMENT_3D ( 'NONE', #358, #148, #255 ) ;
#337 = ADVANCED_FACE ( 'NONE', ( #105 ), #93, .F. ) ;
#338 = CC_DESIGN_APPROVAL ( #39, ( #113 ) ) ;
#339 = CARTESIAN_POINT ( 'NONE',  ( 0.000000000000000000, 0.000000000000000000, 0.000000000000000000 ) ) ;
#340 = CARTESIAN_POINT ( 'NONE',  ( 8.499999999999998224, 0.000000000000000000, -5.500000000000000000 ) ) ;
#341 = DIRECTION ( 'NONE',  ( -0.000000000000000000, -0.000000000000000000, 1.000000000000000000 ) ) ;
#342 = CARTESIAN_POINT ( 'NONE',  ( 0.000000000000000000, 9.000000000000000000, -30.00000000000000000 ) ) ;
#343 = CIRCLE ( 'NONE', #107, 0.5000000000000004441 ) ;
#344 = CARTESIAN_POINT ( 'NONE',  ( 0.000000000000000000, 0.000000000000000000, -30.00000000000000000 ) ) ;
#345 = AXIS2_PLACEMENT_3D ( 'NONE', #206, #32, #353 ) ;
#346 = EDGE_CURVE ( 'NONE', #378, #12, #328, .T. ) ;
#347 = SECURITY_CLASSIFICATION ( '', '', #212 ) ;
#348 = ORIENTED_EDGE ( 'NONE', *, *, #240, .T. ) ;
#349 = ORIENTED_EDGE ( 'NONE', *, *, #134, .T. ) ;
#350 = CARTESIAN_POINT ( 'NONE',  ( 0.000000000000000000, 0.000000000000000000, 0.000000000000000000 ) ) ;
#351 = ORIENTED_EDGE ( 'NONE', *, *, #235, .T. ) ;
#352 = CIRCLE ( 'NONE', #47, 11.00000000000000178 ) ;
#353 = DIRECTION ( 'NONE',  ( 0.000000000000000000, 0.000000000000000000, -1.000000000000000000 ) ) ;
#354 = EDGE_LOOP ( 'NONE', ( #176, #349 ) ) ;
#355 = CIRCLE ( 'NONE', #67, 8.499999999999998224 ) ;
#356 = ORIENTED_EDGE ( 'NONE', *, *, #141, .T. ) ;
#357 = ORIENTED_EDGE ( 'NONE', *, *, #125, .T. ) ;
#358 = CARTESIAN_POINT ( 'NONE',  ( 0.000000000000000000, 0.000000000000000000, -5.500000000000000000 ) ) ;
#359 = CC_DESIGN_DATE_AND_TIME_ASSIGNMENT ( #152, #241, ( #347 ) ) ;
#360 = APPROVAL_STATUS ( 'not_yet_approved' ) ;
#361 = DIRECTION ( 'NONE',  ( 1.000000000000000000, 0.000000000000000000, 0.000000000000000000 ) ) ;
#362 = DIRECTION ( 'NONE',  ( 0.000000000000000000, 0.000000000000000000, -1.000000000000000000 ) ) ;
#363 = DIRECTION ( 'NONE',  ( 1.000000000000000000, 0.000000000000000000, 0.000000000000000000 ) ) ;
#364 = ORGANIZATION ( 'NEURÈENÝ', 'NEURÈENÝ', '' ) ;
#365 = DIRECTION ( 'NONE',  ( -0.000000000000000000, -0.000000000000000000, 1.000000000000000000 ) ) ;
#366 = COORDINATED_UNIVERSAL_TIME_OFFSET ( 1, 0, .AHEAD. ) ;
#367 = CARTESIAN_POINT ( 'NONE',  ( 0.000000000000000000, 0.000000000000000000, -6.000000000000000000 ) ) ;
#368 = ADVANCED_BREP_SHAPE_REPRESENTATION ( '4d5a', ( #248, #51 ), #138 ) ;
#369 = ADVANCED_FACE ( 'NONE', ( #77 ), #145, .F. ) ;
#370 = CARTESIAN_POINT ( 'NONE',  ( 0.000000000000000000, 0.000000000000000000, -5.500000000000000000 ) ) ;
#371 = LINE ( 'NONE', #197, #41 ) ;
#372 = APPROVAL_DATE_TIME ( #261, #68 ) ;
#373 = CC_DESIGN_PERSON_AND_ORGANIZATION_ASSIGNMENT ( #79, #48, ( #215 ) ) ;
#374 = ADVANCED_FACE ( 'NONE', ( #16, #398 ), #20, .T. ) ;
#375 = DIRECTION ( 'NONE',  ( -0.000000000000000000, -0.000000000000000000, 1.000000000000000000 ) ) ;
#376 = DIRECTION ( 'NONE',  ( 0.7071067811865425767, 8.659560562354873694E-17, -0.7071067811865525687 ) ) ;
#377 = CC_DESIGN_PERSON_AND_ORGANIZATION_ASSIGNMENT ( #396, #49, ( #113 ) ) ;
#378 = VERTEX_POINT ( 'NONE', #340 ) ;
#379 = CONICAL_SURFACE ( 'NONE', #156, 10.49999999999999467, 0.7853981633974412846 ) ;
#380 = LOCAL_TIME ( 22, 50, 12.00000000000000000, #366 ) ;
#381 = ORIENTED_EDGE ( 'NONE', *, *, #141, .F. ) ;
#382 = ORIENTED_EDGE ( 'NONE', *, *, #131, .F. ) ;
#383 = TOROIDAL_SURFACE ( 'NONE', #270, 9.000000000000000000, 0.5000000000000000000 ) ;
#384 = DATE_AND_TIME ( #265, #157 ) ;
#385 = AXIS2_PLACEMENT_3D ( 'NONE', #268, #333, #50 ) ;
#386 = CC_DESIGN_PERSON_AND_ORGANIZATION_ASSIGNMENT ( #118, #94, ( #113 ) ) ;
#387 = DIRECTION ( 'NONE',  ( 1.000000000000000000, 0.000000000000000000, 0.000000000000000000 ) ) ;
#388 = VERTEX_POINT ( 'NONE', #163 ) ;
#389 = CARTESIAN_POINT ( 'NONE',  ( -9.000000000000000000, 1.102182119232617714E-15, 0.000000000000000000 ) ) ;
#390 = DIRECTION ( 'NONE',  ( -0.000000000000000000, -0.000000000000000000, 1.000000000000000000 ) ) ;
#391 = CIRCLE ( 'NONE', #186, 10.49999999999999467 ) ;
#392 = DIRECTION ( 'NONE',  ( 1.000000000000000000, 0.000000000000000000, 0.000000000000000000 ) ) ;
#393 = COORDINATED_UNIVERSAL_TIME_OFFSET ( 1, 0, .AHEAD. ) ;
#394 = ADVANCED_FACE ( 'NONE', ( #98 ), #318, .T. ) ;
#395 = ORIENTED_EDGE ( 'NONE', *, *, #73, .T. ) ;
#396 = PERSON_AND_ORGANIZATION ( #181, #364 ) ;
#397 = DIRECTION ( 'NONE',  ( -0.000000000000000000, -0.000000000000000000, 1.000000000000000000 ) ) ;
#398 = FACE_OUTER_BOUND ( 'NONE', #325, .T. ) ;
#399 = CIRCLE ( 'NONE', #220, 9.000000000000000000 ) ;
#400 = CARTESIAN_POINT ( 'NONE',  ( -9.000000000000000000, 1.102182119232617714E-15, -5.500000000000000000 ) ) ;
#401 = VECTOR ( 'NONE', #376, 999.9999999999998863 ) ;
#402 = CC_DESIGN_APPROVAL ( #223, ( #347 ) ) ;
#403 = ADVANCED_FACE ( 'NONE', ( #191 ), #320, .T. ) ;
#404 = DIRECTION ( 'NONE',  ( -0.000000000000000000, -0.000000000000000000, 1.000000000000000000 ) ) ;
#405 = VERTEX_POINT ( 'NONE', #293 ) ;
#406 = DIRECTION ( 'NONE',  ( -1.224646799147353207E-16, 1.000000000000000000, 0.000000000000000000 ) ) ;
#407 = DIRECTION ( 'NONE',  ( -0.000000000000000000, -0.000000000000000000, 1.000000000000000000 ) ) ;
#408 = AXIS2_PLACEMENT_3D ( 'NONE', #222, #294, #392 ) ;
#409 = ADVANCED_FACE ( 'NONE', ( #207 ), #115, .T. ) ;
ENDSEC;
END-ISO-10303-21;
