ISO-10303-21;
HEADER;
FILE_DESCRIPTION (( 'STEP AP203' ),
    '1' );
FILE_NAME ('2e7d.STEP',
    '2024-01-02T21:51:04',
    ( '' ),
    ( '' ),
    'SwSTEP 2.0',
    'SolidWorks 2019',
    '' );
FILE_SCHEMA (( 'CONFIG_CONTROL_DESIGN' ));
ENDSEC;

DATA;
#1 = CARTESIAN_POINT ( 'NONE',  ( 9.000000000000000000, 0.000000000000000000, 0.000000000000000000 ) ) ;
#2 = ORIENTED_EDGE ( 'NONE', *, *, #257, .F. ) ;
#3 = CYLINDRICAL_SURFACE ( 'NONE', #198, 9.000000000000000000 ) ;
#4 = ORIENTED_EDGE ( 'NONE', *, *, #91, .T. ) ;
#5 = VERTEX_POINT ( 'NONE', #200 ) ;
#6 = CIRCLE ( 'NONE', #284, 9.000000000000000000 ) ;
#7 = PRODUCT_DEFINITION ( 'NEZNÁMÝ', '', #360, #387 ) ;
#8 = CIRCLE ( 'NONE', #303, 9.000000000000000000 ) ;
#9 = ORIENTED_EDGE ( 'NONE', *, *, #23, .T. ) ;
#10 = CONICAL_SURFACE ( 'NONE', #343, 10.50000000000000533, 0.7853981633974482790 ) ;
#11 = DATE_TIME_ROLE ( 'classification_date' ) ;
#12 = CARTESIAN_POINT ( 'NONE',  ( -9.000000000000000000, 0.000000000000000000, -5.500000000000000000 ) ) ;
#13 = EDGE_CURVE ( 'NONE', #67, #270, #402, .T. ) ;
#14 = DIRECTION ( 'NONE',  ( -1.000000000000000000, 0.000000000000000000, -0.000000000000000000 ) ) ;
#15 = VERTEX_POINT ( 'NONE', #21 ) ;
#16 = VERTEX_POINT ( 'NONE', #144 ) ;
#17 = CIRCLE ( 'NONE', #130, 11.00000000000000178 ) ;
#18 = LINE ( 'NONE', #50, #203 ) ;
#19 = DIRECTION ( 'NONE',  ( 1.000000000000000000, 0.000000000000000000, 0.000000000000000000 ) ) ;
#20 = EDGE_LOOP ( 'NONE', ( #166, #353, #404, #82 ) ) ;
#21 = CARTESIAN_POINT ( 'NONE',  ( 11.00000000000000178, 0.000000000000000000, -0.4999999999999952260 ) ) ;
#22 = DIRECTION ( 'NONE',  ( 1.000000000000000000, 0.000000000000000000, 0.000000000000000000 ) ) ;
#23 = EDGE_CURVE ( 'NONE', #15, #191, #17, .T. ) ;
#24 = CARTESIAN_POINT ( 'NONE',  ( -11.00000000000000000, 1.347111479062088602E-15, -5.000000000000000000 ) ) ;
#25 = FACE_OUTER_BOUND ( 'NONE', #210, .T. ) ;
#26 = CALENDAR_DATE ( 2024, 2, 1 ) ;
#27 = CC_DESIGN_PERSON_AND_ORGANIZATION_ASSIGNMENT ( #306, #88, ( #360 ) ) ;
#28 = DIRECTION ( 'NONE',  ( -0.000000000000000000, -0.000000000000000000, 1.000000000000000000 ) ) ;
#29 = AXIS2_PLACEMENT_3D ( 'NONE', #379, #116, #250 ) ;
#30 = FACE_OUTER_BOUND ( 'NONE', #109, .T. ) ;
#31 = CARTESIAN_POINT ( 'NONE',  ( 0.000000000000000000, 0.000000000000000000, 0.000000000000000000 ) ) ;
#32 = DIRECTION ( 'NONE',  ( 1.000000000000000000, 0.000000000000000000, 0.000000000000000000 ) ) ;
#33 = EDGE_LOOP ( 'NONE', ( #363, #279, #157, #244 ) ) ;
#34 = CARTESIAN_POINT ( 'NONE',  ( -10.50000000000000533, 0.000000000000000000, 0.000000000000000000 ) ) ;
#35 = PERSON_AND_ORGANIZATION ( #155, #309 ) ;
#36 = DIRECTION ( 'NONE',  ( 1.000000000000000000, 0.000000000000000000, 0.000000000000000000 ) ) ;
#37 = CIRCLE ( 'NONE', #259, 9.000000000000000000 ) ;
#38 = CARTESIAN_POINT ( 'NONE',  ( 9.000000000000000000, 0.000000000000000000, -5.500000000000000000 ) ) ;
#39 = CC_DESIGN_APPROVAL ( #241, ( #57 ) ) ;
#40 = ORIENTED_EDGE ( 'NONE', *, *, #184, .F. ) ;
#41 = DIRECTION ( 'NONE',  ( -1.224646799147353207E-16, 1.000000000000000000, 0.000000000000000000 ) ) ;
#42 = CC_DESIGN_DATE_AND_TIME_ASSIGNMENT ( #364, #207, ( #7 ) ) ;
#43 = FACE_OUTER_BOUND ( 'NONE', #340, .T. ) ;
#44 = DIRECTION ( 'NONE',  ( 0.000000000000000000, -1.000000000000000000, 0.000000000000000000 ) ) ;
#45 = CARTESIAN_POINT ( 'NONE',  ( 0.000000000000000000, 0.000000000000000000, -5.500000000000000000 ) ) ;
#46 = ORIENTED_EDGE ( 'NONE', *, *, #257, .T. ) ;
#47 = CC_DESIGN_PERSON_AND_ORGANIZATION_ASSIGNMENT ( #393, #237, ( #7 ) ) ;
#48 = DIRECTION ( 'NONE',  ( 1.000000000000000000, 0.000000000000000000, 0.000000000000000000 ) ) ;
#49 = AXIS2_PLACEMENT_3D ( 'NONE', #187, #138, #70 ) ;
#50 = CARTESIAN_POINT ( 'NONE',  ( 10.50000000000000533, 1.285879139104721619E-15, 0.000000000000000000 ) ) ;
#51 = EDGE_CURVE ( 'NONE', #16, #264, #6, .T. ) ;
#52 = DIRECTION ( 'NONE',  ( 1.000000000000000000, 0.000000000000000000, 0.000000000000000000 ) ) ;
#53 = ORIENTED_EDGE ( 'NONE', *, *, #249, .T. ) ;
#54 = DIRECTION ( 'NONE',  ( -0.000000000000000000, -0.000000000000000000, 1.000000000000000000 ) ) ;
#55 = CARTESIAN_POINT ( 'NONE',  ( -8.499999999999998224, 1.071565949253933927E-15, -5.500000000000000000 ) ) ;
#56 = DIRECTION ( 'NONE',  ( 1.000000000000000000, 0.000000000000000000, 0.000000000000000000 ) ) ;
#57 = SECURITY_CLASSIFICATION ( '', '', #185 ) ;
#58 = CARTESIAN_POINT ( 'NONE',  ( 11.00000000000000178, 0.000000000000000000, 0.000000000000000000 ) ) ;
#59 = DIRECTION ( 'NONE',  ( -0.000000000000000000, -0.000000000000000000, 1.000000000000000000 ) ) ;
#60 = CARTESIAN_POINT ( 'NONE',  ( 8.499999999999998224, 0.000000000000000000, -5.500000000000000000 ) ) ;
#61 = DIRECTION ( 'NONE',  ( -0.000000000000000000, -0.000000000000000000, 1.000000000000000000 ) ) ;
#62 =( GEOMETRIC_REPRESENTATION_CONTEXT ( 3 ) GLOBAL_UNCERTAINTY_ASSIGNED_CONTEXT ( ( #374 ) ) GLOBAL_UNIT_ASSIGNED_CONTEXT ( ( #258, #75, #330 ) ) REPRESENTATION_CONTEXT ( 'NONE', 'WORKASPACE' ) );
#63 = VERTEX_POINT ( 'NONE', #24 ) ;
#64 = VERTEX_POINT ( 'NONE', #384 ) ;
#65 = DIRECTION ( 'NONE',  ( 1.000000000000000000, 0.000000000000000000, 0.000000000000000000 ) ) ;
#66 = DIRECTION ( 'NONE',  ( -1.000000000000000000, 0.000000000000000000, -0.000000000000000000 ) ) ;
#67 = VERTEX_POINT ( 'NONE', #255 ) ;
#68 = ORIENTED_EDGE ( 'NONE', *, *, #179, .F. ) ;
#69 = DIRECTION ( 'NONE',  ( -0.000000000000000000, -0.000000000000000000, 1.000000000000000000 ) ) ;
#70 = DIRECTION ( 'NONE',  ( -1.000000000000000000, 0.000000000000000000, 0.000000000000000000 ) ) ;
#71 = AXIS2_PLACEMENT_3D ( 'NONE', #45, #329, #73 ) ;
#72 = AXIS2_PLACEMENT_3D ( 'NONE', #151, #28, #254 ) ;
#73 = DIRECTION ( 'NONE',  ( 1.000000000000000000, 0.000000000000000000, 0.000000000000000000 ) ) ;
#74 = VERTEX_POINT ( 'NONE', #95 ) ;
#75 =( NAMED_UNIT ( * ) PLANE_ANGLE_UNIT ( ) SI_UNIT ( $, .RADIAN. ) );
#76 = ORIENTED_EDGE ( 'NONE', *, *, #51, .T. ) ;
#77 = AXIS2_PLACEMENT_3D ( 'NONE', #113, #230, #65 ) ;
#78 = PERSON_AND_ORGANIZATION ( #155, #309 ) ;
#79 = ADVANCED_FACE ( 'NONE', ( #84 ), #223, .F. ) ;
#80 = DIRECTION ( 'NONE',  ( -1.000000000000000000, 0.000000000000000000, 0.000000000000000000 ) ) ;
#81 = ORIENTED_EDGE ( 'NONE', *, *, #390, .T. ) ;
#82 = ORIENTED_EDGE ( 'NONE', *, *, #23, .F. ) ;
#83 = APPLICATION_PROTOCOL_DEFINITION ( 'international standard', 'config_control_design', 1994, #153 ) ;
#84 = FACE_OUTER_BOUND ( 'NONE', #167, .T. ) ;
#85 = DIRECTION ( 'NONE',  ( 1.000000000000000000, 0.000000000000000000, 0.000000000000000000 ) ) ;
#86 = FACE_OUTER_BOUND ( 'NONE', #20, .T. ) ;
#87 = CIRCLE ( 'NONE', #320, 0.5000000000000004441 ) ;
#88 = PERSON_AND_ORGANIZATION_ROLE ( 'design_supplier' ) ;
#89 = VECTOR ( 'NONE', #285, 1000.000000000000000 ) ;
#90 = CARTESIAN_POINT ( 'NONE',  ( 9.000000000000000000, 0.000000000000000000, -27.00000000000000000 ) ) ;
#91 = EDGE_CURVE ( 'NONE', #373, #292, #370, .T. ) ;
#92 = APPROVAL_PERSON_ORGANIZATION ( #173, #311, #269 ) ;
#93 = FACE_BOUND ( 'NONE', #350, .T. ) ;
#94 = CARTESIAN_POINT ( 'NONE',  ( -9.000000000000000000, 0.000000000000000000, -4.999999999999999112 ) ) ;
#95 = CARTESIAN_POINT ( 'NONE',  ( -9.000000000000000000, 1.102182119232617714E-15, -27.00000000000000000 ) ) ;
#96 = ADVANCED_FACE ( 'NONE', ( #43 ), #159, .F. ) ;
#97 = DIRECTION ( 'NONE',  ( 0.000000000000000000, 0.000000000000000000, -1.000000000000000000 ) ) ;
#98 = EDGE_LOOP ( 'NONE', ( #231, #369, #238, #400 ) ) ;
#99 = ORIENTED_EDGE ( 'NONE', *, *, #249, .F. ) ;
#100 = FACE_OUTER_BOUND ( 'NONE', #133, .T. ) ;
#101 = EDGE_LOOP ( 'NONE', ( #368, #143, #172, #76 ) ) ;
#102 = CIRCLE ( 'NONE', #338, 11.00000000000000000 ) ;
#103 = ORIENTED_EDGE ( 'NONE', *, *, #316, .T. ) ;
#104 = COORDINATED_UNIVERSAL_TIME_OFFSET ( 1, 0, .AHEAD. ) ;
#105 = DIRECTION ( 'NONE',  ( 1.000000000000000000, 0.000000000000000000, 0.000000000000000000 ) ) ;
#106 = DATE_AND_TIME ( #367, #253 ) ;
#107 = CIRCLE ( 'NONE', #226, 0.5000000000000004441 ) ;
#108 = DATE_AND_TIME ( #265, #150 ) ;
#109 = EDGE_LOOP ( 'NONE', ( #68, #236 ) ) ;
#110 = EDGE_CURVE ( 'NONE', #373, #267, #87, .T. ) ;
#111 = CARTESIAN_POINT ( 'NONE',  ( 0.000000000000000000, 0.000000000000000000, -6.000000000000000000 ) ) ;
#112 = AXIS2_PLACEMENT_3D ( 'NONE', #31, #183, #22 ) ;
#113 = CARTESIAN_POINT ( 'NONE',  ( 0.000000000000000000, 0.000000000000000000, 0.000000000000000000 ) ) ;
#114 = ORIENTED_EDGE ( 'NONE', *, *, #110, .T. ) ;
#115 = DIRECTION ( 'NONE',  ( -0.7071067811865474617, 0.000000000000000000, -0.7071067811865474617 ) ) ;
#116 = DIRECTION ( 'NONE',  ( -0.000000000000000000, -0.000000000000000000, 1.000000000000000000 ) ) ;
#117 = AXIS2_PLACEMENT_3D ( 'NONE', #386, #54, #85 ) ;
#118 = DIRECTION ( 'NONE',  ( -0.000000000000000000, -0.000000000000000000, 1.000000000000000000 ) ) ;
#119 = CC_DESIGN_APPROVAL ( #311, ( #360 ) ) ;
#120 = ADVANCED_FACE ( 'NONE', ( #406 ), #212, .T. ) ;
#121 = DIRECTION ( 'NONE',  ( -0.000000000000000000, -0.000000000000000000, 1.000000000000000000 ) ) ;
#122 = DIRECTION ( 'NONE',  ( 1.000000000000000000, 0.000000000000000000, 0.000000000000000000 ) ) ;
#123 = DIRECTION ( 'NONE',  ( 1.000000000000000000, 0.000000000000000000, 0.000000000000000000 ) ) ;
#124 = CARTESIAN_POINT ( 'NONE',  ( 0.000000000000000000, 0.000000000000000000, 0.000000000000000000 ) ) ;
#125 = APPROVAL_PERSON_ORGANIZATION ( #277, #362, #339 ) ;
#126 = DIRECTION ( 'NONE',  ( -1.000000000000000000, -1.224646799147353454E-16, 0.000000000000000000 ) ) ;
#127 = EDGE_CURVE ( 'NONE', #270, #15, #18, .T. ) ;
#128 = PERSON_AND_ORGANIZATION ( #155, #309 ) ;
#129 = FACE_OUTER_BOUND ( 'NONE', #365, .T. ) ;
#130 = AXIS2_PLACEMENT_3D ( 'NONE', #213, #310, #36 ) ;
#131 = DIRECTION ( 'NONE',  ( -0.000000000000000000, -0.000000000000000000, 1.000000000000000000 ) ) ;
#132 = DIRECTION ( 'NONE',  ( 0.000000000000000000, 0.000000000000000000, -1.000000000000000000 ) ) ;
#133 = EDGE_LOOP ( 'NONE', ( #288, #145, #276, #99 ) ) ;
#134 = COORDINATED_UNIVERSAL_TIME_OFFSET ( 1, 0, .AHEAD. ) ;
#135 = ORIENTED_EDGE ( 'NONE', *, *, #220, .F. ) ;
#136 = EDGE_CURVE ( 'NONE', #191, #15, #357, .T. ) ;
#137 = APPROVAL_DATE_TIME ( #108, #362 ) ;
#138 = DIRECTION ( 'NONE',  ( 0.000000000000000000, 0.000000000000000000, -1.000000000000000000 ) ) ;
#139 = ORIENTED_EDGE ( 'NONE', *, *, #256, .F. ) ;
#140 = DIRECTION ( 'NONE',  ( 0.7071067811865474617, 8.659560562354932858E-17, -0.7071067811865474617 ) ) ;
#141 = AXIS2_PLACEMENT_3D ( 'NONE', #205, #131, #105 ) ;
#142 = AXIS2_PLACEMENT_3D ( 'NONE', #290, #59, #318 ) ;
#143 = ORIENTED_EDGE ( 'NONE', *, *, #190, .F. ) ;
#144 = CARTESIAN_POINT ( 'NONE',  ( 9.000000000000000000, 0.000000000000000000, -6.000000000000000000 ) ) ;
#145 = ORIENTED_EDGE ( 'NONE', *, *, #184, .T. ) ;
#146 = CARTESIAN_POINT ( 'NONE',  ( 0.000000000000000000, 0.000000000000000000, -5.000000000000000000 ) ) ;
#147 = ADVANCED_FACE ( 'NONE', ( #93, #30 ), #315, .T. ) ;
#148 = DIRECTION ( 'NONE',  ( 0.000000000000000000, 0.000000000000000000, -1.000000000000000000 ) ) ;
#149 = CIRCLE ( 'NONE', #29, 11.00000000000000000 ) ;
#150 = LOCAL_TIME ( 22, 51, 4.000000000000000000, #134 ) ;
#151 = CARTESIAN_POINT ( 'NONE',  ( 0.000000000000000000, 0.000000000000000000, -5.000000000000000000 ) ) ;
#152 = DIRECTION ( 'NONE',  ( -0.000000000000000000, -0.000000000000000000, 1.000000000000000000 ) ) ;
#153 = APPLICATION_CONTEXT ( 'configuration controlled 3d designs of mechanical parts and assemblies' ) ;
#154 = LINE ( 'NONE', #201, #239 ) ;
#155 = PERSON ( 'NEURÈENÝ', 'NEURÈENÝ', 'NEURÈENÝ', ('NEURÈENÝ'), ('NEURÈENÝ'), ('NEURÈENÝ') ) ;
#156 = DIRECTION ( 'NONE',  ( -0.000000000000000000, -0.000000000000000000, 1.000000000000000000 ) ) ;
#157 = ORIENTED_EDGE ( 'NONE', *, *, #136, .F. ) ;
#158 = ADVANCED_BREP_SHAPE_REPRESENTATION ( '2e7d', ( #352, #77 ), #62 ) ;
#159 = TOROIDAL_SURFACE ( 'NONE', #271, 9.000000000000000000, 0.5000000000000000000 ) ;
#160 = AXIS2_PLACEMENT_3D ( 'NONE', #227, #283, #194 ) ;
#161 = AXIS2_PLACEMENT_3D ( 'NONE', #314, #351, #380 ) ;
#162 = FACE_OUTER_BOUND ( 'NONE', #33, .T. ) ;
#163 = APPROVAL_ROLE ( '' ) ;
#164 = ADVANCED_FACE ( 'NONE', ( #252 ), #408, .F. ) ;
#165 = PRODUCT ( '2e7d', '2e7d', '', ( #361 ) ) ;
#166 = ORIENTED_EDGE ( 'NONE', *, *, #127, .F. ) ;
#167 = EDGE_LOOP ( 'NONE', ( #234, #229, #114, #2 ) ) ;
#168 = VECTOR ( 'NONE', #115, 1000.000000000000114 ) ;
#169 = DIRECTION ( 'NONE',  ( 0.000000000000000000, 0.000000000000000000, -1.000000000000000000 ) ) ;
#170 = AXIS2_PLACEMENT_3D ( 'NONE', #296, #300, #14 ) ;
#171 = EDGE_CURVE ( 'NONE', #63, #5, #102, .T. ) ;
#172 = ORIENTED_EDGE ( 'NONE', *, *, #319, .T. ) ;
#173 = PERSON_AND_ORGANIZATION ( #155, #309 ) ;
#174 = ORIENTED_EDGE ( 'NONE', *, *, #13, .T. ) ;
#175 = FACE_OUTER_BOUND ( 'NONE', #328, .T. ) ;
#176 = PERSON_AND_ORGANIZATION_ROLE ( 'creator' ) ;
#177 = DIRECTION ( 'NONE',  ( 0.000000000000000000, 0.000000000000000000, -1.000000000000000000 ) ) ;
#178 = AXIS2_PLACEMENT_3D ( 'NONE', #289, #97, #66 ) ;
#179 = EDGE_CURVE ( 'NONE', #5, #63, #149, .T. ) ;
#180 = CARTESIAN_POINT ( 'NONE',  ( 0.000000000000000000, 0.000000000000000000, -0.4999999999999952260 ) ) ;
#181 = LOCAL_TIME ( 22, 51, 4.000000000000000000, #104 ) ;
#182 = ORIENTED_EDGE ( 'NONE', *, *, #171, .T. ) ;
#183 = DIRECTION ( 'NONE',  ( -0.000000000000000000, -0.000000000000000000, 1.000000000000000000 ) ) ;
#184 = EDGE_CURVE ( 'NONE', #63, #191, #154, .T. ) ;
#185 = SECURITY_CLASSIFICATION_LEVEL ( 'unclassified' ) ;
#186 = CC_DESIGN_DATE_AND_TIME_ASSIGNMENT ( #326, #11, ( #57 ) ) ;
#187 = CARTESIAN_POINT ( 'NONE',  ( 0.000000000000000000, 0.000000000000000000, -5.500000000000000000 ) ) ;
#188 = CLOSED_SHELL ( 'NONE', ( #331, #96, #164, #120, #294, #332, #346, #405, #147, #195, #297, #79, #224 ) ) ;
#189 = CONICAL_SURFACE ( 'NONE', #345, 10.50000000000000533, 0.7853981633974482790 ) ;
#190 = EDGE_CURVE ( 'NONE', #292, #373, #403, .T. ) ;
#191 = VERTEX_POINT ( 'NONE', #349 ) ;
#192 = CIRCLE ( 'NONE', #397, 9.000000000000000000 ) ;
#193 = DIRECTION ( 'NONE',  ( -0.000000000000000000, -0.000000000000000000, 1.000000000000000000 ) ) ;
#194 = DIRECTION ( 'NONE',  ( -1.000000000000000000, 1.224646799147353454E-16, 0.000000000000000000 ) ) ;
#195 = ADVANCED_FACE ( 'NONE', ( #25 ), #3, .T. ) ;
#196 = DIRECTION ( 'NONE',  ( 1.000000000000000000, 0.000000000000000000, 0.000000000000000000 ) ) ;
#197 = CYLINDRICAL_SURFACE ( 'NONE', #112, 11.00000000000000178 ) ;
#198 = AXIS2_PLACEMENT_3D ( 'NONE', #376, #121, #123 ) ;
#199 = LINE ( 'NONE', #34, #168 ) ;
#200 = CARTESIAN_POINT ( 'NONE',  ( 11.00000000000000000, 0.000000000000000000, -5.000000000000000000 ) ) ;
#201 = CARTESIAN_POINT ( 'NONE',  ( -11.00000000000000178, 1.347111479062088602E-15, 0.000000000000000000 ) ) ;
#202 = ORIENTED_EDGE ( 'NONE', *, *, #390, .F. ) ;
#203 = VECTOR ( 'NONE', #140, 1000.000000000000114 ) ;
#204 = FACE_OUTER_BOUND ( 'NONE', #261, .T. ) ;
#205 = CARTESIAN_POINT ( 'NONE',  ( 0.000000000000000000, 0.000000000000000000, 0.000000000000000000 ) ) ;
#206 = ORIENTED_EDGE ( 'NONE', *, *, #220, .T. ) ;
#207 = DATE_TIME_ROLE ( 'creation_date' ) ;
#208 = CARTESIAN_POINT ( 'NONE',  ( 0.000000000000000000, 0.000000000000000000, 0.000000000000000000 ) ) ;
#209 = CARTESIAN_POINT ( 'NONE',  ( 0.000000000000000000, 0.000000000000000000, 0.000000000000000000 ) ) ;
#210 = EDGE_LOOP ( 'NONE', ( #262, #354, #281, #202 ) ) ;
#211 = CC_DESIGN_PERSON_AND_ORGANIZATION_ASSIGNMENT ( #341, #282, ( #57 ) ) ;
#212 = CYLINDRICAL_SURFACE ( 'NONE', #377, 9.000000000000000000 ) ;
#213 = CARTESIAN_POINT ( 'NONE',  ( 0.000000000000000000, 0.000000000000000000, -0.4999999999999952260 ) ) ;
#214 = DIRECTION ( 'NONE',  ( -1.000000000000000000, 0.000000000000000000, 0.000000000000000000 ) ) ;
#215 = VECTOR ( 'NONE', #118, 1000.000000000000000 ) ;
#216 = COORDINATED_UNIVERSAL_TIME_OFFSET ( 1, 0, .AHEAD. ) ;
#217 = EDGE_CURVE ( 'NONE', #67, #191, #199, .T. ) ;
#218 = CARTESIAN_POINT ( 'NONE',  ( 0.000000000000000000, 0.000000000000000000, -27.00000000000000000 ) ) ;
#219 = APPROVAL_PERSON_ORGANIZATION ( #128, #241, #163 ) ;
#220 = EDGE_CURVE ( 'NONE', #267, #64, #322, .T. ) ;
#221 = LINE ( 'NONE', #313, #89 ) ;
#222 = CARTESIAN_POINT ( 'NONE',  ( -9.000000000000000000, 1.102182119232617714E-15, -6.000000000000000000 ) ) ;
#223 = TOROIDAL_SURFACE ( 'NONE', #49, 9.000000000000000000, 0.5000000000000000000 ) ;
#224 = ADVANCED_FACE ( 'NONE', ( #86 ), #189, .T. ) ;
#225 = CARTESIAN_POINT ( 'NONE',  ( 0.000000000000000000, 0.000000000000000000, -6.000000000000000000 ) ) ;
#226 = AXIS2_PLACEMENT_3D ( 'NONE', #38, #44, #132 ) ;
#227 = CARTESIAN_POINT ( 'NONE',  ( -9.000000000000000000, 1.102182119232617714E-15, -5.500000000000000000 ) ) ;
#228 = CC_DESIGN_PERSON_AND_ORGANIZATION_ASSIGNMENT ( #35, #358, ( #165 ) ) ;
#229 = ORIENTED_EDGE ( 'NONE', *, *, #190, .T. ) ;
#230 = DIRECTION ( 'NONE',  ( 0.000000000000000000, 0.000000000000000000, 1.000000000000000000 ) ) ;
#231 = ORIENTED_EDGE ( 'NONE', *, *, #256, .T. ) ;
#232 = APPROVAL_STATUS ( 'not_yet_approved' ) ;
#233 = AXIS2_PLACEMENT_3D ( 'NONE', #248, #407, #32 ) ;
#234 = ORIENTED_EDGE ( 'NONE', *, *, #316, .F. ) ;
#235 = SHAPE_DEFINITION_REPRESENTATION ( #317, #158 ) ;
#236 = ORIENTED_EDGE ( 'NONE', *, *, #171, .F. ) ;
#237 = PERSON_AND_ORGANIZATION_ROLE ( 'creator' ) ;
#238 = ORIENTED_EDGE ( 'NONE', *, *, #51, .F. ) ;
#239 = VECTOR ( 'NONE', #156, 1000.000000000000000 ) ;
#240 = APPROVAL_DATE_TIME ( #106, #311 ) ;
#241 = APPROVAL ( #232, 'NEURÈENÝ' ) ;
#242 = COORDINATED_UNIVERSAL_TIME_OFFSET ( 1, 0, .AHEAD. ) ;
#243 = EDGE_CURVE ( 'NONE', #74, #247, #8, .T. ) ;
#244 = ORIENTED_EDGE ( 'NONE', *, *, #217, .F. ) ;
#245 = CC_DESIGN_PERSON_AND_ORGANIZATION_ASSIGNMENT ( #78, #176, ( #360 ) ) ;
#246 = CARTESIAN_POINT ( 'NONE',  ( 0.000000000000000000, 0.000000000000000000, -5.500000000000000000 ) ) ;
#247 = VERTEX_POINT ( 'NONE', #90 ) ;
#248 = CARTESIAN_POINT ( 'NONE',  ( 0.000000000000000000, 0.000000000000000000, -5.500000000000000000 ) ) ;
#249 = EDGE_CURVE ( 'NONE', #5, #15, #347, .T. ) ;
#250 = DIRECTION ( 'NONE',  ( 1.000000000000000000, 0.000000000000000000, 0.000000000000000000 ) ) ;
#251 = TOROIDAL_SURFACE ( 'NONE', #71, 9.000000000000000000, 0.5000000000000000000 ) ;
#252 = FACE_OUTER_BOUND ( 'NONE', #302, .T. ) ;
#253 = LOCAL_TIME ( 22, 51, 4.000000000000000000, #395 ) ;
#254 = DIRECTION ( 'NONE',  ( -1.000000000000000000, 0.000000000000000000, 0.000000000000000000 ) ) ;
#255 = CARTESIAN_POINT ( 'NONE',  ( -10.50000000000000533, 0.000000000000000000, 0.000000000000000000 ) ) ;
#256 = EDGE_CURVE ( 'NONE', #247, #74, #293, .T. ) ;
#257 = EDGE_CURVE ( 'NONE', #64, #267, #192, .T. ) ;
#258 =( LENGTH_UNIT ( ) NAMED_UNIT ( * ) SI_UNIT ( .MILLI., .METRE. ) );
#259 = AXIS2_PLACEMENT_3D ( 'NONE', #225, #69, #324 ) ;
#260 = EDGE_CURVE ( 'NONE', #373, #264, #273, .T. ) ;
#261 = EDGE_LOOP ( 'NONE', ( #139, #391 ) ) ;
#262 = ORIENTED_EDGE ( 'NONE', *, *, #263, .F. ) ;
#263 = EDGE_CURVE ( 'NONE', #74, #264, #221, .T. ) ;
#264 = VERTEX_POINT ( 'NONE', #222 ) ;
#265 = CALENDAR_DATE ( 2024, 2, 1 ) ;
#266 = DIRECTION ( 'NONE',  ( -0.000000000000000000, -0.000000000000000000, 1.000000000000000000 ) ) ;
#267 = VERTEX_POINT ( 'NONE', #94 ) ;
#268 = EDGE_CURVE ( 'NONE', #247, #16, #409, .T. ) ;
#269 = APPROVAL_ROLE ( '' ) ;
#270 = VERTEX_POINT ( 'NONE', #383 ) ;
#271 = AXIS2_PLACEMENT_3D ( 'NONE', #278, #401, #80 ) ;
#272 = APPLICATION_PROTOCOL_DEFINITION ( 'international standard', 'config_control_design', 1994, #275 ) ;
#273 = CIRCLE ( 'NONE', #160, 0.5000000000000004441 ) ;
#274 = PLANE ( 'NONE',  #378 ) ;
#275 = APPLICATION_CONTEXT ( 'configuration controlled 3d designs of mechanical parts and assemblies' ) ;
#276 = ORIENTED_EDGE ( 'NONE', *, *, #136, .T. ) ;
#277 = PERSON_AND_ORGANIZATION ( #155, #309 ) ;
#278 = CARTESIAN_POINT ( 'NONE',  ( 0.000000000000000000, 0.000000000000000000, -5.500000000000000000 ) ) ;
#279 = ORIENTED_EDGE ( 'NONE', *, *, #127, .T. ) ;
#280 = FACE_OUTER_BOUND ( 'NONE', #101, .T. ) ;
#281 = ORIENTED_EDGE ( 'NONE', *, *, #268, .T. ) ;
#282 = PERSON_AND_ORGANIZATION_ROLE ( 'classification_officer' ) ;
#283 = DIRECTION ( 'NONE',  ( 1.224646799147353207E-16, 1.000000000000000000, 0.000000000000000000 ) ) ;
#284 = AXIS2_PLACEMENT_3D ( 'NONE', #111, #152, #122 ) ;
#285 = DIRECTION ( 'NONE',  ( -0.000000000000000000, -0.000000000000000000, 1.000000000000000000 ) ) ;
#286 = DIRECTION ( 'NONE',  ( -1.000000000000000000, 0.000000000000000000, 0.000000000000000000 ) ) ;
#287 = LOCAL_TIME ( 22, 51, 4.000000000000000000, #216 ) ;
#288 = ORIENTED_EDGE ( 'NONE', *, *, #179, .T. ) ;
#289 = CARTESIAN_POINT ( 'NONE',  ( 0.000000000000000000, 11.00000000000000000, -5.000000000000000000 ) ) ;
#290 = CARTESIAN_POINT ( 'NONE',  ( 0.000000000000000000, 0.000000000000000000, -5.500000000000000000 ) ) ;
#291 = ORIENTED_EDGE ( 'NONE', *, *, #319, .F. ) ;
#292 = VERTEX_POINT ( 'NONE', #60 ) ;
#293 = CIRCLE ( 'NONE', #161, 9.000000000000000000 ) ;
#294 = ADVANCED_FACE ( 'NONE', ( #100 ), #197, .T. ) ;
#295 = CC_DESIGN_APPROVAL ( #362, ( #7 ) ) ;
#296 = CARTESIAN_POINT ( 'NONE',  ( 0.000000000000000000, 9.000000000000000000, -27.00000000000000000 ) ) ;
#297 = ADVANCED_FACE ( 'NONE', ( #280 ), #251, .F. ) ;
#298 = APPROVAL_DATE_TIME ( #304, #241 ) ;
#299 = CYLINDRICAL_SURFACE ( 'NONE', #141, 11.00000000000000178 ) ;
#300 = DIRECTION ( 'NONE',  ( 0.000000000000000000, 0.000000000000000000, -1.000000000000000000 ) ) ;
#301 = DIRECTION ( 'NONE',  ( -0.000000000000000000, -0.000000000000000000, 1.000000000000000000 ) ) ;
#302 = EDGE_LOOP ( 'NONE', ( #371, #375, #81, #291 ) ) ;
#303 = AXIS2_PLACEMENT_3D ( 'NONE', #218, #193, #196 ) ;
#304 = DATE_AND_TIME ( #323, #181 ) ;
#305 = APPROVAL_STATUS ( 'not_yet_approved' ) ;
#306 = PERSON_AND_ORGANIZATION ( #155, #309 ) ;
#307 = AXIS2_PLACEMENT_3D ( 'NONE', #355, #41, #126 ) ;
#308 = DIRECTION ( 'NONE',  ( 0.000000000000000000, 0.000000000000000000, -1.000000000000000000 ) ) ;
#309 = ORGANIZATION ( 'NEURÈENÝ', 'NEURÈENÝ', '' ) ;
#310 = DIRECTION ( 'NONE',  ( 0.000000000000000000, 0.000000000000000000, -1.000000000000000000 ) ) ;
#311 = APPROVAL ( #305, 'NEURÈENÝ' ) ;
#312 = CARTESIAN_POINT ( 'NONE',  ( 0.000000000000000000, 0.000000000000000000, -5.000000000000000000 ) ) ;
#313 = CARTESIAN_POINT ( 'NONE',  ( -9.000000000000000000, 1.102182119232617714E-15, 0.000000000000000000 ) ) ;
#314 = CARTESIAN_POINT ( 'NONE',  ( 0.000000000000000000, 0.000000000000000000, -27.00000000000000000 ) ) ;
#315 = PLANE ( 'NONE',  #178 ) ;
#316 = EDGE_CURVE ( 'NONE', #292, #64, #325, .T. ) ;
#317 = PRODUCT_DEFINITION_SHAPE ( 'NONE', 'NONE',  #7 ) ;
#318 = DIRECTION ( 'NONE',  ( 1.000000000000000000, 0.000000000000000000, 0.000000000000000000 ) ) ;
#319 = EDGE_CURVE ( 'NONE', #292, #16, #107, .T. ) ;
#320 = AXIS2_PLACEMENT_3D ( 'NONE', #12, #337, #177 ) ;
#321 = AXIS2_PLACEMENT_3D ( 'NONE', #124, #301, #372 ) ;
#322 = CIRCLE ( 'NONE', #72, 9.000000000000000000 ) ;
#323 = CALENDAR_DATE ( 2024, 2, 1 ) ;
#324 = DIRECTION ( 'NONE',  ( 1.000000000000000000, 0.000000000000000000, 0.000000000000000000 ) ) ;
#325 = CIRCLE ( 'NONE', #307, 0.5000000000000004441 ) ;
#326 = DATE_AND_TIME ( #26, #287 ) ;
#327 = CC_DESIGN_SECURITY_CLASSIFICATION ( #57, ( #360 ) ) ;
#328 = EDGE_LOOP ( 'NONE', ( #174, #359 ) ) ;
#329 = DIRECTION ( 'NONE',  ( -0.000000000000000000, -0.000000000000000000, 1.000000000000000000 ) ) ;
#330 =( NAMED_UNIT ( * ) SI_UNIT ( $, .STERADIAN. ) SOLID_ANGLE_UNIT ( ) );
#331 = ADVANCED_FACE ( 'NONE', ( #162 ), #10, .T. ) ;
#332 = ADVANCED_FACE ( 'NONE', ( #204 ), #388, .T. ) ;
#333 = APPROVAL_STATUS ( 'not_yet_approved' ) ;
#334 = DIRECTION ( 'NONE',  ( -0.000000000000000000, -0.000000000000000000, 1.000000000000000000 ) ) ;
#335 = EDGE_CURVE ( 'NONE', #270, #67, #396, .T. ) ;
#336 = DIRECTION ( 'NONE',  ( 0.000000000000000000, -0.000000000000000000, 1.000000000000000000 ) ) ;
#337 = DIRECTION ( 'NONE',  ( -0.000000000000000000, -1.000000000000000000, -0.000000000000000000 ) ) ;
#338 = AXIS2_PLACEMENT_3D ( 'NONE', #146, #61, #56 ) ;
#339 = APPROVAL_ROLE ( '' ) ;
#340 = EDGE_LOOP ( 'NONE', ( #4, #103, #135, #389 ) ) ;
#341 = PERSON_AND_ORGANIZATION ( #155, #309 ) ;
#342 = AXIS2_PLACEMENT_3D ( 'NONE', #246, #266, #394 ) ;
#343 = AXIS2_PLACEMENT_3D ( 'NONE', #208, #169, #392 ) ;
#344 = CARTESIAN_POINT ( 'NONE',  ( 0.000000000000000000, 0.000000000000000000, 0.000000000000000000 ) ) ;
#345 = AXIS2_PLACEMENT_3D ( 'NONE', #344, #148, #214 ) ;
#346 = ADVANCED_FACE ( 'NONE', ( #175 ), #274, .T. ) ;
#347 = LINE ( 'NONE', #58, #366 ) ;
#348 = DIRECTION ( 'NONE',  ( -0.000000000000000000, -0.000000000000000000, 1.000000000000000000 ) ) ;
#349 = CARTESIAN_POINT ( 'NONE',  ( -11.00000000000000178, 1.347111479062088602E-15, -0.4999999999999952260 ) ) ;
#350 = EDGE_LOOP ( 'NONE', ( #206, #46 ) ) ;
#351 = DIRECTION ( 'NONE',  ( -0.000000000000000000, -0.000000000000000000, 1.000000000000000000 ) ) ;
#352 = MANIFOLD_SOLID_BREP ( 'Zkosení1', #188 ) ;
#353 = ORIENTED_EDGE ( 'NONE', *, *, #13, .F. ) ;
#354 = ORIENTED_EDGE ( 'NONE', *, *, #243, .T. ) ;
#355 = CARTESIAN_POINT ( 'NONE',  ( 9.000000000000000000, 1.102182119232617714E-15, -5.500000000000000000 ) ) ;
#356 = AXIS2_PLACEMENT_3D ( 'NONE', #180, #308, #19 ) ;
#357 = CIRCLE ( 'NONE', #356, 11.00000000000000178 ) ;
#358 = PERSON_AND_ORGANIZATION_ROLE ( 'design_owner' ) ;
#359 = ORIENTED_EDGE ( 'NONE', *, *, #335, .T. ) ;
#360 = PRODUCT_DEFINITION_FORMATION_WITH_SPECIFIED_SOURCE ( 'LIBOVOLNÝ', '', #165, .NOT_KNOWN. ) ;
#361 = MECHANICAL_CONTEXT ( 'NONE', #275, 'mechanical' ) ;
#362 = APPROVAL ( #333, 'NEURÈENÝ' ) ;
#363 = ORIENTED_EDGE ( 'NONE', *, *, #335, .F. ) ;
#364 = DATE_AND_TIME ( #399, #381 ) ;
#365 = EDGE_LOOP ( 'NONE', ( #40, #182, #53, #9 ) ) ;
#366 = VECTOR ( 'NONE', #348, 1000.000000000000000 ) ;
#367 = CALENDAR_DATE ( 2024, 2, 1 ) ;
#368 = ORIENTED_EDGE ( 'NONE', *, *, #260, .F. ) ;
#369 = ORIENTED_EDGE ( 'NONE', *, *, #263, .T. ) ;
#370 = CIRCLE ( 'NONE', #342, 8.499999999999998224 ) ;
#371 = ORIENTED_EDGE ( 'NONE', *, *, #91, .F. ) ;
#372 = DIRECTION ( 'NONE',  ( 1.000000000000000000, 0.000000000000000000, 0.000000000000000000 ) ) ;
#373 = VERTEX_POINT ( 'NONE', #55 ) ;
#374 = UNCERTAINTY_MEASURE_WITH_UNIT (LENGTH_MEASURE( 1.000000000000000082E-05 ), #258, 'distance_accuracy_value', 'NONE');
#375 = ORIENTED_EDGE ( 'NONE', *, *, #260, .T. ) ;
#376 = CARTESIAN_POINT ( 'NONE',  ( 0.000000000000000000, 0.000000000000000000, 0.000000000000000000 ) ) ;
#377 = AXIS2_PLACEMENT_3D ( 'NONE', #209, #334, #48 ) ;
#378 = AXIS2_PLACEMENT_3D ( 'NONE', #398, #336, #52 ) ;
#379 = CARTESIAN_POINT ( 'NONE',  ( 0.000000000000000000, 0.000000000000000000, -5.000000000000000000 ) ) ;
#380 = DIRECTION ( 'NONE',  ( 1.000000000000000000, 0.000000000000000000, 0.000000000000000000 ) ) ;
#381 = LOCAL_TIME ( 22, 51, 4.000000000000000000, #242 ) ;
#382 = PRODUCT_RELATED_PRODUCT_CATEGORY ( 'detail', '', ( #165 ) ) ;
#383 = CARTESIAN_POINT ( 'NONE',  ( 10.50000000000000533, 1.316495309083405209E-15, 0.000000000000000000 ) ) ;
#384 = CARTESIAN_POINT ( 'NONE',  ( 9.000000000000000000, 1.102182119232617714E-15, -4.999999999999999112 ) ) ;
#385 = DIRECTION ( 'NONE',  ( -0.000000000000000000, -0.000000000000000000, 1.000000000000000000 ) ) ;
#386 = CARTESIAN_POINT ( 'NONE',  ( 0.000000000000000000, 0.000000000000000000, 0.000000000000000000 ) ) ;
#387 = DESIGN_CONTEXT ( 'detailed design', #153, 'design' ) ;
#388 = PLANE ( 'NONE',  #170 ) ;
#389 = ORIENTED_EDGE ( 'NONE', *, *, #110, .F. ) ;
#390 = EDGE_CURVE ( 'NONE', #264, #16, #37, .T. ) ;
#391 = ORIENTED_EDGE ( 'NONE', *, *, #243, .F. ) ;
#392 = DIRECTION ( 'NONE',  ( -1.000000000000000000, 0.000000000000000000, 0.000000000000000000 ) ) ;
#393 = PERSON_AND_ORGANIZATION ( #155, #309 ) ;
#394 = DIRECTION ( 'NONE',  ( 1.000000000000000000, 0.000000000000000000, 0.000000000000000000 ) ) ;
#395 = COORDINATED_UNIVERSAL_TIME_OFFSET ( 1, 0, .AHEAD. ) ;
#396 = CIRCLE ( 'NONE', #321, 10.50000000000000533 ) ;
#397 = AXIS2_PLACEMENT_3D ( 'NONE', #312, #385, #286 ) ;
#398 = CARTESIAN_POINT ( 'NONE',  ( 0.000000000000000000, 0.000000000000000000, 0.000000000000000000 ) ) ;
#399 = CALENDAR_DATE ( 2024, 2, 1 ) ;
#400 = ORIENTED_EDGE ( 'NONE', *, *, #268, .F. ) ;
#401 = DIRECTION ( 'NONE',  ( 0.000000000000000000, 0.000000000000000000, -1.000000000000000000 ) ) ;
#402 = CIRCLE ( 'NONE', #117, 10.50000000000000533 ) ;
#403 = CIRCLE ( 'NONE', #142, 8.499999999999998224 ) ;
#404 = ORIENTED_EDGE ( 'NONE', *, *, #217, .T. ) ;
#405 = ADVANCED_FACE ( 'NONE', ( #129 ), #299, .T. ) ;
#406 = FACE_OUTER_BOUND ( 'NONE', #98, .T. ) ;
#407 = DIRECTION ( 'NONE',  ( -0.000000000000000000, -0.000000000000000000, 1.000000000000000000 ) ) ;
#408 = TOROIDAL_SURFACE ( 'NONE', #233, 9.000000000000000000, 0.5000000000000000000 ) ;
#409 = LINE ( 'NONE', #1, #215 ) ;
ENDSEC;
END-ISO-10303-21;
