ISO-10303-21;
HEADER;
FILE_DESCRIPTION (( 'STEP AP203' ),
    '1' );
FILE_NAME ('0135.STEP',
    '2024-01-02T21:50:29',
    ( '' ),
    ( '' ),
    'SwSTEP 2.0',
    'SolidWorks 2019',
    '' );
FILE_SCHEMA (( 'CONFIG_CONTROL_DESIGN' ));
ENDSEC;

DATA;
#1 = AXIS2_PLACEMENT_3D ( 'NONE', #131, #258, #391 ) ;
#2 = APPROVAL_DATE_TIME ( #156, #302 ) ;
#3 = ORIENTED_EDGE ( 'NONE', *, *, #71, .T. ) ;
#4 = CARTESIAN_POINT ( 'NONE',  ( 9.000000000000000000, 1.102182119232617714E-15, -5.500000000000000000 ) ) ;
#5 = CALENDAR_DATE ( 2024, 2, 1 ) ;
#6 = AXIS2_PLACEMENT_3D ( 'NONE', #340, #342, #345 ) ;
#7 = FACE_OUTER_BOUND ( 'NONE', #268, .T. ) ;
#8 = CARTESIAN_POINT ( 'NONE',  ( 9.000000000000000000, 0.000000000000000000, -30.00000000000000000 ) ) ;
#9 = APPROVAL ( #348, 'NEURÈENÝ' ) ;
#10 = EDGE_LOOP ( 'NONE', ( #62, #194, #82, #283 ) ) ;
#11 = CARTESIAN_POINT ( 'NONE',  ( -9.000000000000000000, 1.102182119232617714E-15, -6.000000000000000000 ) ) ;
#12 = ORIENTED_EDGE ( 'NONE', *, *, #398, .F. ) ;
#13 = LOCAL_TIME ( 22, 50, 29.00000000000000000, #33 ) ;
#14 = CARTESIAN_POINT ( 'NONE',  ( 0.000000000000000000, 11.00000000000000000, -5.000000000000000000 ) ) ;
#15 = DATE_AND_TIME ( #78, #13 ) ;
#16 = ORIENTED_EDGE ( 'NONE', *, *, #37, .T. ) ;
#17 = CARTESIAN_POINT ( 'NONE',  ( -9.000000000000000000, 1.102182119232617714E-15, -5.500000000000000000 ) ) ;
#18 = VERTEX_POINT ( 'NONE', #271 ) ;
#19 = DIRECTION ( 'NONE',  ( -1.000000000000000000, 1.224646799147353454E-16, 0.000000000000000000 ) ) ;
#20 = ORIENTED_EDGE ( 'NONE', *, *, #137, .F. ) ;
#21 = DIRECTION ( 'NONE',  ( -0.000000000000000000, -0.000000000000000000, 1.000000000000000000 ) ) ;
#22 = AXIS2_PLACEMENT_3D ( 'NONE', #334, #371, #208 ) ;
#23 = CARTESIAN_POINT ( 'NONE',  ( 0.000000000000000000, 0.000000000000000000, -5.500000000000000000 ) ) ;
#24 = CIRCLE ( 'NONE', #281, 0.5000000000000004441 ) ;
#25 = DIRECTION ( 'NONE',  ( 0.000000000000000000, -0.000000000000000000, 1.000000000000000000 ) ) ;
#26 = ADVANCED_BREP_SHAPE_REPRESENTATION ( '0135', ( #341, #22 ), #143 ) ;
#27 = DIRECTION ( 'NONE',  ( 1.000000000000000000, 0.000000000000000000, 0.000000000000000000 ) ) ;
#28 = DIRECTION ( 'NONE',  ( -0.000000000000000000, -0.000000000000000000, 1.000000000000000000 ) ) ;
#29 = FACE_OUTER_BOUND ( 'NONE', #103, .T. ) ;
#30 = AXIS2_PLACEMENT_3D ( 'NONE', #69, #191, #260 ) ;
#31 = VECTOR ( 'NONE', #89, 1000.000000000000000 ) ;
#32 = EDGE_CURVE ( 'NONE', #18, #66, #144, .T. ) ;
#33 = COORDINATED_UNIVERSAL_TIME_OFFSET ( 1, 0, .AHEAD. ) ;
#34 = EDGE_CURVE ( 'NONE', #401, #175, #130, .T. ) ;
#35 = AXIS2_PLACEMENT_3D ( 'NONE', #209, #240, #365 ) ;
#36 = VECTOR ( 'NONE', #203, 1000.000000000000000 ) ;
#37 = EDGE_CURVE ( 'NONE', #175, #401, #264, .T. ) ;
#38 = CYLINDRICAL_SURFACE ( 'NONE', #248, 11.00000000000000178 ) ;
#39 = DATE_AND_TIME ( #318, #230 ) ;
#40 = VERTEX_POINT ( 'NONE', #331 ) ;
#41 = UNCERTAINTY_MEASURE_WITH_UNIT (LENGTH_MEASURE( 1.000000000000000082E-05 ), #73, 'distance_accuracy_value', 'NONE');
#42 = VECTOR ( 'NONE', #49, 999.9999999999998863 ) ;
#43 = FACE_OUTER_BOUND ( 'NONE', #237, .T. ) ;
#44 = DATE_TIME_ROLE ( 'classification_date' ) ;
#45 = DIRECTION ( 'NONE',  ( -1.000000000000000000, 0.000000000000000000, -0.000000000000000000 ) ) ;
#46 = VERTEX_POINT ( 'NONE', #366 ) ;
#47 = ADVANCED_FACE ( 'NONE', ( #246 ), #120, .F. ) ;
#48 = ORIENTED_EDGE ( 'NONE', *, *, #34, .F. ) ;
#49 = DIRECTION ( 'NONE',  ( -0.7071067811865425767, 0.000000000000000000, -0.7071067811865525687 ) ) ;
#50 = ORIENTED_EDGE ( 'NONE', *, *, #280, .F. ) ;
#51 = DIRECTION ( 'NONE',  ( 1.000000000000000000, 0.000000000000000000, 0.000000000000000000 ) ) ;
#52 = CC_DESIGN_PERSON_AND_ORGANIZATION_ASSIGNMENT ( #257, #223, ( #314 ) ) ;
#53 = CARTESIAN_POINT ( 'NONE',  ( -9.000000000000000000, 1.102182119232617714E-15, 0.000000000000000000 ) ) ;
#54 = CIRCLE ( 'NONE', #181, 9.000000000000000000 ) ;
#55 = EDGE_CURVE ( 'NONE', #108, #66, #93, .T. ) ;
#56 = DIRECTION ( 'NONE',  ( -0.000000000000000000, -0.000000000000000000, 1.000000000000000000 ) ) ;
#57 = CC_DESIGN_SECURITY_CLASSIFICATION ( #163, ( #314 ) ) ;
#58 = CARTESIAN_POINT ( 'NONE',  ( 11.00000000000000178, 0.000000000000000000, 0.000000000000000000 ) ) ;
#59 = AXIS2_PLACEMENT_3D ( 'NONE', #214, #339, #301 ) ;
#60 = DIRECTION ( 'NONE',  ( -0.000000000000000000, -0.000000000000000000, 1.000000000000000000 ) ) ;
#61 = CIRCLE ( 'NONE', #385, 8.499999999999998224 ) ;
#62 = ORIENTED_EDGE ( 'NONE', *, *, #173, .F. ) ;
#63 = EDGE_CURVE ( 'NONE', #198, #288, #306, .T. ) ;
#64 = AXIS2_PLACEMENT_3D ( 'NONE', #104, #67, #165 ) ;
#65 = APPROVAL ( #346, 'NEURÈENÝ' ) ;
#66 = VERTEX_POINT ( 'NONE', #309 ) ;
#67 = DIRECTION ( 'NONE',  ( -0.000000000000000000, -0.000000000000000000, 1.000000000000000000 ) ) ;
#68 = FACE_OUTER_BOUND ( 'NONE', #289, .T. ) ;
#69 = CARTESIAN_POINT ( 'NONE',  ( 0.000000000000000000, 0.000000000000000000, -0.5000000000000125455 ) ) ;
#70 = COORDINATED_UNIVERSAL_TIME_OFFSET ( 1, 0, .AHEAD. ) ;
#71 = EDGE_CURVE ( 'NONE', #40, #406, #61, .T. ) ;
#72 = VERTEX_POINT ( 'NONE', #238 ) ;
#73 =( LENGTH_UNIT ( ) NAMED_UNIT ( * ) SI_UNIT ( .MILLI., .METRE. ) );
#74 = SHAPE_DEFINITION_REPRESENTATION ( #118, #26 ) ;
#75 = ORGANIZATION ( 'NEURÈENÝ', 'NEURÈENÝ', '' ) ;
#76 = EDGE_LOOP ( 'NONE', ( #299, #224 ) ) ;
#77 = ORIENTED_EDGE ( 'NONE', *, *, #63, .T. ) ;
#78 = CALENDAR_DATE ( 2024, 2, 1 ) ;
#79 = VERTEX_POINT ( 'NONE', #176 ) ;
#80 = ORIENTED_EDGE ( 'NONE', *, *, #215, .F. ) ;
#81 = DIRECTION ( 'NONE',  ( 0.000000000000000000, 0.000000000000000000, -1.000000000000000000 ) ) ;
#82 = ORIENTED_EDGE ( 'NONE', *, *, #353, .T. ) ;
#83 = CARTESIAN_POINT ( 'NONE',  ( 0.000000000000000000, 9.000000000000000000, -30.00000000000000000 ) ) ;
#84 = AXIS2_PLACEMENT_3D ( 'NONE', #4, #189, #350 ) ;
#85 = AXIS2_PLACEMENT_3D ( 'NONE', #116, #149, #172 ) ;
#86 = LINE ( 'NONE', #273, #36 ) ;
#87 = CC_DESIGN_DATE_AND_TIME_ASSIGNMENT ( #99, #317, ( #337 ) ) ;
#88 = DIRECTION ( 'NONE',  ( -0.000000000000000000, -0.000000000000000000, 1.000000000000000000 ) ) ;
#89 = DIRECTION ( 'NONE',  ( -0.000000000000000000, -0.000000000000000000, 1.000000000000000000 ) ) ;
#90 = CC_DESIGN_DATE_AND_TIME_ASSIGNMENT ( #132, #44, ( #163 ) ) ;
#91 = LOCAL_TIME ( 22, 50, 29.00000000000000000, #216 ) ;
#92 = CARTESIAN_POINT ( 'NONE',  ( 0.000000000000000000, 0.000000000000000000, -30.00000000000000000 ) ) ;
#93 = LINE ( 'NONE', #58, #31 ) ;
#94 = PLANE ( 'NONE',  #129 ) ;
#95 = ADVANCED_FACE ( 'NONE', ( #29 ), #206, .T. ) ;
#96 = FACE_OUTER_BOUND ( 'NONE', #220, .T. ) ;
#97 = DIRECTION ( 'NONE',  ( -0.000000000000000000, -0.000000000000000000, 1.000000000000000000 ) ) ;
#98 = ORIENTED_EDGE ( 'NONE', *, *, #186, .T. ) ;
#99 = DATE_AND_TIME ( #5, #91 ) ;
#100 = VECTOR ( 'NONE', #60, 1000.000000000000000 ) ;
#101 = EDGE_CURVE ( 'NONE', #79, #18, #86, .T. ) ;
#102 = CYLINDRICAL_SURFACE ( 'NONE', #64, 9.000000000000000000 ) ;
#103 = EDGE_LOOP ( 'NONE', ( #12, #136, #141, #270 ) ) ;
#104 = CARTESIAN_POINT ( 'NONE',  ( 0.000000000000000000, 0.000000000000000000, 0.000000000000000000 ) ) ;
#105 = PERSON_AND_ORGANIZATION_ROLE ( 'classification_officer' ) ;
#106 = ORIENTED_EDGE ( 'NONE', *, *, #101, .F. ) ;
#107 = CIRCLE ( 'NONE', #30, 11.00000000000000178 ) ;
#108 = VERTEX_POINT ( 'NONE', #402 ) ;
#109 = ORIENTED_EDGE ( 'NONE', *, *, #110, .F. ) ;
#110 = EDGE_CURVE ( 'NONE', #288, #401, #364, .T. ) ;
#111 = CARTESIAN_POINT ( 'NONE',  ( 9.000000000000000000, 1.102182119232617714E-15, -4.999999999999999112 ) ) ;
#112 = EDGE_LOOP ( 'NONE', ( #229, #361 ) ) ;
#113 = DIRECTION ( 'NONE',  ( -0.000000000000000000, -0.000000000000000000, 1.000000000000000000 ) ) ;
#114 = ORIENTED_EDGE ( 'NONE', *, *, #266, .F. ) ;
#115 = CIRCLE ( 'NONE', #384, 11.00000000000000000 ) ;
#116 = CARTESIAN_POINT ( 'NONE',  ( 0.000000000000000000, 0.000000000000000000, -0.5000000000000125455 ) ) ;
#117 = DIRECTION ( 'NONE',  ( 1.000000000000000000, 0.000000000000000000, 0.000000000000000000 ) ) ;
#118 = PRODUCT_DEFINITION_SHAPE ( 'NONE', 'NONE',  #337 ) ;
#119 = DIRECTION ( 'NONE',  ( 1.000000000000000000, 0.000000000000000000, 0.000000000000000000 ) ) ;
#120 = TOROIDAL_SURFACE ( 'NONE', #201, 9.000000000000000000, 0.5000000000000000000 ) ;
#121 = ORIENTED_EDGE ( 'NONE', *, *, #178, .T. ) ;
#122 = DIRECTION ( 'NONE',  ( -0.000000000000000000, -0.000000000000000000, 1.000000000000000000 ) ) ;
#123 = ADVANCED_FACE ( 'NONE', ( #192, #134 ), #329, .T. ) ;
#124 = CC_DESIGN_PERSON_AND_ORGANIZATION_ASSIGNMENT ( #247, #373, ( #380 ) ) ;
#125 = APPROVAL_STATUS ( 'not_yet_approved' ) ;
#126 = LOCAL_TIME ( 22, 50, 29.00000000000000000, #152 ) ;
#127 = ADVANCED_FACE ( 'NONE', ( #138 ), #310, .F. ) ;
#128 = DIRECTION ( 'NONE',  ( 1.000000000000000000, 0.000000000000000000, 0.000000000000000000 ) ) ;
#129 = AXIS2_PLACEMENT_3D ( 'NONE', #305, #25, #278 ) ;
#130 = CIRCLE ( 'NONE', #151, 9.000000000000000000 ) ;
#131 = CARTESIAN_POINT ( 'NONE',  ( 0.000000000000000000, 0.000000000000000000, 0.000000000000000000 ) ) ;
#132 = DATE_AND_TIME ( #292, #147 ) ;
#133 = EDGE_LOOP ( 'NONE', ( #171, #393 ) ) ;
#134 = FACE_OUTER_BOUND ( 'NONE', #76, .T. ) ;
#135 = APPROVAL_PERSON_ORGANIZATION ( #375, #9, #213 ) ;
#136 = ORIENTED_EDGE ( 'NONE', *, *, #137, .T. ) ;
#137 = EDGE_CURVE ( 'NONE', #46, #66, #347, .T. ) ;
#138 = FACE_OUTER_BOUND ( 'NONE', #10, .T. ) ;
#139 = CARTESIAN_POINT ( 'NONE',  ( 0.000000000000000000, 0.000000000000000000, 0.000000000000000000 ) ) ;
#140 = ORIENTED_EDGE ( 'NONE', *, *, #34, .T. ) ;
#141 = ORIENTED_EDGE ( 'NONE', *, *, #32, .F. ) ;
#142 = CARTESIAN_POINT ( 'NONE',  ( -10.49999999999999467, 0.000000000000000000, 0.000000000000000000 ) ) ;
#143 =( GEOMETRIC_REPRESENTATION_CONTEXT ( 3 ) GLOBAL_UNCERTAINTY_ASSIGNED_CONTEXT ( ( #41 ) ) GLOBAL_UNIT_ASSIGNED_CONTEXT ( ( #73, #239, #180 ) ) REPRESENTATION_CONTEXT ( 'NONE', 'WORKASPACE' ) );
#144 = CIRCLE ( 'NONE', #85, 11.00000000000000178 ) ;
#145 = ADVANCED_FACE ( 'NONE', ( #7 ), #38, .T. ) ;
#146 = DIRECTION ( 'NONE',  ( 1.000000000000000000, 0.000000000000000000, 0.000000000000000000 ) ) ;
#147 = LOCAL_TIME ( 22, 50, 29.00000000000000000, #70 ) ;
#148 = EDGE_CURVE ( 'NONE', #406, #401, #24, .T. ) ;
#149 = DIRECTION ( 'NONE',  ( 0.000000000000000000, 0.000000000000000000, -1.000000000000000000 ) ) ;
#150 = CIRCLE ( 'NONE', #352, 8.499999999999998224 ) ;
#151 = AXIS2_PLACEMENT_3D ( 'NONE', #236, #241, #370 ) ;
#152 = COORDINATED_UNIVERSAL_TIME_OFFSET ( 1, 0, .AHEAD. ) ;
#153 = AXIS2_PLACEMENT_3D ( 'NONE', #312, #97, #128 ) ;
#154 = DIRECTION ( 'NONE',  ( -0.000000000000000000, -0.000000000000000000, 1.000000000000000000 ) ) ;
#155 = CYLINDRICAL_SURFACE ( 'NONE', #211, 11.00000000000000178 ) ;
#156 = DATE_AND_TIME ( #279, #126 ) ;
#157 = ADVANCED_FACE ( 'NONE', ( #265 ), #102, .T. ) ;
#158 = DIRECTION ( 'NONE',  ( -0.000000000000000000, -1.000000000000000000, -0.000000000000000000 ) ) ;
#159 = AXIS2_PLACEMENT_3D ( 'NONE', #356, #81, #253 ) ;
#160 = EDGE_LOOP ( 'NONE', ( #106, #169, #313, #121 ) ) ;
#161 = CYLINDRICAL_SURFACE ( 'NONE', #1, 9.000000000000000000 ) ;
#162 = FACE_OUTER_BOUND ( 'NONE', #160, .T. ) ;
#163 = SECURITY_CLASSIFICATION ( '', '', #396 ) ;
#164 = ADVANCED_FACE ( 'NONE', ( #162 ), #155, .T. ) ;
#165 = DIRECTION ( 'NONE',  ( 1.000000000000000000, 0.000000000000000000, 0.000000000000000000 ) ) ;
#166 = ORIENTED_EDGE ( 'NONE', *, *, #63, .F. ) ;
#167 = DIRECTION ( 'NONE',  ( 1.000000000000000000, 0.000000000000000000, 0.000000000000000000 ) ) ;
#168 = AXIS2_PLACEMENT_3D ( 'NONE', #378, #154, #219 ) ;
#169 = ORIENTED_EDGE ( 'NONE', *, *, #367, .T. ) ;
#170 = DIRECTION ( 'NONE',  ( 1.000000000000000000, 0.000000000000000000, 0.000000000000000000 ) ) ;
#171 = ORIENTED_EDGE ( 'NONE', *, *, #215, .T. ) ;
#172 = DIRECTION ( 'NONE',  ( 1.000000000000000000, 0.000000000000000000, 0.000000000000000000 ) ) ;
#173 = EDGE_CURVE ( 'NONE', #406, #372, #330, .T. ) ;
#174 = CARTESIAN_POINT ( 'NONE',  ( 8.499999999999998224, 0.000000000000000000, -5.500000000000000000 ) ) ;
#175 = VERTEX_POINT ( 'NONE', #11 ) ;
#176 = CARTESIAN_POINT ( 'NONE',  ( -11.00000000000000000, 1.347111479062088602E-15, -5.000000000000000000 ) ) ;
#177 = CIRCLE ( 'NONE', #153, 10.49999999999999467 ) ;
#178 = EDGE_CURVE ( 'NONE', #66, #18, #107, .T. ) ;
#179 = DIRECTION ( 'NONE',  ( 1.000000000000000000, 0.000000000000000000, 0.000000000000000000 ) ) ;
#180 =( NAMED_UNIT ( * ) SI_UNIT ( $, .STERADIAN. ) SOLID_ANGLE_UNIT ( ) );
#181 = AXIS2_PLACEMENT_3D ( 'NONE', #92, #56, #335 ) ;
#182 = ADVANCED_FACE ( 'NONE', ( #43 ), #161, .T. ) ;
#183 = CARTESIAN_POINT ( 'NONE',  ( -9.000000000000000000, 1.102182119232617714E-15, -30.00000000000000000 ) ) ;
#184 = CARTESIAN_POINT ( 'NONE',  ( 0.000000000000000000, 0.000000000000000000, -5.500000000000000000 ) ) ;
#185 = ORIENTED_EDGE ( 'NONE', *, *, #101, .T. ) ;
#186 = EDGE_CURVE ( 'NONE', #198, #175, #408, .T. ) ;
#187 = APPROVAL_ROLE ( '' ) ;
#188 = COORDINATED_UNIVERSAL_TIME_OFFSET ( 1, 0, .AHEAD. ) ;
#189 = DIRECTION ( 'NONE',  ( -1.224646799147353207E-16, 1.000000000000000000, 0.000000000000000000 ) ) ;
#190 = ORIENTED_EDGE ( 'NONE', *, *, #148, .T. ) ;
#191 = DIRECTION ( 'NONE',  ( 0.000000000000000000, 0.000000000000000000, -1.000000000000000000 ) ) ;
#192 = FACE_BOUND ( 'NONE', #133, .T. ) ;
#193 = CC_DESIGN_PERSON_AND_ORGANIZATION_ASSIGNMENT ( #325, #359, ( #314 ) ) ;
#194 = ORIENTED_EDGE ( 'NONE', *, *, #266, .T. ) ;
#195 = DIRECTION ( 'NONE',  ( 0.7071067811865425767, 8.659560562354873694E-17, -0.7071067811865525687 ) ) ;
#196 = DIRECTION ( 'NONE',  ( 1.000000000000000000, 0.000000000000000000, 0.000000000000000000 ) ) ;
#197 = CC_DESIGN_APPROVAL ( #65, ( #163 ) ) ;
#198 = VERTEX_POINT ( 'NONE', #183 ) ;
#199 = DIRECTION ( 'NONE',  ( 0.000000000000000000, 0.000000000000000000, -1.000000000000000000 ) ) ;
#200 = AXIS2_PLACEMENT_3D ( 'NONE', #83, #199, #45 ) ;
#201 = AXIS2_PLACEMENT_3D ( 'NONE', #207, #308, #119 ) ;
#202 = ADVANCED_FACE ( 'NONE', ( #376 ), #94, .T. ) ;
#203 = DIRECTION ( 'NONE',  ( -0.000000000000000000, -0.000000000000000000, 1.000000000000000000 ) ) ;
#204 = CARTESIAN_POINT ( 'NONE',  ( 0.000000000000000000, 0.000000000000000000, -5.000000000000000000 ) ) ;
#205 = VECTOR ( 'NONE', #195, 999.9999999999998863 ) ;
#206 = CONICAL_SURFACE ( 'NONE', #255, 10.49999999999999467, 0.7853981633974412846 ) ;
#207 = CARTESIAN_POINT ( 'NONE',  ( 0.000000000000000000, 0.000000000000000000, -5.500000000000000000 ) ) ;
#208 = DIRECTION ( 'NONE',  ( 1.000000000000000000, 0.000000000000000000, 0.000000000000000000 ) ) ;
#209 = CARTESIAN_POINT ( 'NONE',  ( 0.000000000000000000, 0.000000000000000000, -5.000000000000000000 ) ) ;
#210 = APPLICATION_PROTOCOL_DEFINITION ( 'international standard', 'config_control_design', 1994, #369 ) ;
#211 = AXIS2_PLACEMENT_3D ( 'NONE', #291, #321, #221 ) ;
#212 = VECTOR ( 'NONE', #21, 1000.000000000000000 ) ;
#213 = APPROVAL_ROLE ( '' ) ;
#214 = CARTESIAN_POINT ( 'NONE',  ( 0.000000000000000000, 0.000000000000000000, 0.000000000000000000 ) ) ;
#215 = EDGE_CURVE ( 'NONE', #72, #372, #360, .T. ) ;
#216 = COORDINATED_UNIVERSAL_TIME_OFFSET ( 1, 0, .AHEAD. ) ;
#217 = AXIS2_PLACEMENT_3D ( 'NONE', #303, #362, #51 ) ;
#218 = PERSON_AND_ORGANIZATION ( #261, #75 ) ;
#219 = DIRECTION ( 'NONE',  ( 1.000000000000000000, 0.000000000000000000, 0.000000000000000000 ) ) ;
#220 = EDGE_LOOP ( 'NONE', ( #20, #233, #338, #328 ) ) ;
#221 = DIRECTION ( 'NONE',  ( 1.000000000000000000, 0.000000000000000000, 0.000000000000000000 ) ) ;
#222 = CC_DESIGN_PERSON_AND_ORGANIZATION_ASSIGNMENT ( #218, #379, ( #337 ) ) ;
#223 = PERSON_AND_ORGANIZATION_ROLE ( 'design_supplier' ) ;
#224 = ORIENTED_EDGE ( 'NONE', *, *, #367, .F. ) ;
#225 = CARTESIAN_POINT ( 'NONE',  ( 0.000000000000000000, 0.000000000000000000, -5.000000000000000000 ) ) ;
#226 = AXIS2_PLACEMENT_3D ( 'NONE', #204, #28, #146 ) ;
#227 = AXIS2_PLACEMENT_3D ( 'NONE', #14, #322, #297 ) ;
#228 = CARTESIAN_POINT ( 'NONE',  ( 10.49999999999999467, 1.285879139104720239E-15, 0.000000000000000000 ) ) ;
#229 = ORIENTED_EDGE ( 'NONE', *, *, #311, .T. ) ;
#230 = LOCAL_TIME ( 22, 50, 29.00000000000000000, #188 ) ;
#231 = ORIENTED_EDGE ( 'NONE', *, *, #37, .F. ) ;
#232 = EDGE_CURVE ( 'NONE', #108, #79, #400, .T. ) ;
#233 = ORIENTED_EDGE ( 'NONE', *, *, #311, .F. ) ;
#234 = ORIENTED_EDGE ( 'NONE', *, *, #32, .T. ) ;
#235 = CARTESIAN_POINT ( 'NONE',  ( 9.000000000000000000, 0.000000000000000000, -6.000000000000000000 ) ) ;
#236 = CARTESIAN_POINT ( 'NONE',  ( 0.000000000000000000, 0.000000000000000000, -6.000000000000000000 ) ) ;
#237 = EDGE_LOOP ( 'NONE', ( #354, #98, #48, #109 ) ) ;
#238 = CARTESIAN_POINT ( 'NONE',  ( -9.000000000000000000, 0.000000000000000000, -4.999999999999999112 ) ) ;
#239 =( NAMED_UNIT ( * ) PLANE_ANGLE_UNIT ( ) SI_UNIT ( $, .RADIAN. ) );
#240 = DIRECTION ( 'NONE',  ( -0.000000000000000000, -0.000000000000000000, 1.000000000000000000 ) ) ;
#241 = DIRECTION ( 'NONE',  ( -0.000000000000000000, -0.000000000000000000, 1.000000000000000000 ) ) ;
#242 = MECHANICAL_CONTEXT ( 'NONE', #344, 'mechanical' ) ;
#243 = CC_DESIGN_APPROVAL ( #9, ( #314 ) ) ;
#244 = CARTESIAN_POINT ( 'NONE',  ( 0.000000000000000000, 0.000000000000000000, 0.000000000000000000 ) ) ;
#245 = ORIENTED_EDGE ( 'NONE', *, *, #232, .T. ) ;
#246 = FACE_OUTER_BOUND ( 'NONE', #323, .T. ) ;
#247 = PERSON_AND_ORGANIZATION ( #261, #75 ) ;
#248 = AXIS2_PLACEMENT_3D ( 'NONE', #355, #358, #196 ) ;
#249 = CIRCLE ( 'NONE', #336, 0.5000000000000004441 ) ;
#250 = AXIS2_PLACEMENT_3D ( 'NONE', #404, #122, #179 ) ;
#251 = CARTESIAN_POINT ( 'NONE',  ( -9.000000000000000000, 0.000000000000000000, -5.500000000000000000 ) ) ;
#252 = DESIGN_CONTEXT ( 'detailed design', #369, 'design' ) ;
#253 = DIRECTION ( 'NONE',  ( -1.000000000000000000, 0.000000000000000000, 0.000000000000000000 ) ) ;
#254 = CIRCLE ( 'NONE', #272, 10.49999999999999467 ) ;
#255 = AXIS2_PLACEMENT_3D ( 'NONE', #244, #407, #399 ) ;
#256 = APPROVAL_ROLE ( '' ) ;
#257 = PERSON_AND_ORGANIZATION ( #261, #75 ) ;
#258 = DIRECTION ( 'NONE',  ( -0.000000000000000000, -0.000000000000000000, 1.000000000000000000 ) ) ;
#259 = EDGE_LOOP ( 'NONE', ( #50, #166 ) ) ;
#260 = DIRECTION ( 'NONE',  ( 1.000000000000000000, 0.000000000000000000, 0.000000000000000000 ) ) ;
#261 = PERSON ( 'NEURÈENÝ', 'NEURÈENÝ', 'NEURÈENÝ', ('NEURÈENÝ'), ('NEURÈENÝ'), ('NEURÈENÝ') ) ;
#262 = CONICAL_SURFACE ( 'NONE', #59, 10.49999999999999467, 0.7853981633974412846 ) ;
#263 = LINE ( 'NONE', #142, #42 ) ;
#264 = CIRCLE ( 'NONE', #250, 9.000000000000000000 ) ;
#265 = FACE_OUTER_BOUND ( 'NONE', #316, .T. ) ;
#266 = EDGE_CURVE ( 'NONE', #406, #40, #150, .T. ) ;
#267 = FACE_OUTER_BOUND ( 'NONE', #259, .T. ) ;
#268 = EDGE_LOOP ( 'NONE', ( #245, #185, #234, #282 ) ) ;
#269 = APPROVAL_DATE_TIME ( #15, #9 ) ;
#270 = ORIENTED_EDGE ( 'NONE', *, *, #386, .F. ) ;
#271 = CARTESIAN_POINT ( 'NONE',  ( -11.00000000000000178, 1.347111479062088602E-15, -0.5000000000000125455 ) ) ;
#272 = AXIS2_PLACEMENT_3D ( 'NONE', #139, #113, #170 ) ;
#273 = CARTESIAN_POINT ( 'NONE',  ( -11.00000000000000178, 1.347111479062088602E-15, 0.000000000000000000 ) ) ;
#274 = CARTESIAN_POINT ( 'NONE',  ( 0.000000000000000000, 0.000000000000000000, -5.500000000000000000 ) ) ;
#275 = APPLICATION_PROTOCOL_DEFINITION ( 'international standard', 'config_control_design', 1994, #344 ) ;
#276 = FACE_OUTER_BOUND ( 'NONE', #357, .T. ) ;
#277 = TOROIDAL_SURFACE ( 'NONE', #168, 9.000000000000000000, 0.5000000000000000000 ) ;
#278 = DIRECTION ( 'NONE',  ( 1.000000000000000000, 0.000000000000000000, 0.000000000000000000 ) ) ;
#279 = CALENDAR_DATE ( 2024, 2, 1 ) ;
#280 = EDGE_CURVE ( 'NONE', #288, #198, #54, .T. ) ;
#281 = AXIS2_PLACEMENT_3D ( 'NONE', #324, #388, #327 ) ;
#282 = ORIENTED_EDGE ( 'NONE', *, *, #55, .F. ) ;
#283 = ORIENTED_EDGE ( 'NONE', *, *, #294, .F. ) ;
#284 = APPROVAL_DATE_TIME ( #39, #65 ) ;
#285 = CIRCLE ( 'NONE', #405, 0.5000000000000004441 ) ;
#286 = DIRECTION ( 'NONE',  ( 0.000000000000000000, 0.000000000000000000, -1.000000000000000000 ) ) ;
#287 = ADVANCED_FACE ( 'NONE', ( #276 ), #277, .F. ) ;
#288 = VERTEX_POINT ( 'NONE', #8 ) ;
#289 = EDGE_LOOP ( 'NONE', ( #3, #290, #80, #381 ) ) ;
#290 = ORIENTED_EDGE ( 'NONE', *, *, #173, .T. ) ;
#291 = CARTESIAN_POINT ( 'NONE',  ( 0.000000000000000000, 0.000000000000000000, 0.000000000000000000 ) ) ;
#292 = CALENDAR_DATE ( 2024, 2, 1 ) ;
#293 = PLANE ( 'NONE',  #200 ) ;
#294 = EDGE_CURVE ( 'NONE', #372, #72, #332, .T. ) ;
#295 = ORIENTED_EDGE ( 'NONE', *, *, #71, .F. ) ;
#296 = ORIENTED_EDGE ( 'NONE', *, *, #110, .T. ) ;
#297 = DIRECTION ( 'NONE',  ( -1.000000000000000000, 0.000000000000000000, -0.000000000000000000 ) ) ;
#298 = PRODUCT_RELATED_PRODUCT_CATEGORY ( 'detail', '', ( #380 ) ) ;
#299 = ORIENTED_EDGE ( 'NONE', *, *, #232, .F. ) ;
#300 = CARTESIAN_POINT ( 'NONE',  ( 9.000000000000000000, 0.000000000000000000, 0.000000000000000000 ) ) ;
#301 = DIRECTION ( 'NONE',  ( -1.000000000000000000, 0.000000000000000000, 0.000000000000000000 ) ) ;
#302 = APPROVAL ( #125, 'NEURÈENÝ' ) ;
#303 = CARTESIAN_POINT ( 'NONE',  ( 0.000000000000000000, 0.000000000000000000, -30.00000000000000000 ) ) ;
#304 = APPROVAL_PERSON_ORGANIZATION ( #382, #302, #187 ) ;
#305 = CARTESIAN_POINT ( 'NONE',  ( 0.000000000000000000, 0.000000000000000000, 0.000000000000000000 ) ) ;
#306 = CIRCLE ( 'NONE', #217, 9.000000000000000000 ) ;
#307 = ORIENTED_EDGE ( 'NONE', *, *, #374, .F. ) ;
#308 = DIRECTION ( 'NONE',  ( -0.000000000000000000, -0.000000000000000000, 1.000000000000000000 ) ) ;
#309 = CARTESIAN_POINT ( 'NONE',  ( 11.00000000000000178, 0.000000000000000000, -0.5000000000000125455 ) ) ;
#310 = TOROIDAL_SURFACE ( 'NONE', #159, 9.000000000000000000, 0.5000000000000000000 ) ;
#311 = EDGE_CURVE ( 'NONE', #389, #46, #177, .T. ) ;
#312 = CARTESIAN_POINT ( 'NONE',  ( 0.000000000000000000, 0.000000000000000000, 0.000000000000000000 ) ) ;
#313 = ORIENTED_EDGE ( 'NONE', *, *, #55, .T. ) ;
#314 = PRODUCT_DEFINITION_FORMATION_WITH_SPECIFIED_SOURCE ( 'LIBOVOLNÝ', '', #380, .NOT_KNOWN. ) ;
#315 = DIRECTION ( 'NONE',  ( 0.000000000000000000, 0.000000000000000000, -1.000000000000000000 ) ) ;
#316 = EDGE_LOOP ( 'NONE', ( #387, #77, #296, #231 ) ) ;
#317 = DATE_TIME_ROLE ( 'creation_date' ) ;
#318 = CALENDAR_DATE ( 2024, 2, 1 ) ;
#319 = ADVANCED_FACE ( 'NONE', ( #68 ), #343, .F. ) ;
#320 = DIRECTION ( 'NONE',  ( -1.000000000000000000, 0.000000000000000000, 0.000000000000000000 ) ) ;
#321 = DIRECTION ( 'NONE',  ( -0.000000000000000000, -0.000000000000000000, 1.000000000000000000 ) ) ;
#322 = DIRECTION ( 'NONE',  ( 0.000000000000000000, 0.000000000000000000, -1.000000000000000000 ) ) ;
#323 = EDGE_LOOP ( 'NONE', ( #295, #397, #16, #349 ) ) ;
#324 = CARTESIAN_POINT ( 'NONE',  ( 9.000000000000000000, 0.000000000000000000, -5.500000000000000000 ) ) ;
#325 = PERSON_AND_ORGANIZATION ( #261, #75 ) ;
#326 = DIRECTION ( 'NONE',  ( 1.224646799147353207E-16, 1.000000000000000000, 0.000000000000000000 ) ) ;
#327 = DIRECTION ( 'NONE',  ( 0.000000000000000000, 0.000000000000000000, -1.000000000000000000 ) ) ;
#328 = ORIENTED_EDGE ( 'NONE', *, *, #178, .F. ) ;
#329 = PLANE ( 'NONE',  #227 ) ;
#330 = CIRCLE ( 'NONE', #84, 0.5000000000000004441 ) ;
#331 = CARTESIAN_POINT ( 'NONE',  ( -8.499999999999998224, 1.071565949253933927E-15, -5.500000000000000000 ) ) ;
#332 = CIRCLE ( 'NONE', #6, 9.000000000000000000 ) ;
#333 = CLOSED_SHELL ( 'NONE', ( #95, #319, #47, #182, #145, #383, #202, #164, #123, #157, #287, #127, #363 ) ) ;
#334 = CARTESIAN_POINT ( 'NONE',  ( 0.000000000000000000, 0.000000000000000000, 0.000000000000000000 ) ) ;
#335 = DIRECTION ( 'NONE',  ( 1.000000000000000000, 0.000000000000000000, 0.000000000000000000 ) ) ;
#336 = AXIS2_PLACEMENT_3D ( 'NONE', #17, #326, #19 ) ;
#337 = PRODUCT_DEFINITION ( 'NEZNÁMÝ', '', #314, #252 ) ;
#338 = ORIENTED_EDGE ( 'NONE', *, *, #386, .T. ) ;
#339 = DIRECTION ( 'NONE',  ( 0.000000000000000000, 0.000000000000000000, -1.000000000000000000 ) ) ;
#340 = CARTESIAN_POINT ( 'NONE',  ( 0.000000000000000000, 0.000000000000000000, -5.000000000000000000 ) ) ;
#341 = MANIFOLD_SOLID_BREP ( 'Zkosení1', #333 ) ;
#342 = DIRECTION ( 'NONE',  ( -0.000000000000000000, -0.000000000000000000, 1.000000000000000000 ) ) ;
#343 = TOROIDAL_SURFACE ( 'NONE', #392, 9.000000000000000000, 0.5000000000000000000 ) ;
#344 = APPLICATION_CONTEXT ( 'configuration controlled 3d designs of mechanical parts and assemblies' ) ;
#345 = DIRECTION ( 'NONE',  ( -1.000000000000000000, 0.000000000000000000, 0.000000000000000000 ) ) ;
#346 = APPROVAL_STATUS ( 'not_yet_approved' ) ;
#347 = LINE ( 'NONE', #228, #205 ) ;
#348 = APPROVAL_STATUS ( 'not_yet_approved' ) ;
#349 = ORIENTED_EDGE ( 'NONE', *, *, #148, .F. ) ;
#350 = DIRECTION ( 'NONE',  ( -1.000000000000000000, -1.224646799147353454E-16, 0.000000000000000000 ) ) ;
#351 = PERSON_AND_ORGANIZATION ( #261, #75 ) ;
#352 = AXIS2_PLACEMENT_3D ( 'NONE', #274, #403, #117 ) ;
#353 = EDGE_CURVE ( 'NONE', #40, #72, #285, .T. ) ;
#354 = ORIENTED_EDGE ( 'NONE', *, *, #280, .T. ) ;
#355 = CARTESIAN_POINT ( 'NONE',  ( 0.000000000000000000, 0.000000000000000000, 0.000000000000000000 ) ) ;
#356 = CARTESIAN_POINT ( 'NONE',  ( 0.000000000000000000, 0.000000000000000000, -5.500000000000000000 ) ) ;
#357 = EDGE_LOOP ( 'NONE', ( #307, #114, #190, #140 ) ) ;
#358 = DIRECTION ( 'NONE',  ( -0.000000000000000000, -0.000000000000000000, 1.000000000000000000 ) ) ;
#359 = PERSON_AND_ORGANIZATION_ROLE ( 'creator' ) ;
#360 = CIRCLE ( 'NONE', #35, 9.000000000000000000 ) ;
#361 = ORIENTED_EDGE ( 'NONE', *, *, #398, .T. ) ;
#362 = DIRECTION ( 'NONE',  ( -0.000000000000000000, -0.000000000000000000, 1.000000000000000000 ) ) ;
#363 = ADVANCED_FACE ( 'NONE', ( #96 ), #262, .T. ) ;
#364 = LINE ( 'NONE', #300, #212 ) ;
#365 = DIRECTION ( 'NONE',  ( -1.000000000000000000, 0.000000000000000000, 0.000000000000000000 ) ) ;
#366 = CARTESIAN_POINT ( 'NONE',  ( 10.49999999999999467, 1.316495309083404420E-15, 0.000000000000000000 ) ) ;
#367 = EDGE_CURVE ( 'NONE', #79, #108, #115, .T. ) ;
#368 = CC_DESIGN_APPROVAL ( #302, ( #337 ) ) ;
#369 = APPLICATION_CONTEXT ( 'configuration controlled 3d designs of mechanical parts and assemblies' ) ;
#370 = DIRECTION ( 'NONE',  ( 1.000000000000000000, 0.000000000000000000, 0.000000000000000000 ) ) ;
#371 = DIRECTION ( 'NONE',  ( 0.000000000000000000, 0.000000000000000000, 1.000000000000000000 ) ) ;
#372 = VERTEX_POINT ( 'NONE', #111 ) ;
#373 = PERSON_AND_ORGANIZATION_ROLE ( 'design_owner' ) ;
#374 = EDGE_CURVE ( 'NONE', #40, #175, #249, .T. ) ;
#375 = PERSON_AND_ORGANIZATION ( #261, #75 ) ;
#376 = FACE_OUTER_BOUND ( 'NONE', #112, .T. ) ;
#377 = PERSON_AND_ORGANIZATION ( #261, #75 ) ;
#378 = CARTESIAN_POINT ( 'NONE',  ( 0.000000000000000000, 0.000000000000000000, -5.500000000000000000 ) ) ;
#379 = PERSON_AND_ORGANIZATION_ROLE ( 'creator' ) ;
#380 = PRODUCT ( '0135', '0135', '', ( #242 ) ) ;
#381 = ORIENTED_EDGE ( 'NONE', *, *, #353, .F. ) ;
#382 = PERSON_AND_ORGANIZATION ( #261, #75 ) ;
#383 = ADVANCED_FACE ( 'NONE', ( #267 ), #293, .T. ) ;
#384 = AXIS2_PLACEMENT_3D ( 'NONE', #225, #395, #167 ) ;
#385 = AXIS2_PLACEMENT_3D ( 'NONE', #23, #88, #27 ) ;
#386 = EDGE_CURVE ( 'NONE', #389, #18, #263, .T. ) ;
#387 = ORIENTED_EDGE ( 'NONE', *, *, #186, .F. ) ;
#388 = DIRECTION ( 'NONE',  ( 0.000000000000000000, -1.000000000000000000, 0.000000000000000000 ) ) ;
#389 = VERTEX_POINT ( 'NONE', #394 ) ;
#390 = APPROVAL_PERSON_ORGANIZATION ( #377, #65, #256 ) ;
#391 = DIRECTION ( 'NONE',  ( 1.000000000000000000, 0.000000000000000000, 0.000000000000000000 ) ) ;
#392 = AXIS2_PLACEMENT_3D ( 'NONE', #184, #315, #320 ) ;
#393 = ORIENTED_EDGE ( 'NONE', *, *, #294, .T. ) ;
#394 = CARTESIAN_POINT ( 'NONE',  ( -10.49999999999999467, 0.000000000000000000, 0.000000000000000000 ) ) ;
#395 = DIRECTION ( 'NONE',  ( -0.000000000000000000, -0.000000000000000000, 1.000000000000000000 ) ) ;
#396 = SECURITY_CLASSIFICATION_LEVEL ( 'unclassified' ) ;
#397 = ORIENTED_EDGE ( 'NONE', *, *, #374, .T. ) ;
#398 = EDGE_CURVE ( 'NONE', #46, #389, #254, .T. ) ;
#399 = DIRECTION ( 'NONE',  ( -1.000000000000000000, 0.000000000000000000, 0.000000000000000000 ) ) ;
#400 = CIRCLE ( 'NONE', #226, 11.00000000000000000 ) ;
#401 = VERTEX_POINT ( 'NONE', #235 ) ;
#402 = CARTESIAN_POINT ( 'NONE',  ( 11.00000000000000000, 0.000000000000000000, -5.000000000000000000 ) ) ;
#403 = DIRECTION ( 'NONE',  ( -0.000000000000000000, -0.000000000000000000, 1.000000000000000000 ) ) ;
#404 = CARTESIAN_POINT ( 'NONE',  ( 0.000000000000000000, 0.000000000000000000, -6.000000000000000000 ) ) ;
#405 = AXIS2_PLACEMENT_3D ( 'NONE', #251, #158, #286 ) ;
#406 = VERTEX_POINT ( 'NONE', #174 ) ;
#407 = DIRECTION ( 'NONE',  ( 0.000000000000000000, 0.000000000000000000, -1.000000000000000000 ) ) ;
#408 = LINE ( 'NONE', #53, #100 ) ;
#409 = CC_DESIGN_PERSON_AND_ORGANIZATION_ASSIGNMENT ( #351, #105, ( #163 ) ) ;
ENDSEC;
END-ISO-10303-21;
