ISO-10303-21;
HEADER;
FILE_DESCRIPTION (( 'STEP AP203' ),
    '1' );
FILE_NAME ('0de4.STEP',
    '2024-01-02T23:01:19',
    ( '' ),
    ( '' ),
    'SwSTEP 2.0',
    'SolidWorks 2019',
    '' );
FILE_SCHEMA (( 'CONFIG_CONTROL_DESIGN' ));
ENDSEC;

DATA;
#1 = PRODUCT_DEFINITION ( 'NEZNÁMÝ', '', #248, #111 ) ;
#2 = ORIENTED_EDGE ( 'NONE', *, *, #405, .F. ) ;
#3 = LINE ( 'NONE', #366, #275 ) ;
#4 = EDGE_LOOP ( 'NONE', ( #148, #203, #365, #272 ) ) ;
#5 = FACE_OUTER_BOUND ( 'NONE', #103, .T. ) ;
#6 = FACE_OUTER_BOUND ( 'NONE', #294, .T. ) ;
#7 = CIRCLE ( 'NONE', #262, 10.50000000000000178 ) ;
#8 = AXIS2_PLACEMENT_3D ( 'NONE', #19, #150, #113 ) ;
#9 = CIRCLE ( 'NONE', #264, 9.000000000000000000 ) ;
#10 = DIRECTION ( 'NONE',  ( 1.000000000000000000, 0.000000000000000000, 0.000000000000000000 ) ) ;
#11 = ORIENTED_EDGE ( 'NONE', *, *, #254, .T. ) ;
#12 = DIRECTION ( 'NONE',  ( -0.000000000000000000, -0.000000000000000000, 1.000000000000000000 ) ) ;
#13 = CARTESIAN_POINT ( 'NONE',  ( -9.000000000000000000, 1.102182119232617714E-15, -20.00000000000000000 ) ) ;
#14 = CARTESIAN_POINT ( 'NONE',  ( -9.000000000000000000, 0.000000000000000000, -4.999999999999999112 ) ) ;
#15 = AXIS2_PLACEMENT_3D ( 'NONE', #192, #124, #324 ) ;
#16 = DIRECTION ( 'NONE',  ( 1.224646799147353207E-16, 1.000000000000000000, 0.000000000000000000 ) ) ;
#17 = ORIENTED_EDGE ( 'NONE', *, *, #141, .T. ) ;
#18 = CARTESIAN_POINT ( 'NONE',  ( 9.000000000000000000, 0.000000000000000000, -5.500000000000000000 ) ) ;
#19 = CARTESIAN_POINT ( 'NONE',  ( 9.000000000000000000, 1.102182119232617714E-15, -5.500000000000000000 ) ) ;
#20 = ORIENTED_EDGE ( 'NONE', *, *, #86, .F. ) ;
#21 = CARTESIAN_POINT ( 'NONE',  ( 0.000000000000000000, 0.000000000000000000, 0.000000000000000000 ) ) ;
#22 = DIRECTION ( 'NONE',  ( 1.000000000000000000, 0.000000000000000000, 0.000000000000000000 ) ) ;
#23 = CIRCLE ( 'NONE', #182, 11.00000000000000178 ) ;
#24 = APPROVAL_DATE_TIME ( #287, #135 ) ;
#25 = CARTESIAN_POINT ( 'NONE',  ( 11.00000000000000000, 0.000000000000000000, -5.000000000000000000 ) ) ;
#26 = VERTEX_POINT ( 'NONE', #60 ) ;
#27 = SECURITY_CLASSIFICATION_LEVEL ( 'unclassified' ) ;
#28 = CARTESIAN_POINT ( 'NONE',  ( 0.000000000000000000, 0.000000000000000000, 0.000000000000000000 ) ) ;
#29 = CC_DESIGN_DATE_AND_TIME_ASSIGNMENT ( #378, #216, ( #221 ) ) ;
#30 = ADVANCED_FACE ( 'NONE', ( #330 ), #292, .T. ) ;
#31 = AXIS2_PLACEMENT_3D ( 'NONE', #404, #224, #54 ) ;
#32 = ORIENTED_EDGE ( 'NONE', *, *, #215, .T. ) ;
#33 = FACE_OUTER_BOUND ( 'NONE', #51, .T. ) ;
#34 = LINE ( 'NONE', #312, #219 ) ;
#35 = CARTESIAN_POINT ( 'NONE',  ( 0.000000000000000000, 0.000000000000000000, -5.000000000000000000 ) ) ;
#36 = EDGE_CURVE ( 'NONE', #222, #37, #339, .T. ) ;
#37 = VERTEX_POINT ( 'NONE', #89 ) ;
#38 = ORIENTED_EDGE ( 'NONE', *, *, #136, .T. ) ;
#39 = ADVANCED_FACE ( 'NONE', ( #225, #259 ), #193, .T. ) ;
#40 = DIRECTION ( 'NONE',  ( 0.000000000000000000, 0.000000000000000000, -1.000000000000000000 ) ) ;
#41 = DIRECTION ( 'NONE',  ( -0.000000000000000000, -0.000000000000000000, 1.000000000000000000 ) ) ;
#42 = DIRECTION ( 'NONE',  ( 0.7071067811865426878, 8.659560562354873694E-17, -0.7071067811865524577 ) ) ;
#43 = ADVANCED_FACE ( 'NONE', ( #6 ), #239, .F. ) ;
#44 = CC_DESIGN_PERSON_AND_ORGANIZATION_ASSIGNMENT ( #320, #157, ( #342 ) ) ;
#45 = PERSON_AND_ORGANIZATION ( #369, #109 ) ;
#46 = DIRECTION ( 'NONE',  ( -0.000000000000000000, -0.000000000000000000, 1.000000000000000000 ) ) ;
#47 = DATE_TIME_ROLE ( 'creation_date' ) ;
#48 = DIRECTION ( 'NONE',  ( 1.000000000000000000, 0.000000000000000000, 0.000000000000000000 ) ) ;
#49 = AXIS2_PLACEMENT_3D ( 'NONE', #144, #277, #313 ) ;
#50 = AXIS2_PLACEMENT_3D ( 'NONE', #78, #210, #396 ) ;
#51 = EDGE_LOOP ( 'NONE', ( #114, #194 ) ) ;
#52 = ADVANCED_BREP_SHAPE_REPRESENTATION ( '0de4', ( #87, #299 ), #185 ) ;
#53 = APPROVAL_DATE_TIME ( #226, #407 ) ;
#54 = DIRECTION ( 'NONE',  ( 1.000000000000000000, 0.000000000000000000, 0.000000000000000000 ) ) ;
#55 = ORIENTED_EDGE ( 'NONE', *, *, #405, .T. ) ;
#56 = COORDINATED_UNIVERSAL_TIME_OFFSET ( 1, 0, .AHEAD. ) ;
#57 = CC_DESIGN_PERSON_AND_ORGANIZATION_ASSIGNMENT ( #84, #115, ( #248 ) ) ;
#58 = CARTESIAN_POINT ( 'NONE',  ( -9.000000000000000000, 1.102182119232617714E-15, -6.000000000000000000 ) ) ;
#59 = CIRCLE ( 'NONE', #75, 9.000000000000000000 ) ;
#60 = CARTESIAN_POINT ( 'NONE',  ( -10.50000000000000178, 0.000000000000000000, 0.000000000000000000 ) ) ;
#61 = FACE_OUTER_BOUND ( 'NONE', #131, .T. ) ;
#62 = LOCAL_TIME ( 0, 1, 19.00000000000000000, #56 ) ;
#63 = CARTESIAN_POINT ( 'NONE',  ( 0.000000000000000000, 9.000000000000000000, -20.00000000000000000 ) ) ;
#64 = VERTEX_POINT ( 'NONE', #268 ) ;
#65 = DIRECTION ( 'NONE',  ( -0.000000000000000000, -0.000000000000000000, 1.000000000000000000 ) ) ;
#66 = EDGE_CURVE ( 'NONE', #188, #202, #326, .T. ) ;
#67 = SHAPE_DEFINITION_REPRESENTATION ( #354, #52 ) ;
#68 = CARTESIAN_POINT ( 'NONE',  ( 0.000000000000000000, 0.000000000000000000, -5.500000000000000000 ) ) ;
#69 = AXIS2_PLACEMENT_3D ( 'NONE', #21, #149, #10 ) ;
#70 = DIRECTION ( 'NONE',  ( 1.000000000000000000, 0.000000000000000000, 0.000000000000000000 ) ) ;
#71 = EDGE_CURVE ( 'NONE', #37, #391, #242, .T. ) ;
#72 = CARTESIAN_POINT ( 'NONE',  ( 0.000000000000000000, 0.000000000000000000, 0.000000000000000000 ) ) ;
#73 = ORIENTED_EDGE ( 'NONE', *, *, #238, .T. ) ;
#74 = CIRCLE ( 'NONE', #315, 8.499999999999998224 ) ;
#75 = AXIS2_PLACEMENT_3D ( 'NONE', #155, #321, #195 ) ;
#76 = CARTESIAN_POINT ( 'NONE',  ( 0.000000000000000000, 0.000000000000000000, -5.500000000000000000 ) ) ;
#77 = CC_DESIGN_APPROVAL ( #135, ( #1 ) ) ;
#78 = CARTESIAN_POINT ( 'NONE',  ( -9.000000000000000000, 0.000000000000000000, -5.500000000000000000 ) ) ;
#79 = LINE ( 'NONE', #214, #125 ) ;
#80 =( LENGTH_UNIT ( ) NAMED_UNIT ( * ) SI_UNIT ( .MILLI., .METRE. ) );
#81 = CARTESIAN_POINT ( 'NONE',  ( 10.50000000000000178, 1.285879139104721028E-15, 0.000000000000000000 ) ) ;
#82 = AXIS2_PLACEMENT_3D ( 'NONE', #35, #130, #305 ) ;
#83 = LOCAL_TIME ( 0, 1, 19.00000000000000000, #172 ) ;
#84 = PERSON_AND_ORGANIZATION ( #369, #109 ) ;
#85 =( NAMED_UNIT ( * ) SI_UNIT ( $, .STERADIAN. ) SOLID_ANGLE_UNIT ( ) );
#86 = EDGE_CURVE ( 'NONE', #127, #105, #79, .T. ) ;
#87 = MANIFOLD_SOLID_BREP ( 'Zkosení1', #388 ) ;
#88 = CARTESIAN_POINT ( 'NONE',  ( -8.499999999999998224, 1.071565949253933927E-15, -5.500000000000000000 ) ) ;
#89 = CARTESIAN_POINT ( 'NONE',  ( -11.00000000000000000, 1.347111479062088602E-15, -5.000000000000000000 ) ) ;
#90 = APPROVAL_STATUS ( 'not_yet_approved' ) ;
#91 = ORIENTED_EDGE ( 'NONE', *, *, #36, .F. ) ;
#92 = FACE_OUTER_BOUND ( 'NONE', #300, .T. ) ;
#93 = ADVANCED_FACE ( 'NONE', ( #343 ), #107, .T. ) ;
#94 = CIRCLE ( 'NONE', #161, 11.00000000000000000 ) ;
#95 = CIRCLE ( 'NONE', #8, 0.5000000000000004441 ) ;
#96 = EDGE_CURVE ( 'NONE', #105, #202, #357, .T. ) ;
#97 = AXIS2_PLACEMENT_3D ( 'NONE', #72, #12, #108 ) ;
#98 = APPROVAL_DATE_TIME ( #234, #337 ) ;
#99 = DIRECTION ( 'NONE',  ( -1.000000000000000000, 0.000000000000000000, -0.000000000000000000 ) ) ;
#100 = DIRECTION ( 'NONE',  ( -1.000000000000000000, 0.000000000000000000, 0.000000000000000000 ) ) ;
#101 = EDGE_LOOP ( 'NONE', ( #360, #319, #170, #205 ) ) ;
#102 = DIRECTION ( 'NONE',  ( -0.000000000000000000, -0.000000000000000000, 1.000000000000000000 ) ) ;
#103 = EDGE_LOOP ( 'NONE', ( #151, #331, #55, #137 ) ) ;
#104 = CC_DESIGN_PERSON_AND_ORGANIZATION_ASSIGNMENT ( #327, #323, ( #248 ) ) ;
#105 = VERTEX_POINT ( 'NONE', #110 ) ;
#106 = CIRCLE ( 'NONE', #368, 8.499999999999998224 ) ;
#107 = CONICAL_SURFACE ( 'NONE', #364, 10.50000000000000178, 0.7853981633974415066 ) ;
#108 = DIRECTION ( 'NONE',  ( 1.000000000000000000, 0.000000000000000000, 0.000000000000000000 ) ) ;
#109 = ORGANIZATION ( 'NEURÈENÝ', 'NEURÈENÝ', '' ) ;
#110 = CARTESIAN_POINT ( 'NONE',  ( 9.000000000000000000, 0.000000000000000000, -6.000000000000000000 ) ) ;
#111 = DESIGN_CONTEXT ( 'detailed design', #158, 'design' ) ;
#112 = CARTESIAN_POINT ( 'NONE',  ( 0.000000000000000000, 0.000000000000000000, -5.000000000000000000 ) ) ;
#113 = DIRECTION ( 'NONE',  ( -1.000000000000000000, -1.224646799147353454E-16, 0.000000000000000000 ) ) ;
#114 = ORIENTED_EDGE ( 'NONE', *, *, #310, .F. ) ;
#115 = PERSON_AND_ORGANIZATION_ROLE ( 'design_supplier' ) ;
#116 = AXIS2_PLACEMENT_3D ( 'NONE', #355, #156, #295 ) ;
#117 = DIRECTION ( 'NONE',  ( 0.000000000000000000, -0.000000000000000000, 1.000000000000000000 ) ) ;
#118 = ORIENTED_EDGE ( 'NONE', *, *, #66, .T. ) ;
#119 = EDGE_CURVE ( 'NONE', #397, #64, #345, .T. ) ;
#120 = VERTEX_POINT ( 'NONE', #13 ) ;
#121 = ADVANCED_FACE ( 'NONE', ( #282 ), #274, .T. ) ;
#122 = ORIENTED_EDGE ( 'NONE', *, *, #316, .T. ) ;
#123 = PERSON_AND_ORGANIZATION ( #369, #109 ) ;
#124 = DIRECTION ( 'NONE',  ( -0.000000000000000000, -0.000000000000000000, 1.000000000000000000 ) ) ;
#125 = VECTOR ( 'NONE', #375, 1000.000000000000000 ) ;
#126 = AXIS2_PLACEMENT_3D ( 'NONE', #138, #198, #100 ) ;
#127 = VERTEX_POINT ( 'NONE', #184 ) ;
#128 = AXIS2_PLACEMENT_3D ( 'NONE', #18, #281, #347 ) ;
#129 = CALENDAR_DATE ( 2024, 3, 1 ) ;
#130 = DIRECTION ( 'NONE',  ( -0.000000000000000000, -0.000000000000000000, 1.000000000000000000 ) ) ;
#131 = EDGE_LOOP ( 'NONE', ( #167, #400, #142, #402 ) ) ;
#132 = CARTESIAN_POINT ( 'NONE',  ( 0.000000000000000000, 0.000000000000000000, -6.000000000000000000 ) ) ;
#133 = CIRCLE ( 'NONE', #15, 9.000000000000000000 ) ;
#134 = AXIS2_PLACEMENT_3D ( 'NONE', #243, #41, #180 ) ;
#135 = APPROVAL ( #90, 'NEURÈENÝ' ) ;
#136 = EDGE_CURVE ( 'NONE', #380, #145, #95, .T. ) ;
#137 = ORIENTED_EDGE ( 'NONE', *, *, #141, .F. ) ;
#138 = CARTESIAN_POINT ( 'NONE',  ( 0.000000000000000000, 0.000000000000000000, 0.000000000000000000 ) ) ;
#139 = ORIENTED_EDGE ( 'NONE', *, *, #310, .T. ) ;
#140 = CC_DESIGN_PERSON_AND_ORGANIZATION_ASSIGNMENT ( #160, #362, ( #221 ) ) ;
#141 = EDGE_CURVE ( 'NONE', #145, #395, #59, .T. ) ;
#142 = ORIENTED_EDGE ( 'NONE', *, *, #245, .F. ) ;
#143 = DIRECTION ( 'NONE',  ( -0.7071067811865426878, 0.000000000000000000, -0.7071067811865524577 ) ) ;
#144 = CARTESIAN_POINT ( 'NONE',  ( 0.000000000000000000, 0.000000000000000000, -5.500000000000000000 ) ) ;
#145 = VERTEX_POINT ( 'NONE', #164 ) ;
#146 = TOROIDAL_SURFACE ( 'NONE', #304, 9.000000000000000000, 0.5000000000000000000 ) ;
#147 = CARTESIAN_POINT ( 'NONE',  ( 0.000000000000000000, 0.000000000000000000, -6.000000000000000000 ) ) ;
#148 = ORIENTED_EDGE ( 'NONE', *, *, #66, .F. ) ;
#149 = DIRECTION ( 'NONE',  ( -0.000000000000000000, -0.000000000000000000, 1.000000000000000000 ) ) ;
#150 = DIRECTION ( 'NONE',  ( -1.224646799147353207E-16, 1.000000000000000000, 0.000000000000000000 ) ) ;
#151 = ORIENTED_EDGE ( 'NONE', *, *, #136, .F. ) ;
#152 = DIRECTION ( 'NONE',  ( -0.000000000000000000, -0.000000000000000000, 1.000000000000000000 ) ) ;
#153 = DIRECTION ( 'NONE',  ( -1.000000000000000000, 1.224646799147353454E-16, 0.000000000000000000 ) ) ;
#154 = TOROIDAL_SURFACE ( 'NONE', #356, 9.000000000000000000, 0.5000000000000000000 ) ;
#155 = CARTESIAN_POINT ( 'NONE',  ( 0.000000000000000000, 0.000000000000000000, -5.000000000000000000 ) ) ;
#156 = DIRECTION ( 'NONE',  ( -0.000000000000000000, -0.000000000000000000, 1.000000000000000000 ) ) ;
#157 = PERSON_AND_ORGANIZATION_ROLE ( 'design_owner' ) ;
#158 = APPLICATION_CONTEXT ( 'configuration controlled 3d designs of mechanical parts and assemblies' ) ;
#159 = ORIENTED_EDGE ( 'NONE', *, *, #278, .F. ) ;
#160 = PERSON_AND_ORGANIZATION ( #369, #109 ) ;
#161 = AXIS2_PLACEMENT_3D ( 'NONE', #385, #200, #301 ) ;
#162 = CC_DESIGN_APPROVAL ( #337, ( #221 ) ) ;
#163 = COORDINATED_UNIVERSAL_TIME_OFFSET ( 1, 0, .AHEAD. ) ;
#164 = CARTESIAN_POINT ( 'NONE',  ( 9.000000000000000000, 1.102182119232617714E-15, -4.999999999999999112 ) ) ;
#165 = APPROVAL_ROLE ( '' ) ;
#166 = CIRCLE ( 'NONE', #334, 9.000000000000000000 ) ;
#167 = ORIENTED_EDGE ( 'NONE', *, *, #265, .F. ) ;
#168 = VECTOR ( 'NONE', #143, 1000.000000000000000 ) ;
#169 = DIRECTION ( 'NONE',  ( -1.000000000000000000, 0.000000000000000000, 0.000000000000000000 ) ) ;
#170 = ORIENTED_EDGE ( 'NONE', *, *, #293, .T. ) ;
#171 = ORIENTED_EDGE ( 'NONE', *, *, #348, .T. ) ;
#172 = COORDINATED_UNIVERSAL_TIME_OFFSET ( 1, 0, .AHEAD. ) ;
#173 = DIRECTION ( 'NONE',  ( -1.000000000000000000, 0.000000000000000000, -0.000000000000000000 ) ) ;
#174 = CALENDAR_DATE ( 2024, 3, 1 ) ;
#175 = UNCERTAINTY_MEASURE_WITH_UNIT (LENGTH_MEASURE( 1.000000000000000082E-05 ), #80, 'distance_accuracy_value', 'NONE');
#176 = ADVANCED_FACE ( 'NONE', ( #318 ), #383, .F. ) ;
#177 = ORIENTED_EDGE ( 'NONE', *, *, #265, .T. ) ;
#178 = DIRECTION ( 'NONE',  ( 0.000000000000000000, 0.000000000000000000, -1.000000000000000000 ) ) ;
#179 = LINE ( 'NONE', #244, #168 ) ;
#180 = DIRECTION ( 'NONE',  ( 1.000000000000000000, 0.000000000000000000, 0.000000000000000000 ) ) ;
#181 = ORIENTED_EDGE ( 'NONE', *, *, #36, .T. ) ;
#182 = AXIS2_PLACEMENT_3D ( 'NONE', #204, #178, #371 ) ;
#183 =( NAMED_UNIT ( * ) PLANE_ANGLE_UNIT ( ) SI_UNIT ( $, .RADIAN. ) );
#184 = CARTESIAN_POINT ( 'NONE',  ( 9.000000000000000000, 0.000000000000000000, -20.00000000000000000 ) ) ;
#185 =( GEOMETRIC_REPRESENTATION_CONTEXT ( 3 ) GLOBAL_UNCERTAINTY_ASSIGNED_CONTEXT ( ( #175 ) ) GLOBAL_UNIT_ASSIGNED_CONTEXT ( ( #80, #183, #85 ) ) REPRESENTATION_CONTEXT ( 'NONE', 'WORKASPACE' ) );
#186 = DIRECTION ( 'NONE',  ( -1.000000000000000000, 0.000000000000000000, 0.000000000000000000 ) ) ;
#187 = DIRECTION ( 'NONE',  ( 1.000000000000000000, 0.000000000000000000, 0.000000000000000000 ) ) ;
#188 = VERTEX_POINT ( 'NONE', #88 ) ;
#189 = ORIENTED_EDGE ( 'NONE', *, *, #119, .F. ) ;
#190 = COORDINATED_UNIVERSAL_TIME_OFFSET ( 1, 0, .AHEAD. ) ;
#191 = ADVANCED_FACE ( 'NONE', ( #92 ), #146, .F. ) ;
#192 = CARTESIAN_POINT ( 'NONE',  ( 0.000000000000000000, 0.000000000000000000, -20.00000000000000000 ) ) ;
#193 = PLANE ( 'NONE',  #283 ) ;
#194 = ORIENTED_EDGE ( 'NONE', *, *, #215, .F. ) ;
#195 = DIRECTION ( 'NONE',  ( -1.000000000000000000, 0.000000000000000000, 0.000000000000000000 ) ) ;
#196 = AXIS2_PLACEMENT_3D ( 'NONE', #398, #117, #393 ) ;
#197 = APPROVAL_PERSON_ORGANIZATION ( #353, #407, #223 ) ;
#198 = DIRECTION ( 'NONE',  ( 0.000000000000000000, 0.000000000000000000, -1.000000000000000000 ) ) ;
#199 = PRODUCT_RELATED_PRODUCT_CATEGORY ( 'detail', '', ( #342 ) ) ;
#200 = DIRECTION ( 'NONE',  ( -0.000000000000000000, -0.000000000000000000, 1.000000000000000000 ) ) ;
#201 = DIRECTION ( 'NONE',  ( -0.000000000000000000, -0.000000000000000000, 1.000000000000000000 ) ) ;
#202 = VERTEX_POINT ( 'NONE', #58 ) ;
#203 = ORIENTED_EDGE ( 'NONE', *, *, #290, .F. ) ;
#204 = CARTESIAN_POINT ( 'NONE',  ( 0.000000000000000000, 0.000000000000000000, -0.5000000000000056621 ) ) ;
#205 = ORIENTED_EDGE ( 'NONE', *, *, #298, .T. ) ;
#206 = CONICAL_SURFACE ( 'NONE', #126, 10.50000000000000178, 0.7853981633974415066 ) ;
#207 = CIRCLE ( 'NONE', #116, 10.50000000000000178 ) ;
#208 = FACE_OUTER_BOUND ( 'NONE', #280, .T. ) ;
#209 = CARTESIAN_POINT ( 'NONE',  ( -11.00000000000000178, 1.347111479062088602E-15, 0.000000000000000000 ) ) ;
#210 = DIRECTION ( 'NONE',  ( -0.000000000000000000, -1.000000000000000000, -0.000000000000000000 ) ) ;
#211 = DIRECTION ( 'NONE',  ( -0.000000000000000000, -0.000000000000000000, 1.000000000000000000 ) ) ;
#212 = ORIENTED_EDGE ( 'NONE', *, *, #316, .F. ) ;
#213 = CC_DESIGN_DATE_AND_TIME_ASSIGNMENT ( #286, #47, ( #1 ) ) ;
#214 = CARTESIAN_POINT ( 'NONE',  ( 9.000000000000000000, 0.000000000000000000, 0.000000000000000000 ) ) ;
#215 = EDGE_CURVE ( 'NONE', #120, #127, #133, .T. ) ;
#216 = DATE_TIME_ROLE ( 'classification_date' ) ;
#217 = DIRECTION ( 'NONE',  ( -0.000000000000000000, -0.000000000000000000, 1.000000000000000000 ) ) ;
#218 = CALENDAR_DATE ( 2024, 3, 1 ) ;
#219 = VECTOR ( 'NONE', #374, 1000.000000000000000 ) ;
#220 = CIRCLE ( 'NONE', #332, 11.00000000000000178 ) ;
#221 = SECURITY_CLASSIFICATION ( '', '', #27 ) ;
#222 = VERTEX_POINT ( 'NONE', #25 ) ;
#223 = APPROVAL_ROLE ( '' ) ;
#224 = DIRECTION ( 'NONE',  ( -0.000000000000000000, -0.000000000000000000, 1.000000000000000000 ) ) ;
#225 = FACE_BOUND ( 'NONE', #351, .T. ) ;
#226 = DATE_AND_TIME ( #361, #229 ) ;
#227 = DIRECTION ( 'NONE',  ( 0.000000000000000000, 0.000000000000000000, -1.000000000000000000 ) ) ;
#228 = EDGE_CURVE ( 'NONE', #26, #397, #207, .T. ) ;
#229 = LOCAL_TIME ( 0, 1, 19.00000000000000000, #190 ) ;
#230 = PLANE ( 'NONE',  #367 ) ;
#231 = ORIENTED_EDGE ( 'NONE', *, *, #245, .T. ) ;
#232 = DIRECTION ( 'NONE',  ( 1.000000000000000000, 0.000000000000000000, 0.000000000000000000 ) ) ;
#233 = AXIS2_PLACEMENT_3D ( 'NONE', #147, #211, #376 ) ;
#234 = DATE_AND_TIME ( #174, #83 ) ;
#235 = DIRECTION ( 'NONE',  ( 0.000000000000000000, 0.000000000000000000, -1.000000000000000000 ) ) ;
#236 = ORIENTED_EDGE ( 'NONE', *, *, #228, .T. ) ;
#237 = DIRECTION ( 'NONE',  ( 1.000000000000000000, 0.000000000000000000, 0.000000000000000000 ) ) ;
#238 = EDGE_CURVE ( 'NONE', #202, #105, #166, .T. ) ;
#239 = TOROIDAL_SURFACE ( 'NONE', #49, 9.000000000000000000, 0.5000000000000000000 ) ;
#240 = CARTESIAN_POINT ( 'NONE',  ( -11.00000000000000178, 1.347111479062088602E-15, -0.5000000000000056621 ) ) ;
#241 = CIRCLE ( 'NONE', #128, 0.5000000000000004441 ) ;
#242 = LINE ( 'NONE', #209, #297 ) ;
#243 = CARTESIAN_POINT ( 'NONE',  ( 0.000000000000000000, 0.000000000000000000, 0.000000000000000000 ) ) ;
#244 = CARTESIAN_POINT ( 'NONE',  ( -10.50000000000000178, 0.000000000000000000, 0.000000000000000000 ) ) ;
#245 = EDGE_CURVE ( 'NONE', #391, #64, #220, .T. ) ;
#246 = EDGE_LOOP ( 'NONE', ( #236, #177 ) ) ;
#247 = CALENDAR_DATE ( 2024, 3, 1 ) ;
#248 = PRODUCT_DEFINITION_FORMATION_WITH_SPECIFIED_SOURCE ( 'LIBOVOLNÝ', '', #342, .NOT_KNOWN. ) ;
#249 = EDGE_LOOP ( 'NONE', ( #91, #159 ) ) ;
#250 = ADVANCED_FACE ( 'NONE', ( #33 ), #230, .T. ) ;
#251 = APPLICATION_PROTOCOL_DEFINITION ( 'international standard', 'config_control_design', 1994, #158 ) ;
#252 = CARTESIAN_POINT ( 'NONE',  ( 0.000000000000000000, 0.000000000000000000, -0.5000000000000056621 ) ) ;
#253 = ORIENTED_EDGE ( 'NONE', *, *, #228, .F. ) ;
#254 = EDGE_CURVE ( 'NONE', #120, #202, #3, .T. ) ;
#255 = ORIENTED_EDGE ( 'NONE', *, *, #86, .T. ) ;
#256 = LOCAL_TIME ( 0, 1, 19.00000000000000000, #352 ) ;
#257 = EDGE_LOOP ( 'NONE', ( #181, #336, #231, #340 ) ) ;
#258 = MECHANICAL_CONTEXT ( 'NONE', #261, 'mechanical' ) ;
#259 = FACE_OUTER_BOUND ( 'NONE', #249, .T. ) ;
#260 = ORIENTED_EDGE ( 'NONE', *, *, #346, .F. ) ;
#261 = APPLICATION_CONTEXT ( 'configuration controlled 3d designs of mechanical parts and assemblies' ) ;
#262 = AXIS2_PLACEMENT_3D ( 'NONE', #389, #65, #232 ) ;
#263 = AXIS2_PLACEMENT_3D ( 'NONE', #372, #16, #153 ) ;
#264 = AXIS2_PLACEMENT_3D ( 'NONE', #112, #307, #401 ) ;
#265 = EDGE_CURVE ( 'NONE', #397, #26, #7, .T. ) ;
#266 = EDGE_LOOP ( 'NONE', ( #139, #11, #325, #20 ) ) ;
#267 = DIRECTION ( 'NONE',  ( 0.000000000000000000, 0.000000000000000000, -1.000000000000000000 ) ) ;
#268 = CARTESIAN_POINT ( 'NONE',  ( 11.00000000000000178, 0.000000000000000000, -0.5000000000000056621 ) ) ;
#269 = ADVANCED_FACE ( 'NONE', ( #5 ), #154, .F. ) ;
#270 = ORIENTED_EDGE ( 'NONE', *, *, #254, .F. ) ;
#271 = CYLINDRICAL_SURFACE ( 'NONE', #134, 11.00000000000000178 ) ;
#272 = ORIENTED_EDGE ( 'NONE', *, *, #96, .T. ) ;
#273 = CARTESIAN_POINT ( 'NONE',  ( 8.499999999999998224, 0.000000000000000000, -5.500000000000000000 ) ) ;
#274 = PLANE ( 'NONE',  #196 ) ;
#275 = VECTOR ( 'NONE', #102, 1000.000000000000000 ) ;
#276 = CARTESIAN_POINT ( 'NONE',  ( 10.50000000000000178, 1.316495309083404815E-15, 0.000000000000000000 ) ) ;
#277 = DIRECTION ( 'NONE',  ( -0.000000000000000000, -0.000000000000000000, 1.000000000000000000 ) ) ;
#278 = EDGE_CURVE ( 'NONE', #37, #222, #94, .T. ) ;
#279 = DIRECTION ( 'NONE',  ( 1.000000000000000000, 0.000000000000000000, 0.000000000000000000 ) ) ;
#280 = EDGE_LOOP ( 'NONE', ( #270, #32, #255, #302 ) ) ;
#281 = DIRECTION ( 'NONE',  ( 0.000000000000000000, -1.000000000000000000, 0.000000000000000000 ) ) ;
#282 = FACE_OUTER_BOUND ( 'NONE', #246, .T. ) ;
#283 = AXIS2_PLACEMENT_3D ( 'NONE', #381, #267, #173 ) ;
#284 = CARTESIAN_POINT ( 'NONE',  ( 0.000000000000000000, 0.000000000000000000, -5.500000000000000000 ) ) ;
#285 = ADVANCED_FACE ( 'NONE', ( #61 ), #206, .T. ) ;
#286 = DATE_AND_TIME ( #218, #256 ) ;
#287 = DATE_AND_TIME ( #129, #359 ) ;
#288 = ORIENTED_EDGE ( 'NONE', *, *, #298, .F. ) ;
#289 = DIRECTION ( 'NONE',  ( 0.000000000000000000, 0.000000000000000000, 1.000000000000000000 ) ) ;
#290 = EDGE_CURVE ( 'NONE', #380, #188, #106, .T. ) ;
#291 = APPROVAL_PERSON_ORGANIZATION ( #317, #135, #409 ) ;
#292 = CYLINDRICAL_SURFACE ( 'NONE', #408, 11.00000000000000178 ) ;
#293 = EDGE_CURVE ( 'NONE', #222, #64, #34, .T. ) ;
#294 = EDGE_LOOP ( 'NONE', ( #212, #118, #73, #260 ) ) ;
#295 = DIRECTION ( 'NONE',  ( 1.000000000000000000, 0.000000000000000000, 0.000000000000000000 ) ) ;
#296 = ORIENTED_EDGE ( 'NONE', *, *, #377, .T. ) ;
#297 = VECTOR ( 'NONE', #217, 1000.000000000000000 ) ;
#298 = EDGE_CURVE ( 'NONE', #64, #391, #23, .T. ) ;
#299 = AXIS2_PLACEMENT_3D ( 'NONE', #28, #289, #22 ) ;
#300 = EDGE_LOOP ( 'NONE', ( #122, #38, #322, #2 ) ) ;
#301 = DIRECTION ( 'NONE',  ( 1.000000000000000000, 0.000000000000000000, 0.000000000000000000 ) ) ;
#302 = ORIENTED_EDGE ( 'NONE', *, *, #238, .F. ) ;
#303 = CARTESIAN_POINT ( 'NONE',  ( 0.000000000000000000, 0.000000000000000000, 0.000000000000000000 ) ) ;
#304 = AXIS2_PLACEMENT_3D ( 'NONE', #284, #227, #363 ) ;
#305 = DIRECTION ( 'NONE',  ( 1.000000000000000000, 0.000000000000000000, 0.000000000000000000 ) ) ;
#306 = EDGE_LOOP ( 'NONE', ( #189, #253, #296, #288 ) ) ;
#307 = DIRECTION ( 'NONE',  ( -0.000000000000000000, -0.000000000000000000, 1.000000000000000000 ) ) ;
#308 = CARTESIAN_POINT ( 'NONE',  ( 0.000000000000000000, 0.000000000000000000, -20.00000000000000000 ) ) ;
#309 = CYLINDRICAL_SURFACE ( 'NONE', #97, 9.000000000000000000 ) ;
#310 = EDGE_CURVE ( 'NONE', #127, #120, #387, .T. ) ;
#311 = VECTOR ( 'NONE', #42, 1000.000000000000000 ) ;
#312 = CARTESIAN_POINT ( 'NONE',  ( 11.00000000000000178, 0.000000000000000000, 0.000000000000000000 ) ) ;
#313 = DIRECTION ( 'NONE',  ( 1.000000000000000000, 0.000000000000000000, 0.000000000000000000 ) ) ;
#314 = APPROVAL_STATUS ( 'not_yet_approved' ) ;
#315 = AXIS2_PLACEMENT_3D ( 'NONE', #76, #338, #237 ) ;
#316 = EDGE_CURVE ( 'NONE', #188, #380, #74, .T. ) ;
#317 = PERSON_AND_ORGANIZATION ( #369, #109 ) ;
#318 = FACE_OUTER_BOUND ( 'NONE', #4, .T. ) ;
#319 = ORIENTED_EDGE ( 'NONE', *, *, #278, .T. ) ;
#320 = PERSON_AND_ORGANIZATION ( #369, #109 ) ;
#321 = DIRECTION ( 'NONE',  ( -0.000000000000000000, -0.000000000000000000, 1.000000000000000000 ) ) ;
#322 = ORIENTED_EDGE ( 'NONE', *, *, #348, .F. ) ;
#323 = PERSON_AND_ORGANIZATION_ROLE ( 'creator' ) ;
#324 = DIRECTION ( 'NONE',  ( 1.000000000000000000, 0.000000000000000000, 0.000000000000000000 ) ) ;
#325 = ORIENTED_EDGE ( 'NONE', *, *, #96, .F. ) ;
#326 = CIRCLE ( 'NONE', #263, 0.5000000000000004441 ) ;
#327 = PERSON_AND_ORGANIZATION ( #369, #109 ) ;
#328 = ADVANCED_FACE ( 'NONE', ( #208 ), #344, .T. ) ;
#329 = ADVANCED_FACE ( 'NONE', ( #349 ), #271, .T. ) ;
#330 = FACE_OUTER_BOUND ( 'NONE', #101, .T. ) ;
#331 = ORIENTED_EDGE ( 'NONE', *, *, #290, .T. ) ;
#332 = AXIS2_PLACEMENT_3D ( 'NONE', #252, #379, #48 ) ;
#333 = CARTESIAN_POINT ( 'NONE',  ( 0.000000000000000000, 0.000000000000000000, -5.500000000000000000 ) ) ;
#334 = AXIS2_PLACEMENT_3D ( 'NONE', #132, #46, #187 ) ;
#335 = DIRECTION ( 'NONE',  ( 1.000000000000000000, 0.000000000000000000, 0.000000000000000000 ) ) ;
#336 = ORIENTED_EDGE ( 'NONE', *, *, #71, .T. ) ;
#337 = APPROVAL ( #314, 'NEURÈENÝ' ) ;
#338 = DIRECTION ( 'NONE',  ( -0.000000000000000000, -0.000000000000000000, 1.000000000000000000 ) ) ;
#339 = CIRCLE ( 'NONE', #82, 11.00000000000000000 ) ;
#340 = ORIENTED_EDGE ( 'NONE', *, *, #293, .F. ) ;
#341 = CC_DESIGN_SECURITY_CLASSIFICATION ( #221, ( #248 ) ) ;
#342 = PRODUCT ( '0de4', '0de4', '', ( #258 ) ) ;
#343 = FACE_OUTER_BOUND ( 'NONE', #306, .T. ) ;
#344 = CYLINDRICAL_SURFACE ( 'NONE', #69, 9.000000000000000000 ) ;
#345 = LINE ( 'NONE', #81, #311 ) ;
#346 = EDGE_CURVE ( 'NONE', #380, #105, #241, .T. ) ;
#347 = DIRECTION ( 'NONE',  ( 0.000000000000000000, 0.000000000000000000, -1.000000000000000000 ) ) ;
#348 = EDGE_CURVE ( 'NONE', #395, #145, #9, .T. ) ;
#349 = FACE_OUTER_BOUND ( 'NONE', #257, .T. ) ;
#350 = CARTESIAN_POINT ( 'NONE',  ( 0.000000000000000000, 0.000000000000000000, 0.000000000000000000 ) ) ;
#351 = EDGE_LOOP ( 'NONE', ( #171, #17 ) ) ;
#352 = COORDINATED_UNIVERSAL_TIME_OFFSET ( 1, 0, .AHEAD. ) ;
#353 = PERSON_AND_ORGANIZATION ( #369, #109 ) ;
#354 = PRODUCT_DEFINITION_SHAPE ( 'NONE', 'NONE',  #1 ) ;
#355 = CARTESIAN_POINT ( 'NONE',  ( 0.000000000000000000, 0.000000000000000000, 0.000000000000000000 ) ) ;
#356 = AXIS2_PLACEMENT_3D ( 'NONE', #333, #392, #169 ) ;
#357 = CIRCLE ( 'NONE', #233, 9.000000000000000000 ) ;
#358 = APPLICATION_PROTOCOL_DEFINITION ( 'international standard', 'config_control_design', 1994, #261 ) ;
#359 = LOCAL_TIME ( 0, 1, 19.00000000000000000, #163 ) ;
#360 = ORIENTED_EDGE ( 'NONE', *, *, #71, .F. ) ;
#361 = CALENDAR_DATE ( 2024, 3, 1 ) ;
#362 = PERSON_AND_ORGANIZATION_ROLE ( 'classification_officer' ) ;
#363 = DIRECTION ( 'NONE',  ( -1.000000000000000000, 0.000000000000000000, 0.000000000000000000 ) ) ;
#364 = AXIS2_PLACEMENT_3D ( 'NONE', #350, #40, #186 ) ;
#365 = ORIENTED_EDGE ( 'NONE', *, *, #346, .T. ) ;
#366 = CARTESIAN_POINT ( 'NONE',  ( -9.000000000000000000, 1.102182119232617714E-15, 0.000000000000000000 ) ) ;
#367 = AXIS2_PLACEMENT_3D ( 'NONE', #63, #235, #99 ) ;
#368 = AXIS2_PLACEMENT_3D ( 'NONE', #68, #201, #335 ) ;
#369 = PERSON ( 'NEURÈENÝ', 'NEURÈENÝ', 'NEURÈENÝ', ('NEURÈENÝ'), ('NEURÈENÝ'), ('NEURÈENÝ') ) ;
#370 = FACE_OUTER_BOUND ( 'NONE', #266, .T. ) ;
#371 = DIRECTION ( 'NONE',  ( 1.000000000000000000, 0.000000000000000000, 0.000000000000000000 ) ) ;
#372 = CARTESIAN_POINT ( 'NONE',  ( -9.000000000000000000, 1.102182119232617714E-15, -5.500000000000000000 ) ) ;
#373 = CIRCLE ( 'NONE', #50, 0.5000000000000004441 ) ;
#374 = DIRECTION ( 'NONE',  ( -0.000000000000000000, -0.000000000000000000, 1.000000000000000000 ) ) ;
#375 = DIRECTION ( 'NONE',  ( -0.000000000000000000, -0.000000000000000000, 1.000000000000000000 ) ) ;
#376 = DIRECTION ( 'NONE',  ( 1.000000000000000000, 0.000000000000000000, 0.000000000000000000 ) ) ;
#377 = EDGE_CURVE ( 'NONE', #26, #391, #179, .T. ) ;
#378 = DATE_AND_TIME ( #247, #62 ) ;
#379 = DIRECTION ( 'NONE',  ( 0.000000000000000000, 0.000000000000000000, -1.000000000000000000 ) ) ;
#380 = VERTEX_POINT ( 'NONE', #273 ) ;
#381 = CARTESIAN_POINT ( 'NONE',  ( 0.000000000000000000, 11.00000000000000000, -5.000000000000000000 ) ) ;
#382 = AXIS2_PLACEMENT_3D ( 'NONE', #308, #152, #279 ) ;
#383 = TOROIDAL_SURFACE ( 'NONE', #31, 9.000000000000000000, 0.5000000000000000000 ) ;
#384 = ADVANCED_FACE ( 'NONE', ( #370 ), #309, .T. ) ;
#385 = CARTESIAN_POINT ( 'NONE',  ( 0.000000000000000000, 0.000000000000000000, -5.000000000000000000 ) ) ;
#386 = DIRECTION ( 'NONE',  ( -0.000000000000000000, -0.000000000000000000, 1.000000000000000000 ) ) ;
#387 = CIRCLE ( 'NONE', #382, 9.000000000000000000 ) ;
#388 = CLOSED_SHELL ( 'NONE', ( #285, #191, #43, #384, #329, #250, #121, #30, #39, #328, #176, #269, #93 ) ) ;
#389 = CARTESIAN_POINT ( 'NONE',  ( 0.000000000000000000, 0.000000000000000000, 0.000000000000000000 ) ) ;
#390 = APPROVAL_PERSON_ORGANIZATION ( #45, #337, #165 ) ;
#391 = VERTEX_POINT ( 'NONE', #240 ) ;
#392 = DIRECTION ( 'NONE',  ( 0.000000000000000000, 0.000000000000000000, -1.000000000000000000 ) ) ;
#393 = DIRECTION ( 'NONE',  ( 1.000000000000000000, 0.000000000000000000, 0.000000000000000000 ) ) ;
#394 = CC_DESIGN_APPROVAL ( #407, ( #248 ) ) ;
#395 = VERTEX_POINT ( 'NONE', #14 ) ;
#396 = DIRECTION ( 'NONE',  ( 0.000000000000000000, 0.000000000000000000, -1.000000000000000000 ) ) ;
#397 = VERTEX_POINT ( 'NONE', #276 ) ;
#398 = CARTESIAN_POINT ( 'NONE',  ( 0.000000000000000000, 0.000000000000000000, 0.000000000000000000 ) ) ;
#399 = CC_DESIGN_PERSON_AND_ORGANIZATION_ASSIGNMENT ( #123, #406, ( #1 ) ) ;
#400 = ORIENTED_EDGE ( 'NONE', *, *, #119, .T. ) ;
#401 = DIRECTION ( 'NONE',  ( -1.000000000000000000, 0.000000000000000000, 0.000000000000000000 ) ) ;
#402 = ORIENTED_EDGE ( 'NONE', *, *, #377, .F. ) ;
#403 = APPROVAL_STATUS ( 'not_yet_approved' ) ;
#404 = CARTESIAN_POINT ( 'NONE',  ( 0.000000000000000000, 0.000000000000000000, -5.500000000000000000 ) ) ;
#405 = EDGE_CURVE ( 'NONE', #188, #395, #373, .T. ) ;
#406 = PERSON_AND_ORGANIZATION_ROLE ( 'creator' ) ;
#407 = APPROVAL ( #403, 'NEURÈENÝ' ) ;
#408 = AXIS2_PLACEMENT_3D ( 'NONE', #303, #386, #70 ) ;
#409 = APPROVAL_ROLE ( '' ) ;
ENDSEC;
END-ISO-10303-21;
