ISO-10303-21;
HEADER;
FILE_DESCRIPTION (( 'STEP AP203' ),
    '1' );
FILE_NAME ('66ed.STEP',
    '2024-01-02T21:49:55',
    ( '' ),
    ( '' ),
    'SwSTEP 2.0',
    'SolidWorks 2019',
    '' );
FILE_SCHEMA (( 'CONFIG_CONTROL_DESIGN' ));
ENDSEC;

DATA;
#1 = CARTESIAN_POINT ( 'NONE',  ( 10.50000000000001599, 1.285879139104722803E-15, 0.000000000000000000 ) ) ;
#2 = EDGE_LOOP ( 'NONE', ( #217, #39, #13, #395 ) ) ;
#3 = EDGE_CURVE ( 'NONE', #191, #261, #223, .T. ) ;
#4 = AXIS2_PLACEMENT_3D ( 'NONE', #234, #202, #350 ) ;
#5 = CARTESIAN_POINT ( 'NONE',  ( 0.000000000000000000, 9.000000000000000000, -50.00000000000000000 ) ) ;
#6 = EDGE_LOOP ( 'NONE', ( #106, #255, #38, #125 ) ) ;
#7 = ORIENTED_EDGE ( 'NONE', *, *, #239, .F. ) ;
#8 = FACE_OUTER_BOUND ( 'NONE', #378, .T. ) ;
#9 = CALENDAR_DATE ( 2024, 2, 1 ) ;
#10 = DIRECTION ( 'NONE',  ( 0.000000000000000000, 0.000000000000000000, -1.000000000000000000 ) ) ;
#11 = EDGE_LOOP ( 'NONE', ( #156, #114 ) ) ;
#12 = PERSON_AND_ORGANIZATION ( #230, #214 ) ;
#13 = ORIENTED_EDGE ( 'NONE', *, *, #203, .T. ) ;
#14 = VECTOR ( 'NONE', #343, 1000.000000000000000 ) ;
#15 = LOCAL_TIME ( 22, 49, 55.00000000000000000, #407 ) ;
#16 = DIRECTION ( 'NONE',  ( 1.000000000000000000, 0.000000000000000000, 0.000000000000000000 ) ) ;
#17 = DIRECTION ( 'NONE',  ( -0.000000000000000000, -0.000000000000000000, 1.000000000000000000 ) ) ;
#18 = DIRECTION ( 'NONE',  ( -0.7071067811865450192, 0.000000000000000000, -0.7071067811865500152 ) ) ;
#19 = DIRECTION ( 'NONE',  ( -1.000000000000000000, 0.000000000000000000, 0.000000000000000000 ) ) ;
#20 = ORIENTED_EDGE ( 'NONE', *, *, #264, .T. ) ;
#21 = DIRECTION ( 'NONE',  ( -0.000000000000000000, -0.000000000000000000, 1.000000000000000000 ) ) ;
#22 = CIRCLE ( 'NONE', #157, 9.000000000000000000 ) ;
#23 = CARTESIAN_POINT ( 'NONE',  ( 0.000000000000000000, 0.000000000000000000, -5.000000000000000000 ) ) ;
#24 = ORIENTED_EDGE ( 'NONE', *, *, #147, .F. ) ;
#25 = DIRECTION ( 'NONE',  ( -1.000000000000000000, 0.000000000000000000, -0.000000000000000000 ) ) ;
#26 = CARTESIAN_POINT ( 'NONE',  ( 0.000000000000000000, 0.000000000000000000, 0.000000000000000000 ) ) ;
#27 = CIRCLE ( 'NONE', #260, 9.000000000000000000 ) ;
#28 = PERSON_AND_ORGANIZATION_ROLE ( 'creator' ) ;
#29 = CC_DESIGN_PERSON_AND_ORGANIZATION_ASSIGNMENT ( #392, #113, ( #48 ) ) ;
#30 = CALENDAR_DATE ( 2024, 2, 1 ) ;
#31 = VERTEX_POINT ( 'NONE', #56 ) ;
#32 = CARTESIAN_POINT ( 'NONE',  ( 10.50000000000001599, 1.316495309083405604E-15, 0.000000000000000000 ) ) ;
#33 = AXIS2_PLACEMENT_3D ( 'NONE', #37, #337, #66 ) ;
#34 = ORIENTED_EDGE ( 'NONE', *, *, #409, .F. ) ;
#35 = ADVANCED_FACE ( 'NONE', ( #314 ), #251, .T. ) ;
#36 = AXIS2_PLACEMENT_3D ( 'NONE', #50, #238, #186 ) ;
#37 = CARTESIAN_POINT ( 'NONE',  ( 0.000000000000000000, 0.000000000000000000, -5.500000000000000000 ) ) ;
#38 = ORIENTED_EDGE ( 'NONE', *, *, #330, .T. ) ;
#39 = ORIENTED_EDGE ( 'NONE', *, *, #96, .T. ) ;
#40 = CARTESIAN_POINT ( 'NONE',  ( -9.000000000000000000, 0.000000000000000000, -5.500000000000000000 ) ) ;
#41 = AXIS2_PLACEMENT_3D ( 'NONE', #190, #121, #245 ) ;
#42 = ORIENTED_EDGE ( 'NONE', *, *, #175, .F. ) ;
#43 = DIRECTION ( 'NONE',  ( 1.000000000000000000, 0.000000000000000000, 0.000000000000000000 ) ) ;
#44 = CC_DESIGN_PERSON_AND_ORGANIZATION_ASSIGNMENT ( #310, #28, ( #73 ) ) ;
#45 = AXIS2_PLACEMENT_3D ( 'NONE', #273, #313, #25 ) ;
#46 = CARTESIAN_POINT ( 'NONE',  ( 9.000000000000000000, 1.102182119232617714E-15, -5.500000000000000000 ) ) ;
#47 = DIRECTION ( 'NONE',  ( -0.000000000000000000, -0.000000000000000000, 1.000000000000000000 ) ) ;
#48 = PRODUCT ( '66ed', '66ed', '', ( #137 ) ) ;
#49 = DIRECTION ( 'NONE',  ( 0.000000000000000000, 0.000000000000000000, -1.000000000000000000 ) ) ;
#50 = CARTESIAN_POINT ( 'NONE',  ( 0.000000000000000000, 0.000000000000000000, -5.500000000000000000 ) ) ;
#51 = FACE_OUTER_BOUND ( 'NONE', #104, .T. ) ;
#52 = VECTOR ( 'NONE', #18, 1000.000000000000000 ) ;
#53 = DIRECTION ( 'NONE',  ( 1.000000000000000000, 0.000000000000000000, 0.000000000000000000 ) ) ;
#54 = EDGE_LOOP ( 'NONE', ( #159, #127, #148, #281 ) ) ;
#55 = CARTESIAN_POINT ( 'NONE',  ( 9.000000000000000000, 0.000000000000000000, -50.00000000000000000 ) ) ;
#56 = CARTESIAN_POINT ( 'NONE',  ( 9.000000000000000000, 1.102182119232617714E-15, -4.999999999999999112 ) ) ;
#57 = EDGE_CURVE ( 'NONE', #287, #326, #210, .T. ) ;
#58 = CARTESIAN_POINT ( 'NONE',  ( 0.000000000000000000, 0.000000000000000000, -6.000000000000000000 ) ) ;
#59 = CIRCLE ( 'NONE', #342, 10.50000000000001599 ) ;
#60 = CARTESIAN_POINT ( 'NONE',  ( 0.000000000000000000, 0.000000000000000000, -5.500000000000000000 ) ) ;
#61 = AXIS2_PLACEMENT_3D ( 'NONE', #335, #141, #53 ) ;
#62 = CARTESIAN_POINT ( 'NONE',  ( 0.000000000000000000, 0.000000000000000000, -5.000000000000000000 ) ) ;
#63 = FACE_OUTER_BOUND ( 'NONE', #344, .T. ) ;
#64 = ORIENTED_EDGE ( 'NONE', *, *, #264, .F. ) ;
#65 = APPROVAL_DATE_TIME ( #119, #289 ) ;
#66 = DIRECTION ( 'NONE',  ( -1.000000000000000000, 0.000000000000000000, 0.000000000000000000 ) ) ;
#67 = VERTEX_POINT ( 'NONE', #215 ) ;
#68 = AXIS2_PLACEMENT_3D ( 'NONE', #325, #139, #297 ) ;
#69 = SECURITY_CLASSIFICATION ( '', '', #130 ) ;
#70 = CARTESIAN_POINT ( 'NONE',  ( 0.000000000000000000, 0.000000000000000000, -0.4999999999999882871 ) ) ;
#71 = ORIENTED_EDGE ( 'NONE', *, *, #315, .T. ) ;
#72 = ORIENTED_EDGE ( 'NONE', *, *, #102, .T. ) ;
#73 = PRODUCT_DEFINITION ( 'NEZNÁMÝ', '', #79, #408 ) ;
#74 = CARTESIAN_POINT ( 'NONE',  ( -9.000000000000000000, 1.102182119232617714E-15, -5.500000000000000000 ) ) ;
#75 = FACE_OUTER_BOUND ( 'NONE', #394, .T. ) ;
#76 = CARTESIAN_POINT ( 'NONE',  ( 0.000000000000000000, 0.000000000000000000, 0.000000000000000000 ) ) ;
#77 = EDGE_CURVE ( 'NONE', #318, #81, #243, .T. ) ;
#78 = DIRECTION ( 'NONE',  ( -1.000000000000000000, 0.000000000000000000, 0.000000000000000000 ) ) ;
#79 = PRODUCT_DEFINITION_FORMATION_WITH_SPECIFIED_SOURCE ( 'LIBOVOLNÝ', '', #48, .NOT_KNOWN. ) ;
#80 = DIRECTION ( 'NONE',  ( -0.000000000000000000, -0.000000000000000000, 1.000000000000000000 ) ) ;
#81 = VERTEX_POINT ( 'NONE', #399 ) ;
#82 = FACE_OUTER_BOUND ( 'NONE', #11, .T. ) ;
#83 = DIRECTION ( 'NONE',  ( -0.000000000000000000, -0.000000000000000000, 1.000000000000000000 ) ) ;
#84 = PLANE ( 'NONE',  #61 ) ;
#85 = CARTESIAN_POINT ( 'NONE',  ( 0.000000000000000000, 0.000000000000000000, -50.00000000000000000 ) ) ;
#86 = CONICAL_SURFACE ( 'NONE', #246, 10.50000000000001599, 0.7853981633974447263 ) ;
#87 = UNCERTAINTY_MEASURE_WITH_UNIT (LENGTH_MEASURE( 1.000000000000000082E-05 ), #352, 'distance_accuracy_value', 'NONE');
#88 = DATE_AND_TIME ( #339, #373 ) ;
#89 = PLANE ( 'NONE',  #45 ) ;
#90 = AXIS2_PLACEMENT_3D ( 'NONE', #94, #274, #346 ) ;
#91 = CARTESIAN_POINT ( 'NONE',  ( 0.000000000000000000, 0.000000000000000000, 0.000000000000000000 ) ) ;
#92 = CONICAL_SURFACE ( 'NONE', #111, 10.50000000000001599, 0.7853981633974447263 ) ;
#93 = CC_DESIGN_PERSON_AND_ORGANIZATION_ASSIGNMENT ( #135, #162, ( #69 ) ) ;
#94 = CARTESIAN_POINT ( 'NONE',  ( 0.000000000000000000, 0.000000000000000000, -5.000000000000000000 ) ) ;
#95 = EDGE_LOOP ( 'NONE', ( #34, #195, #196, #199 ) ) ;
#96 = EDGE_CURVE ( 'NONE', #318, #298, #370, .T. ) ;
#97 = DIRECTION ( 'NONE',  ( 1.000000000000000000, 0.000000000000000000, 0.000000000000000000 ) ) ;
#98 = VERTEX_POINT ( 'NONE', #146 ) ;
#99 = FACE_OUTER_BOUND ( 'NONE', #252, .T. ) ;
#100 = VECTOR ( 'NONE', #379, 1000.000000000000000 ) ;
#101 = ORIENTED_EDGE ( 'NONE', *, *, #151, .T. ) ;
#102 = EDGE_CURVE ( 'NONE', #286, #380, #308, .T. ) ;
#103 = AXIS2_PLACEMENT_3D ( 'NONE', #367, #398, #212 ) ;
#104 = EDGE_LOOP ( 'NONE', ( #220, #101, #177, #154 ) ) ;
#105 = FACE_OUTER_BOUND ( 'NONE', #2, .T. ) ;
#106 = ORIENTED_EDGE ( 'NONE', *, *, #96, .F. ) ;
#107 = COORDINATED_UNIVERSAL_TIME_OFFSET ( 1, 0, .AHEAD. ) ;
#108 = APPLICATION_CONTEXT ( 'configuration controlled 3d designs of mechanical parts and assemblies' ) ;
#109 = ADVANCED_FACE ( 'NONE', ( #63 ), #401, .F. ) ;
#110 = EDGE_LOOP ( 'NONE', ( #131, #20 ) ) ;
#111 = AXIS2_PLACEMENT_3D ( 'NONE', #120, #174, #213 ) ;
#112 = FACE_BOUND ( 'NONE', #110, .T. ) ;
#113 = PERSON_AND_ORGANIZATION_ROLE ( 'design_owner' ) ;
#114 = ORIENTED_EDGE ( 'NONE', *, *, #77, .F. ) ;
#115 = CIRCLE ( 'NONE', #173, 9.000000000000000000 ) ;
#116 = LINE ( 'NONE', #205, #235 ) ;
#117 = FACE_OUTER_BOUND ( 'NONE', #54, .T. ) ;
#118 = DIRECTION ( 'NONE',  ( -1.000000000000000000, 0.000000000000000000, 0.000000000000000000 ) ) ;
#119 = DATE_AND_TIME ( #30, #15 ) ;
#120 = CARTESIAN_POINT ( 'NONE',  ( 0.000000000000000000, 0.000000000000000000, 0.000000000000000000 ) ) ;
#121 = DIRECTION ( 'NONE',  ( -0.000000000000000000, -0.000000000000000000, 1.000000000000000000 ) ) ;
#122 = AXIS2_PLACEMENT_3D ( 'NONE', #60, #150, #331 ) ;
#123 = PRODUCT_DEFINITION_SHAPE ( 'NONE', 'NONE',  #73 ) ;
#124 = DIRECTION ( 'NONE',  ( 1.000000000000000000, 0.000000000000000000, 0.000000000000000000 ) ) ;
#125 = ORIENTED_EDGE ( 'NONE', *, *, #175, .T. ) ;
#126 = CIRCLE ( 'NONE', #4, 8.499999999999998224 ) ;
#127 = ORIENTED_EDGE ( 'NONE', *, *, #57, .T. ) ;
#128 = DIRECTION ( 'NONE',  ( -0.000000000000000000, -0.000000000000000000, 1.000000000000000000 ) ) ;
#129 = ORIENTED_EDGE ( 'NONE', *, *, #409, .T. ) ;
#130 = SECURITY_CLASSIFICATION_LEVEL ( 'unclassified' ) ;
#131 = ORIENTED_EDGE ( 'NONE', *, *, #284, .T. ) ;
#132 = AXIS2_PLACEMENT_3D ( 'NONE', #265, #10, #390 ) ;
#133 = AXIS2_PLACEMENT_3D ( 'NONE', #387, #47, #43 ) ;
#134 = CARTESIAN_POINT ( 'NONE',  ( -11.00000000000000178, 1.347111479062088602E-15, -0.4999999999999882871 ) ) ;
#135 = PERSON_AND_ORGANIZATION ( #230, #214 ) ;
#136 = EDGE_CURVE ( 'NONE', #287, #261, #192, .T. ) ;
#137 = MECHANICAL_CONTEXT ( 'NONE', #108, 'mechanical' ) ;
#138 = CC_DESIGN_APPROVAL ( #364, ( #73 ) ) ;
#139 = DIRECTION ( 'NONE',  ( -0.000000000000000000, -0.000000000000000000, 1.000000000000000000 ) ) ;
#140 = EDGE_CURVE ( 'NONE', #261, #353, #27, .T. ) ;
#141 = DIRECTION ( 'NONE',  ( 0.000000000000000000, -0.000000000000000000, 1.000000000000000000 ) ) ;
#142 = ADVANCED_FACE ( 'NONE', ( #117 ), #242, .T. ) ;
#143 = CC_DESIGN_APPROVAL ( #289, ( #79 ) ) ;
#144 = DIRECTION ( 'NONE',  ( 0.000000000000000000, 0.000000000000000000, -1.000000000000000000 ) ) ;
#145 = CARTESIAN_POINT ( 'NONE',  ( -10.50000000000001599, 0.000000000000000000, 0.000000000000000000 ) ) ;
#146 = CARTESIAN_POINT ( 'NONE',  ( 11.00000000000000178, 0.000000000000000000, -0.4999999999999882871 ) ) ;
#147 = EDGE_CURVE ( 'NONE', #353, #261, #362, .T. ) ;
#148 = ORIENTED_EDGE ( 'NONE', *, *, #247, .T. ) ;
#149 = FACE_OUTER_BOUND ( 'NONE', #6, .T. ) ;
#150 = DIRECTION ( 'NONE',  ( -0.000000000000000000, -0.000000000000000000, 1.000000000000000000 ) ) ;
#151 = EDGE_CURVE ( 'NONE', #286, #98, #372, .T. ) ;
#152 = LOCAL_TIME ( 22, 49, 55.00000000000000000, #197 ) ;
#153 = DIRECTION ( 'NONE',  ( -1.000000000000000000, 0.000000000000000000, -0.000000000000000000 ) ) ;
#154 = ORIENTED_EDGE ( 'NONE', *, *, #341, .F. ) ;
#155 = AXIS2_PLACEMENT_3D ( 'NONE', #5, #144, #153 ) ;
#156 = ORIENTED_EDGE ( 'NONE', *, *, #268, .F. ) ;
#157 = AXIS2_PLACEMENT_3D ( 'NONE', #23, #189, #118 ) ;
#158 = PERSON_AND_ORGANIZATION ( #230, #214 ) ;
#159 = ORIENTED_EDGE ( 'NONE', *, *, #136, .F. ) ;
#160 = ORIENTED_EDGE ( 'NONE', *, *, #147, .T. ) ;
#161 = DIRECTION ( 'NONE',  ( -0.000000000000000000, -1.000000000000000000, -0.000000000000000000 ) ) ;
#162 = PERSON_AND_ORGANIZATION_ROLE ( 'classification_officer' ) ;
#163 = AXIS2_PLACEMENT_3D ( 'NONE', #85, #21, #97 ) ;
#164 = ORIENTED_EDGE ( 'NONE', *, *, #284, .F. ) ;
#165 = TOROIDAL_SURFACE ( 'NONE', #36, 9.000000000000000000, 0.5000000000000000000 ) ;
#166 = DIRECTION ( 'NONE',  ( 1.224646799147353207E-16, 1.000000000000000000, 0.000000000000000000 ) ) ;
#167 = APPLICATION_CONTEXT ( 'configuration controlled 3d designs of mechanical parts and assemblies' ) ;
#168 = DIRECTION ( 'NONE',  ( -1.000000000000000000, -1.224646799147353454E-16, 0.000000000000000000 ) ) ;
#169 = ADVANCED_BREP_SHAPE_REPRESENTATION ( '66ed', ( #334, #328 ), #306 ) ;
#170 = ADVANCED_FACE ( 'NONE', ( #105 ), #231, .T. ) ;
#171 = APPLICATION_PROTOCOL_DEFINITION ( 'international standard', 'config_control_design', 1994, #108 ) ;
#172 = PERSON_AND_ORGANIZATION ( #230, #214 ) ;
#173 = AXIS2_PLACEMENT_3D ( 'NONE', #403, #397, #272 ) ;
#174 = DIRECTION ( 'NONE',  ( 0.000000000000000000, 0.000000000000000000, -1.000000000000000000 ) ) ;
#175 = EDGE_CURVE ( 'NONE', #98, #298, #299, .T. ) ;
#176 = CARTESIAN_POINT ( 'NONE',  ( 0.000000000000000000, 0.000000000000000000, -5.000000000000000000 ) ) ;
#177 = ORIENTED_EDGE ( 'NONE', *, *, #203, .F. ) ;
#178 = LINE ( 'NONE', #368, #200 ) ;
#179 = CYLINDRICAL_SURFACE ( 'NONE', #240, 9.000000000000000000 ) ;
#180 = APPROVAL_ROLE ( '' ) ;
#181 = AXIS2_PLACEMENT_3D ( 'NONE', #62, #128, #249 ) ;
#182 = CARTESIAN_POINT ( 'NONE',  ( 0.000000000000000000, 0.000000000000000000, 0.000000000000000000 ) ) ;
#183 = EDGE_CURVE ( 'NONE', #67, #31, #206, .T. ) ;
#184 = CARTESIAN_POINT ( 'NONE',  ( -11.00000000000000178, 1.347111479062088602E-15, 0.000000000000000000 ) ) ;
#185 = EDGE_LOOP ( 'NONE', ( #222, #72 ) ) ;
#186 = DIRECTION ( 'NONE',  ( -1.000000000000000000, 0.000000000000000000, 0.000000000000000000 ) ) ;
#187 = AXIS2_PLACEMENT_3D ( 'NONE', #404, #406, #219 ) ;
#188 = ORIENTED_EDGE ( 'NONE', *, *, #247, .F. ) ;
#189 = DIRECTION ( 'NONE',  ( -0.000000000000000000, -0.000000000000000000, 1.000000000000000000 ) ) ;
#190 = CARTESIAN_POINT ( 'NONE',  ( 0.000000000000000000, 0.000000000000000000, -6.000000000000000000 ) ) ;
#191 = VERTEX_POINT ( 'NONE', #294 ) ;
#192 = LINE ( 'NONE', #276, #100 ) ;
#193 = ORIENTED_EDGE ( 'NONE', *, *, #311, .F. ) ;
#194 = APPROVAL_PERSON_ORGANIZATION ( #363, #289, #270 ) ;
#195 = ORIENTED_EDGE ( 'NONE', *, *, #3, .T. ) ;
#196 = ORIENTED_EDGE ( 'NONE', *, *, #140, .T. ) ;
#197 = COORDINATED_UNIVERSAL_TIME_OFFSET ( 1, 0, .AHEAD. ) ;
#198 = FACE_OUTER_BOUND ( 'NONE', #95, .T. ) ;
#199 = ORIENTED_EDGE ( 'NONE', *, *, #393, .F. ) ;
#200 = VECTOR ( 'NONE', #320, 1000.000000000000000 ) ;
#201 = DIRECTION ( 'NONE',  ( 0.000000000000000000, 0.000000000000000000, 1.000000000000000000 ) ) ;
#202 = DIRECTION ( 'NONE',  ( -0.000000000000000000, -0.000000000000000000, 1.000000000000000000 ) ) ;
#203 = EDGE_CURVE ( 'NONE', #298, #98, #291, .T. ) ;
#204 = APPROVAL_STATUS ( 'not_yet_approved' ) ;
#205 = CARTESIAN_POINT ( 'NONE',  ( 9.000000000000000000, 0.000000000000000000, 0.000000000000000000 ) ) ;
#206 = CIRCLE ( 'NONE', #309, 0.5000000000000004441 ) ;
#207 = APPROVAL_PERSON_ORGANIZATION ( #172, #364, #180 ) ;
#208 = FACE_OUTER_BOUND ( 'NONE', #185, .T. ) ;
#209 = DIRECTION ( 'NONE',  ( 1.000000000000000000, 0.000000000000000000, 0.000000000000000000 ) ) ;
#210 = CIRCLE ( 'NONE', #163, 9.000000000000000000 ) ;
#211 = ORIENTED_EDGE ( 'NONE', *, *, #311, .T. ) ;
#212 = DIRECTION ( 'NONE',  ( 0.000000000000000000, 0.000000000000000000, -1.000000000000000000 ) ) ;
#213 = DIRECTION ( 'NONE',  ( -1.000000000000000000, 0.000000000000000000, 0.000000000000000000 ) ) ;
#214 = ORGANIZATION ( 'NEURÈENÝ', 'NEURÈENÝ', '' ) ;
#215 = CARTESIAN_POINT ( 'NONE',  ( 8.499999999999998224, 0.000000000000000000, -5.500000000000000000 ) ) ;
#216 = APPROVAL_DATE_TIME ( #88, #364 ) ;
#217 = ORIENTED_EDGE ( 'NONE', *, *, #268, .T. ) ;
#218 = VECTOR ( 'NONE', #83, 1000.000000000000000 ) ;
#219 = DIRECTION ( 'NONE',  ( 1.000000000000000000, 0.000000000000000000, 0.000000000000000000 ) ) ;
#220 = ORIENTED_EDGE ( 'NONE', *, *, #102, .F. ) ;
#221 = ADVANCED_FACE ( 'NONE', ( #75 ), #86, .T. ) ;
#222 = ORIENTED_EDGE ( 'NONE', *, *, #257, .T. ) ;
#223 = CIRCLE ( 'NONE', #271, 0.5000000000000004441 ) ;
#224 = PERSON_AND_ORGANIZATION ( #230, #214 ) ;
#225 = VERTEX_POINT ( 'NONE', #369 ) ;
#226 = TOROIDAL_SURFACE ( 'NONE', #405, 9.000000000000000000, 0.5000000000000000000 ) ;
#227 = DATE_AND_TIME ( #319, #359 ) ;
#228 = ORIENTED_EDGE ( 'NONE', *, *, #183, .F. ) ;
#229 = APPROVAL_STATUS ( 'not_yet_approved' ) ;
#230 = PERSON ( 'NEURÈENÝ', 'NEURÈENÝ', 'NEURÈENÝ', ('NEURÈENÝ'), ('NEURÈENÝ'), ('NEURÈENÝ') ) ;
#231 = CYLINDRICAL_SURFACE ( 'NONE', #68, 11.00000000000000178 ) ;
#232 = CALENDAR_DATE ( 2024, 2, 1 ) ;
#233 = DIRECTION ( 'NONE',  ( 1.000000000000000000, 0.000000000000000000, 0.000000000000000000 ) ) ;
#234 = CARTESIAN_POINT ( 'NONE',  ( 0.000000000000000000, 0.000000000000000000, -5.500000000000000000 ) ) ;
#235 = VECTOR ( 'NONE', #80, 1000.000000000000000 ) ;
#236 = DIRECTION ( 'NONE',  ( -0.000000000000000000, -0.000000000000000000, 1.000000000000000000 ) ) ;
#237 =( NAMED_UNIT ( * ) SI_UNIT ( $, .STERADIAN. ) SOLID_ANGLE_UNIT ( ) );
#238 = DIRECTION ( 'NONE',  ( 0.000000000000000000, 0.000000000000000000, -1.000000000000000000 ) ) ;
#239 = EDGE_CURVE ( 'NONE', #326, #287, #115, .T. ) ;
#240 = AXIS2_PLACEMENT_3D ( 'NONE', #91, #275, #305 ) ;
#241 = CC_DESIGN_PERSON_AND_ORGANIZATION_ASSIGNMENT ( #158, #295, ( #79 ) ) ;
#242 = CYLINDRICAL_SURFACE ( 'NONE', #324, 9.000000000000000000 ) ;
#243 = CIRCLE ( 'NONE', #90, 11.00000000000000000 ) ;
#244 = ORIENTED_EDGE ( 'NONE', *, *, #393, .T. ) ;
#245 = DIRECTION ( 'NONE',  ( 1.000000000000000000, 0.000000000000000000, 0.000000000000000000 ) ) ;
#246 = AXIS2_PLACEMENT_3D ( 'NONE', #322, #49, #78 ) ;
#247 = EDGE_CURVE ( 'NONE', #326, #353, #116, .T. ) ;
#248 = COORDINATED_UNIVERSAL_TIME_OFFSET ( 1, 0, .AHEAD. ) ;
#249 = DIRECTION ( 'NONE',  ( 1.000000000000000000, 0.000000000000000000, 0.000000000000000000 ) ) ;
#250 = ADVANCED_FACE ( 'NONE', ( #208 ), #84, .T. ) ;
#251 = PLANE ( 'NONE',  #155 ) ;
#252 = EDGE_LOOP ( 'NONE', ( #347, #377, #24, #188 ) ) ;
#253 = CC_DESIGN_APPROVAL ( #282, ( #69 ) ) ;
#254 = PRODUCT_RELATED_PRODUCT_CATEGORY ( 'detail', '', ( #48 ) ) ;
#255 = ORIENTED_EDGE ( 'NONE', *, *, #77, .T. ) ;
#256 = LINE ( 'NONE', #302, #52 ) ;
#257 = EDGE_CURVE ( 'NONE', #380, #286, #59, .T. ) ;
#258 = DIRECTION ( 'NONE',  ( -0.000000000000000000, -0.000000000000000000, 1.000000000000000000 ) ) ;
#259 = ORIENTED_EDGE ( 'NONE', *, *, #257, .F. ) ;
#260 = AXIS2_PLACEMENT_3D ( 'NONE', #58, #285, #307 ) ;
#261 = VERTEX_POINT ( 'NONE', #400 ) ;
#262 = ORIENTED_EDGE ( 'NONE', *, *, #57, .F. ) ;
#263 = ADVANCED_FACE ( 'NONE', ( #51 ), #92, .T. ) ;
#264 = EDGE_CURVE ( 'NONE', #31, #225, #279, .T. ) ;
#265 = CARTESIAN_POINT ( 'NONE',  ( 0.000000000000000000, 0.000000000000000000, -0.4999999999999882871 ) ) ;
#266 = CARTESIAN_POINT ( 'NONE',  ( 9.000000000000000000, 0.000000000000000000, -6.000000000000000000 ) ) ;
#267 = LOCAL_TIME ( 22, 49, 55.00000000000000000, #248 ) ;
#268 = EDGE_CURVE ( 'NONE', #81, #318, #317, .T. ) ;
#269 = DIRECTION ( 'NONE',  ( 0.000000000000000000, 0.000000000000000000, -1.000000000000000000 ) ) ;
#270 = APPROVAL_ROLE ( '' ) ;
#271 = AXIS2_PLACEMENT_3D ( 'NONE', #74, #166, #293 ) ;
#272 = DIRECTION ( 'NONE',  ( 1.000000000000000000, 0.000000000000000000, 0.000000000000000000 ) ) ;
#273 = CARTESIAN_POINT ( 'NONE',  ( 0.000000000000000000, 11.00000000000000000, -5.000000000000000000 ) ) ;
#274 = DIRECTION ( 'NONE',  ( -0.000000000000000000, -0.000000000000000000, 1.000000000000000000 ) ) ;
#275 = DIRECTION ( 'NONE',  ( -0.000000000000000000, -0.000000000000000000, 1.000000000000000000 ) ) ;
#276 = CARTESIAN_POINT ( 'NONE',  ( -9.000000000000000000, 1.102182119232617714E-15, 0.000000000000000000 ) ) ;
#277 = CYLINDRICAL_SURFACE ( 'NONE', #187, 11.00000000000000178 ) ;
#278 = COORDINATED_UNIVERSAL_TIME_OFFSET ( 1, 0, .AHEAD. ) ;
#279 = CIRCLE ( 'NONE', #338, 9.000000000000000000 ) ;
#280 = DIRECTION ( 'NONE',  ( -0.000000000000000000, -0.000000000000000000, 1.000000000000000000 ) ) ;
#281 = ORIENTED_EDGE ( 'NONE', *, *, #140, .F. ) ;
#282 = APPROVAL ( #229, 'NEURÈENÝ' ) ;
#283 = ADVANCED_FACE ( 'NONE', ( #99 ), #179, .T. ) ;
#284 = EDGE_CURVE ( 'NONE', #225, #31, #22, .T. ) ;
#285 = DIRECTION ( 'NONE',  ( -0.000000000000000000, -0.000000000000000000, 1.000000000000000000 ) ) ;
#286 = VERTEX_POINT ( 'NONE', #32 ) ;
#287 = VERTEX_POINT ( 'NONE', #327 ) ;
#288 = DATE_TIME_ROLE ( 'classification_date' ) ;
#289 = APPROVAL ( #204, 'NEURÈENÝ' ) ;
#290 = ADVANCED_FACE ( 'NONE', ( #8 ), #312, .F. ) ;
#291 = CIRCLE ( 'NONE', #132, 11.00000000000000178 ) ;
#292 = CIRCLE ( 'NONE', #103, 0.5000000000000004441 ) ;
#293 = DIRECTION ( 'NONE',  ( -1.000000000000000000, 1.224646799147353454E-16, 0.000000000000000000 ) ) ;
#294 = CARTESIAN_POINT ( 'NONE',  ( -8.499999999999998224, 1.071565949253933927E-15, -5.500000000000000000 ) ) ;
#295 = PERSON_AND_ORGANIZATION_ROLE ( 'design_supplier' ) ;
#296 =( NAMED_UNIT ( * ) PLANE_ANGLE_UNIT ( ) SI_UNIT ( $, .RADIAN. ) );
#297 = DIRECTION ( 'NONE',  ( 1.000000000000000000, 0.000000000000000000, 0.000000000000000000 ) ) ;
#298 = VERTEX_POINT ( 'NONE', #134 ) ;
#299 = CIRCLE ( 'NONE', #348, 11.00000000000000178 ) ;
#300 = APPROVAL_PERSON_ORGANIZATION ( #12, #282, #355 ) ;
#301 = APPROVAL_STATUS ( 'not_yet_approved' ) ;
#302 = CARTESIAN_POINT ( 'NONE',  ( -10.50000000000001599, 0.000000000000000000, 0.000000000000000000 ) ) ;
#303 = DIRECTION ( 'NONE',  ( -0.000000000000000000, -0.000000000000000000, 1.000000000000000000 ) ) ;
#304 = CLOSED_SHELL ( 'NONE', ( #263, #365, #336, #283, #170, #35, #250, #402, #371, #142, #290, #109, #221 ) ) ;
#305 = DIRECTION ( 'NONE',  ( 1.000000000000000000, 0.000000000000000000, 0.000000000000000000 ) ) ;
#306 =( GEOMETRIC_REPRESENTATION_CONTEXT ( 3 ) GLOBAL_UNCERTAINTY_ASSIGNED_CONTEXT ( ( #87 ) ) GLOBAL_UNIT_ASSIGNED_CONTEXT ( ( #352, #296, #237 ) ) REPRESENTATION_CONTEXT ( 'NONE', 'WORKASPACE' ) );
#307 = DIRECTION ( 'NONE',  ( 1.000000000000000000, 0.000000000000000000, 0.000000000000000000 ) ) ;
#308 = CIRCLE ( 'NONE', #345, 10.50000000000001599 ) ;
#309 = AXIS2_PLACEMENT_3D ( 'NONE', #46, #358, #168 ) ;
#310 = PERSON_AND_ORGANIZATION ( #230, #214 ) ;
#311 = EDGE_CURVE ( 'NONE', #67, #191, #126, .T. ) ;
#312 = TOROIDAL_SURFACE ( 'NONE', #133, 9.000000000000000000, 0.5000000000000000000 ) ;
#313 = DIRECTION ( 'NONE',  ( 0.000000000000000000, 0.000000000000000000, -1.000000000000000000 ) ) ;
#314 = FACE_OUTER_BOUND ( 'NONE', #323, .T. ) ;
#315 = EDGE_CURVE ( 'NONE', #191, #225, #375, .T. ) ;
#316 = EDGE_LOOP ( 'NONE', ( #129, #383, #164, #349 ) ) ;
#317 = CIRCLE ( 'NONE', #181, 11.00000000000000000 ) ;
#318 = VERTEX_POINT ( 'NONE', #354 ) ;
#319 = CALENDAR_DATE ( 2024, 2, 1 ) ;
#320 = DIRECTION ( 'NONE',  ( -0.000000000000000000, -0.000000000000000000, 1.000000000000000000 ) ) ;
#321 = DATE_AND_TIME ( #9, #267 ) ;
#322 = CARTESIAN_POINT ( 'NONE',  ( 0.000000000000000000, 0.000000000000000000, 0.000000000000000000 ) ) ;
#323 = EDGE_LOOP ( 'NONE', ( #7, #262 ) ) ;
#324 = AXIS2_PLACEMENT_3D ( 'NONE', #182, #280, #124 ) ;
#325 = CARTESIAN_POINT ( 'NONE',  ( 0.000000000000000000, 0.000000000000000000, 0.000000000000000000 ) ) ;
#326 = VERTEX_POINT ( 'NONE', #55 ) ;
#327 = CARTESIAN_POINT ( 'NONE',  ( -9.000000000000000000, 1.102182119232617714E-15, -50.00000000000000000 ) ) ;
#328 = AXIS2_PLACEMENT_3D ( 'NONE', #76, #201, #16 ) ;
#329 = SHAPE_DEFINITION_REPRESENTATION ( #123, #169 ) ;
#330 = EDGE_CURVE ( 'NONE', #81, #98, #178, .T. ) ;
#331 = DIRECTION ( 'NONE',  ( 1.000000000000000000, 0.000000000000000000, 0.000000000000000000 ) ) ;
#332 = CARTESIAN_POINT ( 'NONE',  ( 0.000000000000000000, 0.000000000000000000, 0.000000000000000000 ) ) ;
#333 = DIRECTION ( 'NONE',  ( 1.000000000000000000, 0.000000000000000000, 0.000000000000000000 ) ) ;
#334 = MANIFOLD_SOLID_BREP ( 'Zkosení1', #304 ) ;
#335 = CARTESIAN_POINT ( 'NONE',  ( 0.000000000000000000, 0.000000000000000000, 0.000000000000000000 ) ) ;
#336 = ADVANCED_FACE ( 'NONE', ( #198 ), #226, .F. ) ;
#337 = DIRECTION ( 'NONE',  ( 0.000000000000000000, 0.000000000000000000, -1.000000000000000000 ) ) ;
#338 = AXIS2_PLACEMENT_3D ( 'NONE', #176, #303, #19 ) ;
#339 = CALENDAR_DATE ( 2024, 2, 1 ) ;
#340 = CARTESIAN_POINT ( 'NONE',  ( 0.000000000000000000, 0.000000000000000000, -5.500000000000000000 ) ) ;
#341 = EDGE_CURVE ( 'NONE', #380, #298, #256, .T. ) ;
#342 = AXIS2_PLACEMENT_3D ( 'NONE', #332, #17, #209 ) ;
#343 = DIRECTION ( 'NONE',  ( 0.7071067811865450192, 8.659560562354902043E-17, -0.7071067811865500152 ) ) ;
#344 = EDGE_LOOP ( 'NONE', ( #228, #211, #71, #64 ) ) ;
#345 = AXIS2_PLACEMENT_3D ( 'NONE', #26, #258, #376 ) ;
#346 = DIRECTION ( 'NONE',  ( 1.000000000000000000, 0.000000000000000000, 0.000000000000000000 ) ) ;
#347 = ORIENTED_EDGE ( 'NONE', *, *, #239, .T. ) ;
#348 = AXIS2_PLACEMENT_3D ( 'NONE', #70, #269, #233 ) ;
#349 = ORIENTED_EDGE ( 'NONE', *, *, #315, .F. ) ;
#350 = DIRECTION ( 'NONE',  ( 1.000000000000000000, 0.000000000000000000, 0.000000000000000000 ) ) ;
#351 = CC_DESIGN_SECURITY_CLASSIFICATION ( #69, ( #79 ) ) ;
#352 =( LENGTH_UNIT ( ) NAMED_UNIT ( * ) SI_UNIT ( .MILLI., .METRE. ) );
#353 = VERTEX_POINT ( 'NONE', #266 ) ;
#354 = CARTESIAN_POINT ( 'NONE',  ( -11.00000000000000000, 1.347111479062088602E-15, -5.000000000000000000 ) ) ;
#355 = APPROVAL_ROLE ( '' ) ;
#356 = PERSON_AND_ORGANIZATION_ROLE ( 'creator' ) ;
#357 = CC_DESIGN_DATE_AND_TIME_ASSIGNMENT ( #227, #288, ( #69 ) ) ;
#358 = DIRECTION ( 'NONE',  ( -1.224646799147353207E-16, 1.000000000000000000, 0.000000000000000000 ) ) ;
#359 = LOCAL_TIME ( 22, 49, 55.00000000000000000, #107 ) ;
#360 = DATE_TIME_ROLE ( 'creation_date' ) ;
#361 = APPLICATION_PROTOCOL_DEFINITION ( 'international standard', 'config_control_design', 1994, #167 ) ;
#362 = CIRCLE ( 'NONE', #41, 9.000000000000000000 ) ;
#363 = PERSON_AND_ORGANIZATION ( #230, #214 ) ;
#364 = APPROVAL ( #301, 'NEURÈENÝ' ) ;
#365 = ADVANCED_FACE ( 'NONE', ( #388 ), #165, .F. ) ;
#366 = AXIS2_PLACEMENT_3D ( 'NONE', #40, #161, #382 ) ;
#367 = CARTESIAN_POINT ( 'NONE',  ( 9.000000000000000000, 0.000000000000000000, -5.500000000000000000 ) ) ;
#368 = CARTESIAN_POINT ( 'NONE',  ( 11.00000000000000178, 0.000000000000000000, 0.000000000000000000 ) ) ;
#369 = CARTESIAN_POINT ( 'NONE',  ( -9.000000000000000000, 0.000000000000000000, -4.999999999999999112 ) ) ;
#370 = LINE ( 'NONE', #184, #218 ) ;
#371 = ADVANCED_FACE ( 'NONE', ( #112, #82 ), #89, .T. ) ;
#372 = LINE ( 'NONE', #1, #14 ) ;
#373 = LOCAL_TIME ( 22, 49, 55.00000000000000000, #278 ) ;
#374 = CC_DESIGN_DATE_AND_TIME_ASSIGNMENT ( #321, #360, ( #73 ) ) ;
#375 = CIRCLE ( 'NONE', #366, 0.5000000000000004441 ) ;
#376 = DIRECTION ( 'NONE',  ( 1.000000000000000000, 0.000000000000000000, 0.000000000000000000 ) ) ;
#377 = ORIENTED_EDGE ( 'NONE', *, *, #136, .T. ) ;
#378 = EDGE_LOOP ( 'NONE', ( #381, #193, #244, #160 ) ) ;
#379 = DIRECTION ( 'NONE',  ( -0.000000000000000000, -0.000000000000000000, 1.000000000000000000 ) ) ;
#380 = VERTEX_POINT ( 'NONE', #145 ) ;
#381 = ORIENTED_EDGE ( 'NONE', *, *, #3, .F. ) ;
#382 = DIRECTION ( 'NONE',  ( 0.000000000000000000, 0.000000000000000000, -1.000000000000000000 ) ) ;
#383 = ORIENTED_EDGE ( 'NONE', *, *, #183, .T. ) ;
#384 = CC_DESIGN_PERSON_AND_ORGANIZATION_ASSIGNMENT ( #224, #356, ( #79 ) ) ;
#385 = DATE_AND_TIME ( #232, #152 ) ;
#386 = ORIENTED_EDGE ( 'NONE', *, *, #151, .F. ) ;
#387 = CARTESIAN_POINT ( 'NONE',  ( 0.000000000000000000, 0.000000000000000000, -5.500000000000000000 ) ) ;
#388 = FACE_OUTER_BOUND ( 'NONE', #316, .T. ) ;
#389 = APPROVAL_DATE_TIME ( #385, #282 ) ;
#390 = DIRECTION ( 'NONE',  ( 1.000000000000000000, 0.000000000000000000, 0.000000000000000000 ) ) ;
#391 = CIRCLE ( 'NONE', #122, 8.499999999999998224 ) ;
#392 = PERSON_AND_ORGANIZATION ( #230, #214 ) ;
#393 = EDGE_CURVE ( 'NONE', #67, #353, #292, .T. ) ;
#394 = EDGE_LOOP ( 'NONE', ( #386, #259, #396, #42 ) ) ;
#395 = ORIENTED_EDGE ( 'NONE', *, *, #330, .F. ) ;
#396 = ORIENTED_EDGE ( 'NONE', *, *, #341, .T. ) ;
#397 = DIRECTION ( 'NONE',  ( -0.000000000000000000, -0.000000000000000000, 1.000000000000000000 ) ) ;
#398 = DIRECTION ( 'NONE',  ( 0.000000000000000000, -1.000000000000000000, 0.000000000000000000 ) ) ;
#399 = CARTESIAN_POINT ( 'NONE',  ( 11.00000000000000000, 0.000000000000000000, -5.000000000000000000 ) ) ;
#400 = CARTESIAN_POINT ( 'NONE',  ( -9.000000000000000000, 1.102182119232617714E-15, -6.000000000000000000 ) ) ;
#401 = TOROIDAL_SURFACE ( 'NONE', #33, 9.000000000000000000, 0.5000000000000000000 ) ;
#402 = ADVANCED_FACE ( 'NONE', ( #149 ), #277, .T. ) ;
#403 = CARTESIAN_POINT ( 'NONE',  ( 0.000000000000000000, 0.000000000000000000, -50.00000000000000000 ) ) ;
#404 = CARTESIAN_POINT ( 'NONE',  ( 0.000000000000000000, 0.000000000000000000, 0.000000000000000000 ) ) ;
#405 = AXIS2_PLACEMENT_3D ( 'NONE', #340, #236, #333 ) ;
#406 = DIRECTION ( 'NONE',  ( -0.000000000000000000, -0.000000000000000000, 1.000000000000000000 ) ) ;
#407 = COORDINATED_UNIVERSAL_TIME_OFFSET ( 1, 0, .AHEAD. ) ;
#408 = DESIGN_CONTEXT ( 'detailed design', #167, 'design' ) ;
#409 = EDGE_CURVE ( 'NONE', #191, #67, #391, .T. ) ;
ENDSEC;
END-ISO-10303-21;
