ISO-10303-21;
HEADER;
FILE_DESCRIPTION (( 'STEP AP203' ),
    '1' );
FILE_NAME ('212e.STEP',
    '2024-01-02T18:54:46',
    ( '' ),
    ( '' ),
    'SwSTEP 2.0',
    'SolidWorks 2019',
    '' );
FILE_SCHEMA (( 'CONFIG_CONTROL_DESIGN' ));
ENDSEC;

DATA;
#1 = CALENDAR_DATE ( 2024, 2, 1 ) ;
#2 = ADVANCED_FACE ( 'NONE', ( #322 ), #213, .T. ) ;
#3 = ORIENTED_EDGE ( 'NONE', *, *, #98, .T. ) ;
#4 = DATE_AND_TIME ( #35, #71 ) ;
#5 = DIRECTION ( 'NONE',  ( -1.000000000000000000, 0.000000000000000000, 0.000000000000000000 ) ) ;
#6 = ORIENTED_EDGE ( 'NONE', *, *, #353, .T. ) ;
#7 = CLOSED_SHELL ( 'NONE', ( #31, #343, #208, #2, #315, #270, #321, #150, #23, #310, #117, #200, #382 ) ) ;
#8 = AXIS2_PLACEMENT_3D ( 'NONE', #269, #147, #234 ) ;
#9 = DATE_AND_TIME ( #57, #110 ) ;
#10 = CYLINDRICAL_SURFACE ( 'NONE', #136, 18.50000000000000000 ) ;
#11 = ORIENTED_EDGE ( 'NONE', *, *, #395, .F. ) ;
#12 = FACE_OUTER_BOUND ( 'NONE', #250, .T. ) ;
#13 = CARTESIAN_POINT ( 'NONE',  ( 0.000000000000000000, 0.000000000000000000, -7.500000000000000000 ) ) ;
#14 = AXIS2_PLACEMENT_3D ( 'NONE', #259, #365, #261 ) ;
#15 = EDGE_CURVE ( 'NONE', #295, #34, #44, .T. ) ;
#16 = CIRCLE ( 'NONE', #374, 18.50000000000000000 ) ;
#17 = CARTESIAN_POINT ( 'NONE',  ( -18.00000000000000355, 0.000000000000000000, 0.000000000000000000 ) ) ;
#18 = CARTESIAN_POINT ( 'NONE',  ( 0.000000000000000000, 16.00000000000000000, -50.00000000000000000 ) ) ;
#19 = AXIS2_PLACEMENT_3D ( 'NONE', #227, #231, #336 ) ;
#20 = EDGE_CURVE ( 'NONE', #182, #40, #237, .T. ) ;
#21 = FACE_OUTER_BOUND ( 'NONE', #207, .T. ) ;
#22 = CARTESIAN_POINT ( 'NONE',  ( 0.000000000000000000, 0.000000000000000000, 0.000000000000000000 ) ) ;
#23 = ADVANCED_FACE ( 'NONE', ( #248, #210 ), #233, .T. ) ;
#24 = CIRCLE ( 'NONE', #104, 0.5000000000000004441 ) ;
#25 = DIRECTION ( 'NONE',  ( 1.000000000000000000, 0.000000000000000000, 0.000000000000000000 ) ) ;
#26 = DIRECTION ( 'NONE',  ( 1.000000000000000000, 0.000000000000000000, 0.000000000000000000 ) ) ;
#27 = ORIENTED_EDGE ( 'NONE', *, *, #93, .T. ) ;
#28 = DIRECTION ( 'NONE',  ( 0.000000000000000000, 0.000000000000000000, 1.000000000000000000 ) ) ;
#29 = ORIENTED_EDGE ( 'NONE', *, *, #15, .F. ) ;
#30 = CIRCLE ( 'NONE', #82, 18.00000000000000355 ) ;
#31 = ADVANCED_FACE ( 'NONE', ( #63 ), #312, .T. ) ;
#32 = PERSON_AND_ORGANIZATION ( #305, #249 ) ;
#33 = DIRECTION ( 'NONE',  ( 1.000000000000000000, 0.000000000000000000, 0.000000000000000000 ) ) ;
#34 = VERTEX_POINT ( 'NONE', #360 ) ;
#35 = CALENDAR_DATE ( 2024, 2, 1 ) ;
#36 = ORIENTED_EDGE ( 'NONE', *, *, #128, .T. ) ;
#37 =( LENGTH_UNIT ( ) NAMED_UNIT ( * ) SI_UNIT ( .MILLI., .METRE. ) );
#38 = PRODUCT_DEFINITION ( 'NEZNÁMÝ', '', #363, #191 ) ;
#39 = EDGE_LOOP ( 'NONE', ( #345, #241, #201, #342 ) ) ;
#40 = VERTEX_POINT ( 'NONE', #308 ) ;
#41 = AXIS2_PLACEMENT_3D ( 'NONE', #126, #255, #148 ) ;
#42 = FACE_OUTER_BOUND ( 'NONE', #399, .T. ) ;
#43 = DIRECTION ( 'NONE',  ( -1.224646799147353207E-16, 1.000000000000000000, 0.000000000000000000 ) ) ;
#44 = CIRCLE ( 'NONE', #277, 18.50000000000000000 ) ;
#45 = LOCAL_TIME ( 19, 54, 46.00000000000000000, #65 ) ;
#46 = CARTESIAN_POINT ( 'NONE',  ( 0.000000000000000000, 0.000000000000000000, -6.999999999999999112 ) ) ;
#47 = CARTESIAN_POINT ( 'NONE',  ( -18.50000000000000000, 2.265596578422603396E-15, -6.999999999999998224 ) ) ;
#48 = APPLICATION_CONTEXT ( 'configuration controlled 3d designs of mechanical parts and assemblies' ) ;
#49 = EDGE_LOOP ( 'NONE', ( #225, #409, #268, #114 ) ) ;
#50 = EDGE_CURVE ( 'NONE', #176, #236, #179, .T. ) ;
#51 = ORIENTED_EDGE ( 'NONE', *, *, #262, .F. ) ;
#52 = DIRECTION ( 'NONE',  ( -1.000000000000000000, -1.224646799147349509E-16, 0.000000000000000000 ) ) ;
#53 = CIRCLE ( 'NONE', #291, 18.00000000000000355 ) ;
#54 = ORIENTED_EDGE ( 'NONE', *, *, #98, .F. ) ;
#55 = CC_DESIGN_PERSON_AND_ORGANIZATION_ASSIGNMENT ( #254, #332, ( #141 ) ) ;
#56 = CARTESIAN_POINT ( 'NONE',  ( -16.00000000000000000, 1.959434878635765131E-15, -7.500000000000000000 ) ) ;
#57 = CALENDAR_DATE ( 2024, 2, 1 ) ;
#58 = DIRECTION ( 'NONE',  ( -0.000000000000000000, -0.000000000000000000, 1.000000000000000000 ) ) ;
#59 = ORIENTED_EDGE ( 'NONE', *, *, #221, .F. ) ;
#60 = VERTEX_POINT ( 'NONE', #87 ) ;
#61 = TOROIDAL_SURFACE ( 'NONE', #377, 16.00000000000000000, 0.5000000000000000000 ) ;
#62 = SECURITY_CLASSIFICATION_LEVEL ( 'unclassified' ) ;
#63 = FACE_OUTER_BOUND ( 'NONE', #122, .T. ) ;
#64 = ORIENTED_EDGE ( 'NONE', *, *, #287, .T. ) ;
#65 = COORDINATED_UNIVERSAL_TIME_OFFSET ( 1, 0, .AHEAD. ) ;
#66 = CC_DESIGN_DATE_AND_TIME_ASSIGNMENT ( #9, #154, ( #38 ) ) ;
#67 = DIRECTION ( 'NONE',  ( -0.000000000000000000, -0.000000000000000000, 1.000000000000000000 ) ) ;
#68 = FACE_OUTER_BOUND ( 'NONE', #39, .T. ) ;
#69 = DIRECTION ( 'NONE',  ( 1.000000000000000000, 0.000000000000000000, 0.000000000000000000 ) ) ;
#70 = VECTOR ( 'NONE', #193, 1000.000000000000114 ) ;
#71 = LOCAL_TIME ( 19, 54, 46.00000000000000000, #184 ) ;
#72 = EDGE_CURVE ( 'NONE', #60, #236, #167, .T. ) ;
#73 = DIRECTION ( 'NONE',  ( -0.000000000000000000, -0.000000000000000000, 1.000000000000000000 ) ) ;
#74 = PRODUCT ( '212e', '212e', '', ( #162 ) ) ;
#75 = CARTESIAN_POINT ( 'NONE',  ( 18.50000000000000000, 0.000000000000000000, 0.000000000000000000 ) ) ;
#76 =( NAMED_UNIT ( * ) PLANE_ANGLE_UNIT ( ) SI_UNIT ( $, .RADIAN. ) );
#77 = CC_DESIGN_SECURITY_CLASSIFICATION ( #141, ( #363 ) ) ;
#78 = CC_DESIGN_PERSON_AND_ORGANIZATION_ASSIGNMENT ( #124, #324, ( #363 ) ) ;
#79 = ORIENTED_EDGE ( 'NONE', *, *, #395, .T. ) ;
#80 = CARTESIAN_POINT ( 'NONE',  ( 0.000000000000000000, 0.000000000000000000, 0.000000000000000000 ) ) ;
#81 = EDGE_LOOP ( 'NONE', ( #391, #183 ) ) ;
#82 = AXIS2_PLACEMENT_3D ( 'NONE', #387, #94, #25 ) ;
#83 = DIRECTION ( 'NONE',  ( -0.000000000000000000, -0.000000000000000000, 1.000000000000000000 ) ) ;
#84 = EDGE_CURVE ( 'NONE', #170, #138, #362, .T. ) ;
#85 = DIRECTION ( 'NONE',  ( -0.000000000000000000, -0.000000000000000000, 1.000000000000000000 ) ) ;
#86 = ORIENTED_EDGE ( 'NONE', *, *, #353, .F. ) ;
#87 = CARTESIAN_POINT ( 'NONE',  ( -16.00000000000000000, 1.959434878635765131E-15, -8.000000000000000000 ) ) ;
#88 = ORIENTED_EDGE ( 'NONE', *, *, #165, .F. ) ;
#89 = CYLINDRICAL_SURFACE ( 'NONE', #319, 18.50000000000000000 ) ;
#90 = DIRECTION ( 'NONE',  ( -0.000000000000000000, -0.000000000000000000, 1.000000000000000000 ) ) ;
#91 = CIRCLE ( 'NONE', #301, 16.00000000000000000 ) ;
#92 = APPROVAL_PERSON_ORGANIZATION ( #278, #400, #367 ) ;
#93 = EDGE_CURVE ( 'NONE', #34, #295, #339, .T. ) ;
#94 = DIRECTION ( 'NONE',  ( -0.000000000000000000, -0.000000000000000000, 1.000000000000000000 ) ) ;
#95 = AXIS2_PLACEMENT_3D ( 'NONE', #357, #346, #175 ) ;
#96 = DIRECTION ( 'NONE',  ( -1.000000000000000000, 0.000000000000000000, 0.000000000000000000 ) ) ;
#97 = APPROVAL_STATUS ( 'not_yet_approved' ) ;
#98 = EDGE_CURVE ( 'NONE', #214, #60, #160, .T. ) ;
#99 = CIRCLE ( 'NONE', #192, 16.00000000000000000 ) ;
#100 = EDGE_LOOP ( 'NONE', ( #155, #274, #102, #88 ) ) ;
#101 = DIRECTION ( 'NONE',  ( -1.000000000000000000, 0.000000000000000000, 0.000000000000000000 ) ) ;
#102 = ORIENTED_EDGE ( 'NONE', *, *, #84, .T. ) ;
#103 = CIRCLE ( 'NONE', #306, 0.5000000000000004441 ) ;
#104 = AXIS2_PLACEMENT_3D ( 'NONE', #333, #43, #52 ) ;
#105 = CARTESIAN_POINT ( 'NONE',  ( 0.000000000000000000, 0.000000000000000000, 0.000000000000000000 ) ) ;
#106 = DIRECTION ( 'NONE',  ( -1.000000000000000000, 0.000000000000000000, 0.000000000000000000 ) ) ;
#107 = ORIENTED_EDGE ( 'NONE', *, *, #229, .T. ) ;
#108 = DIRECTION ( 'NONE',  ( 1.000000000000000000, 0.000000000000000000, 0.000000000000000000 ) ) ;
#109 = VECTOR ( 'NONE', #293, 1000.000000000000000 ) ;
#110 = LOCAL_TIME ( 19, 54, 46.00000000000000000, #132 ) ;
#111 = VERTEX_POINT ( 'NONE', #133 ) ;
#112 = CARTESIAN_POINT ( 'NONE',  ( -18.00000000000000355, 0.000000000000000000, 0.000000000000000000 ) ) ;
#113 = COORDINATED_UNIVERSAL_TIME_OFFSET ( 1, 0, .AHEAD. ) ;
#114 = ORIENTED_EDGE ( 'NONE', *, *, #375, .F. ) ;
#115 = CARTESIAN_POINT ( 'NONE',  ( 0.000000000000000000, 0.000000000000000000, -0.5000000000000004441 ) ) ;
#116 = PERSON_AND_ORGANIZATION ( #305, #249 ) ;
#117 = ADVANCED_FACE ( 'NONE', ( #12 ), #406, .F. ) ;
#118 = CARTESIAN_POINT ( 'NONE',  ( 0.000000000000000000, 0.000000000000000000, -7.500000000000000000 ) ) ;
#119 = APPROVAL_DATE_TIME ( #242, #400 ) ;
#120 = VERTEX_POINT ( 'NONE', #331 ) ;
#121 = DIRECTION ( 'NONE',  ( 1.000000000000000000, 0.000000000000000000, 0.000000000000000000 ) ) ;
#122 = EDGE_LOOP ( 'NONE', ( #51, #358, #11, #276 ) ) ;
#123 = DIRECTION ( 'NONE',  ( -0.000000000000000000, -0.000000000000000000, 1.000000000000000000 ) ) ;
#124 = PERSON_AND_ORGANIZATION ( #305, #249 ) ;
#125 = DIRECTION ( 'NONE',  ( -0.000000000000000000, -0.000000000000000000, 1.000000000000000000 ) ) ;
#126 = CARTESIAN_POINT ( 'NONE',  ( 0.000000000000000000, 0.000000000000000000, 0.000000000000000000 ) ) ;
#127 = DIRECTION ( 'NONE',  ( 1.000000000000000000, 0.000000000000000000, 0.000000000000000000 ) ) ;
#128 = EDGE_CURVE ( 'NONE', #236, #60, #401, .T. ) ;
#129 = MANIFOLD_SOLID_BREP ( 'Zkosení1', #7 ) ;
#130 = AXIS2_PLACEMENT_3D ( 'NONE', #156, #329, #299 ) ;
#131 = DIRECTION ( 'NONE',  ( -0.000000000000000000, -0.000000000000000000, 1.000000000000000000 ) ) ;
#132 = COORDINATED_UNIVERSAL_TIME_OFFSET ( 1, 0, .AHEAD. ) ;
#133 = CARTESIAN_POINT ( 'NONE',  ( 16.00000000000000000, 1.959434878635765131E-15, -6.999999999999999112 ) ) ;
#134 = CC_DESIGN_PERSON_AND_ORGANIZATION_ASSIGNMENT ( #263, #350, ( #38 ) ) ;
#135 = DIRECTION ( 'NONE',  ( -0.000000000000000000, -1.000000000000000000, -0.000000000000000000 ) ) ;
#136 = AXIS2_PLACEMENT_3D ( 'NONE', #22, #172, #26 ) ;
#137 = LINE ( 'NONE', #370, #171 ) ;
#138 = VERTEX_POINT ( 'NONE', #328 ) ;
#139 = DIRECTION ( 'NONE',  ( 0.000000000000000000, 0.000000000000000000, -1.000000000000000000 ) ) ;
#140 = EDGE_CURVE ( 'NONE', #177, #151, #217, .T. ) ;
#141 = SECURITY_CLASSIFICATION ( '', '', #62 ) ;
#142 = EDGE_LOOP ( 'NONE', ( #390, #29 ) ) ;
#143 = APPROVAL ( #97, 'NEURÈENÝ' ) ;
#144 = CARTESIAN_POINT ( 'NONE',  ( 18.50000000000000000, 0.000000000000000000, -0.5000000000000004441 ) ) ;
#145 = EDGE_LOOP ( 'NONE', ( #381, #326, #288, #297 ) ) ;
#146 = AXIS2_PLACEMENT_3D ( 'NONE', #219, #393, #361 ) ;
#147 = DIRECTION ( 'NONE',  ( -0.000000000000000000, -0.000000000000000000, 1.000000000000000000 ) ) ;
#148 = DIRECTION ( 'NONE',  ( 1.000000000000000000, 0.000000000000000000, 0.000000000000000000 ) ) ;
#149 = DATE_AND_TIME ( #303, #313 ) ;
#150 = ADVANCED_FACE ( 'NONE', ( #325 ), #10, .T. ) ;
#151 = VERTEX_POINT ( 'NONE', #144 ) ;
#152 = CALENDAR_DATE ( 2024, 2, 1 ) ;
#153 = ORIENTED_EDGE ( 'NONE', *, *, #20, .F. ) ;
#154 = DATE_TIME_ROLE ( 'creation_date' ) ;
#155 = ORIENTED_EDGE ( 'NONE', *, *, #140, .F. ) ;
#156 = CARTESIAN_POINT ( 'NONE',  ( 0.000000000000000000, 0.000000000000000000, -50.00000000000000000 ) ) ;
#157 = AXIS2_PLACEMENT_3D ( 'NONE', #118, #180, #282 ) ;
#158 = CARTESIAN_POINT ( 'NONE',  ( 0.000000000000000000, 0.000000000000000000, -6.999999999999999112 ) ) ;
#159 = PRODUCT_DEFINITION_SHAPE ( 'NONE', 'NONE',  #38 ) ;
#160 = LINE ( 'NONE', #296, #109 ) ;
#161 = AXIS2_PLACEMENT_3D ( 'NONE', #351, #90, #108 ) ;
#162 = MECHANICAL_CONTEXT ( 'NONE', #311, 'mechanical' ) ;
#163 =( GEOMETRIC_REPRESENTATION_CONTEXT ( 3 ) GLOBAL_UNCERTAINTY_ASSIGNED_CONTEXT ( ( #266 ) ) GLOBAL_UNIT_ASSIGNED_CONTEXT ( ( #37, #76, #384 ) ) REPRESENTATION_CONTEXT ( 'NONE', 'WORKASPACE' ) );
#164 = CC_DESIGN_APPROVAL ( #335, ( #38 ) ) ;
#165 = EDGE_CURVE ( 'NONE', #151, #138, #197, .T. ) ;
#166 = DIRECTION ( 'NONE',  ( -0.000000000000000000, -0.000000000000000000, 1.000000000000000000 ) ) ;
#167 = CIRCLE ( 'NONE', #398, 16.00000000000000000 ) ;
#168 = CYLINDRICAL_SURFACE ( 'NONE', #8, 16.00000000000000000 ) ;
#169 = DIRECTION ( 'NONE',  ( 0.000000000000000000, 0.000000000000000000, -1.000000000000000000 ) ) ;
#170 = VERTEX_POINT ( 'NONE', #112 ) ;
#171 = VECTOR ( 'NONE', #83, 1000.000000000000000 ) ;
#172 = DIRECTION ( 'NONE',  ( -0.000000000000000000, -0.000000000000000000, 1.000000000000000000 ) ) ;
#173 = PRODUCT_RELATED_PRODUCT_CATEGORY ( 'detail', '', ( #74 ) ) ;
#174 = ORIENTED_EDGE ( 'NONE', *, *, #368, .T. ) ;
#175 = DIRECTION ( 'NONE',  ( -1.000000000000000000, 0.000000000000000000, -0.000000000000000000 ) ) ;
#176 = VERTEX_POINT ( 'NONE', #379 ) ;
#177 = VERTEX_POINT ( 'NONE', #349 ) ;
#178 = APPROVAL_ROLE ( '' ) ;
#179 = LINE ( 'NONE', #318, #271 ) ;
#180 = DIRECTION ( 'NONE',  ( 0.000000000000000000, 0.000000000000000000, -1.000000000000000000 ) ) ;
#181 = AXIS2_PLACEMENT_3D ( 'NONE', #46, #309, #101 ) ;
#182 = VERTEX_POINT ( 'NONE', #243 ) ;
#183 = ORIENTED_EDGE ( 'NONE', *, *, #375, .T. ) ;
#184 = COORDINATED_UNIVERSAL_TIME_OFFSET ( 1, 0, .AHEAD. ) ;
#185 = DIRECTION ( 'NONE',  ( 0.000000000000000000, 0.000000000000000000, -1.000000000000000000 ) ) ;
#186 = ADVANCED_BREP_SHAPE_REPRESENTATION ( '212e', ( #129, #356 ), #163 ) ;
#187 = DIRECTION ( 'NONE',  ( 1.000000000000000000, 0.000000000000000000, 0.000000000000000000 ) ) ;
#188 = DIRECTION ( 'NONE',  ( 1.000000000000000000, 0.000000000000000000, 0.000000000000000000 ) ) ;
#189 = FACE_OUTER_BOUND ( 'NONE', #285, .T. ) ;
#190 = EDGE_CURVE ( 'NONE', #40, #60, #392, .T. ) ;
#191 = DESIGN_CONTEXT ( 'detailed design', #48, 'design' ) ;
#192 = AXIS2_PLACEMENT_3D ( 'NONE', #158, #366, #96 ) ;
#193 = DIRECTION ( 'NONE',  ( 0.7071067811865451302, 8.659560562354903276E-17, -0.7071067811865500152 ) ) ;
#194 = PERSON_AND_ORGANIZATION ( #305, #249 ) ;
#195 = DIRECTION ( 'NONE',  ( 1.000000000000000000, 0.000000000000000000, 0.000000000000000000 ) ) ;
#196 = EDGE_CURVE ( 'NONE', #170, #177, #30, .T. ) ;
#197 = CIRCLE ( 'NONE', #218, 18.50000000000000000 ) ;
#198 = APPROVAL_STATUS ( 'not_yet_approved' ) ;
#199 = CC_DESIGN_APPROVAL ( #400, ( #141 ) ) ;
#200 = ADVANCED_FACE ( 'NONE', ( #273 ), #317, .F. ) ;
#201 = ORIENTED_EDGE ( 'NONE', *, *, #72, .T. ) ;
#202 = AXIS2_PLACEMENT_3D ( 'NONE', #56, #316, #383 ) ;
#203 = CARTESIAN_POINT ( 'NONE',  ( 16.00000000000000000, 0.000000000000000000, -8.000000000000000000 ) ) ;
#204 = ORIENTED_EDGE ( 'NONE', *, *, #50, .T. ) ;
#205 = CC_DESIGN_PERSON_AND_ORGANIZATION_ASSIGNMENT ( #32, #408, ( #74 ) ) ;
#206 = DIRECTION ( 'NONE',  ( -0.000000000000000000, -0.000000000000000000, 1.000000000000000000 ) ) ;
#207 = EDGE_LOOP ( 'NONE', ( #54, #6, #204, #404 ) ) ;
#208 = ADVANCED_FACE ( 'NONE', ( #68 ), #61, .F. ) ;
#209 = CIRCLE ( 'NONE', #19, 0.5000000000000004441 ) ;
#210 = FACE_OUTER_BOUND ( 'NONE', #142, .T. ) ;
#211 = CIRCLE ( 'NONE', #307, 15.50000000000000000 ) ;
#212 = APPROVAL_DATE_TIME ( #149, #335 ) ;
#213 = CYLINDRICAL_SURFACE ( 'NONE', #161, 16.00000000000000000 ) ;
#214 = VERTEX_POINT ( 'NONE', #330 ) ;
#215 = COORDINATED_UNIVERSAL_TIME_OFFSET ( 1, 0, .AHEAD. ) ;
#216 = LINE ( 'NONE', #75, #292 ) ;
#217 = LINE ( 'NONE', #364, #70 ) ;
#218 = AXIS2_PLACEMENT_3D ( 'NONE', #238, #378, #347 ) ;
#219 = CARTESIAN_POINT ( 'NONE',  ( 0.000000000000000000, 0.000000000000000000, -7.500000000000000000 ) ) ;
#220 = DIRECTION ( 'NONE',  ( -0.000000000000000000, -0.000000000000000000, 1.000000000000000000 ) ) ;
#221 = EDGE_CURVE ( 'NONE', #176, #214, #91, .T. ) ;
#222 = APPROVAL_STATUS ( 'not_yet_approved' ) ;
#223 = AXIS2_PLACEMENT_3D ( 'NONE', #239, #185, #5 ) ;
#224 = CIRCLE ( 'NONE', #130, 16.00000000000000000 ) ;
#225 = ORIENTED_EDGE ( 'NONE', *, *, #226, .F. ) ;
#226 = EDGE_CURVE ( 'NONE', #182, #111, #24, .T. ) ;
#227 = CARTESIAN_POINT ( 'NONE',  ( 16.00000000000000000, 0.000000000000000000, -7.500000000000000000 ) ) ;
#228 = AXIS2_PLACEMENT_3D ( 'NONE', #298, #166, #397 ) ;
#229 = EDGE_CURVE ( 'NONE', #295, #138, #137, .T. ) ;
#230 = DIRECTION ( 'NONE',  ( 0.000000000000000000, 0.000000000000000000, -1.000000000000000000 ) ) ;
#231 = DIRECTION ( 'NONE',  ( 0.000000000000000000, -1.000000000000000000, 0.000000000000000000 ) ) ;
#232 = ORIENTED_EDGE ( 'NONE', *, *, #226, .T. ) ;
#233 = PLANE ( 'NONE',  #95 ) ;
#234 = DIRECTION ( 'NONE',  ( 1.000000000000000000, 0.000000000000000000, 0.000000000000000000 ) ) ;
#235 = ORIENTED_EDGE ( 'NONE', *, *, #267, .F. ) ;
#236 = VERTEX_POINT ( 'NONE', #203 ) ;
#237 = CIRCLE ( 'NONE', #386, 15.50000000000000000 ) ;
#238 = CARTESIAN_POINT ( 'NONE',  ( 0.000000000000000000, 0.000000000000000000, -0.5000000000000004441 ) ) ;
#239 = CARTESIAN_POINT ( 'NONE',  ( 0.000000000000000000, 0.000000000000000000, 0.000000000000000000 ) ) ;
#240 = EDGE_LOOP ( 'NONE', ( #27, #107, #79, #279 ) ) ;
#241 = ORIENTED_EDGE ( 'NONE', *, *, #190, .T. ) ;
#242 = DATE_AND_TIME ( #152, #272 ) ;
#243 = CARTESIAN_POINT ( 'NONE',  ( 15.50000000000000000, 0.000000000000000000, -7.500000000000000000 ) ) ;
#244 = APPROVAL_ROLE ( '' ) ;
#245 = CARTESIAN_POINT ( 'NONE',  ( 0.000000000000000000, 0.000000000000000000, -7.500000000000000000 ) ) ;
#246 = APPLICATION_PROTOCOL_DEFINITION ( 'international standard', 'config_control_design', 1994, #48 ) ;
#247 = DIRECTION ( 'NONE',  ( -0.7071067811865451302, 0.000000000000000000, -0.7071067811865500152 ) ) ;
#248 = FACE_BOUND ( 'NONE', #81, .T. ) ;
#249 = ORGANIZATION ( 'NEURÈENÝ', 'NEURÈENÝ', '' ) ;
#250 = EDGE_LOOP ( 'NONE', ( #251, #153, #64, #36 ) ) ;
#251 = ORIENTED_EDGE ( 'NONE', *, *, #190, .F. ) ;
#252 = CC_DESIGN_DATE_AND_TIME_ASSIGNMENT ( #4, #380, ( #141 ) ) ;
#253 = DIRECTION ( 'NONE',  ( 1.000000000000000000, 0.000000000000000000, 0.000000000000000000 ) ) ;
#254 = PERSON_AND_ORGANIZATION ( #305, #249 ) ;
#255 = DIRECTION ( 'NONE',  ( 0.000000000000000000, -0.000000000000000000, 1.000000000000000000 ) ) ;
#256 = DIRECTION ( 'NONE',  ( 1.000000000000000000, 0.000000000000000000, 0.000000000000000000 ) ) ;
#257 = FACE_OUTER_BOUND ( 'NONE', #344, .T. ) ;
#258 = PLANE ( 'NONE',  #354 ) ;
#259 = CARTESIAN_POINT ( 'NONE',  ( 0.000000000000000000, 0.000000000000000000, -7.500000000000000000 ) ) ;
#260 = CARTESIAN_POINT ( 'NONE',  ( 0.000000000000000000, 0.000000000000000000, -8.000000000000000000 ) ) ;
#261 = DIRECTION ( 'NONE',  ( -1.000000000000000000, 0.000000000000000000, 0.000000000000000000 ) ) ;
#262 = EDGE_CURVE ( 'NONE', #177, #170, #53, .T. ) ;
#263 = PERSON_AND_ORGANIZATION ( #305, #249 ) ;
#264 = CARTESIAN_POINT ( 'NONE',  ( 0.000000000000000000, 0.000000000000000000, -8.000000000000000000 ) ) ;
#265 = DIRECTION ( 'NONE',  ( -1.000000000000000000, 0.000000000000000000, -0.000000000000000000 ) ) ;
#266 = UNCERTAINTY_MEASURE_WITH_UNIT (LENGTH_MEASURE( 1.000000000000000082E-05 ), #37, 'distance_accuracy_value', 'NONE');
#267 = EDGE_CURVE ( 'NONE', #120, #111, #99, .T. ) ;
#268 = ORIENTED_EDGE ( 'NONE', *, *, #300, .T. ) ;
#269 = CARTESIAN_POINT ( 'NONE',  ( 0.000000000000000000, 0.000000000000000000, 0.000000000000000000 ) ) ;
#270 = ADVANCED_FACE ( 'NONE', ( #42 ), #258, .T. ) ;
#271 = VECTOR ( 'NONE', #281, 1000.000000000000000 ) ;
#272 = LOCAL_TIME ( 19, 54, 46.00000000000000000, #113 ) ;
#273 = FACE_OUTER_BOUND ( 'NONE', #49, .T. ) ;
#274 = ORIENTED_EDGE ( 'NONE', *, *, #196, .F. ) ;
#275 = ORIENTED_EDGE ( 'NONE', *, *, #221, .T. ) ;
#276 = ORIENTED_EDGE ( 'NONE', *, *, #84, .F. ) ;
#277 = AXIS2_PLACEMENT_3D ( 'NONE', #283, #314, #385 ) ;
#278 = PERSON_AND_ORGANIZATION ( #305, #249 ) ;
#279 = ORIENTED_EDGE ( 'NONE', *, *, #372, .F. ) ;
#280 = APPLICATION_PROTOCOL_DEFINITION ( 'international standard', 'config_control_design', 1994, #311 ) ;
#281 = DIRECTION ( 'NONE',  ( -0.000000000000000000, -0.000000000000000000, 1.000000000000000000 ) ) ;
#282 = DIRECTION ( 'NONE',  ( -1.000000000000000000, 0.000000000000000000, 0.000000000000000000 ) ) ;
#283 = CARTESIAN_POINT ( 'NONE',  ( 0.000000000000000000, 0.000000000000000000, -6.999999999999998224 ) ) ;
#284 = FACE_OUTER_BOUND ( 'NONE', #240, .T. ) ;
#285 = EDGE_LOOP ( 'NONE', ( #174, #232, #235, #323 ) ) ;
#286 = PERSON_AND_ORGANIZATION ( #305, #249 ) ;
#287 = EDGE_CURVE ( 'NONE', #182, #236, #209, .T. ) ;
#288 = ORIENTED_EDGE ( 'NONE', *, *, #372, .T. ) ;
#289 = CARTESIAN_POINT ( 'NONE',  ( 0.000000000000000000, 0.000000000000000000, -50.00000000000000000 ) ) ;
#290 = CARTESIAN_POINT ( 'NONE',  ( 0.000000000000000000, 0.000000000000000000, 0.000000000000000000 ) ) ;
#291 = AXIS2_PLACEMENT_3D ( 'NONE', #105, #85, #256 ) ;
#292 = VECTOR ( 'NONE', #125, 1000.000000000000000 ) ;
#293 = DIRECTION ( 'NONE',  ( -0.000000000000000000, -0.000000000000000000, 1.000000000000000000 ) ) ;
#294 = PLANE ( 'NONE',  #41 ) ;
#295 = VERTEX_POINT ( 'NONE', #47 ) ;
#296 = CARTESIAN_POINT ( 'NONE',  ( -16.00000000000000000, 1.959434878635765131E-15, 0.000000000000000000 ) ) ;
#297 = ORIENTED_EDGE ( 'NONE', *, *, #165, .T. ) ;
#298 = CARTESIAN_POINT ( 'NONE',  ( 0.000000000000000000, 0.000000000000000000, -6.999999999999998224 ) ) ;
#299 = DIRECTION ( 'NONE',  ( 1.000000000000000000, 0.000000000000000000, 0.000000000000000000 ) ) ;
#300 = EDGE_CURVE ( 'NONE', #40, #120, #103, .T. ) ;
#301 = AXIS2_PLACEMENT_3D ( 'NONE', #289, #123, #253 ) ;
#302 = APPROVAL_PERSON_ORGANIZATION ( #194, #143, #244 ) ;
#303 = CALENDAR_DATE ( 2024, 2, 1 ) ;
#304 = ORIENTED_EDGE ( 'NONE', *, *, #128, .F. ) ;
#305 = PERSON ( 'NEURÈENÝ', 'NEURÈENÝ', 'NEURÈENÝ', ('NEURÈENÝ'), ('NEURÈENÝ'), ('NEURÈENÝ') ) ;
#306 = AXIS2_PLACEMENT_3D ( 'NONE', #341, #135, #338 ) ;
#307 = AXIS2_PLACEMENT_3D ( 'NONE', #13, #220, #121 ) ;
#308 = CARTESIAN_POINT ( 'NONE',  ( -15.50000000000000000, 1.928818708657081344E-15, -7.500000000000000000 ) ) ;
#309 = DIRECTION ( 'NONE',  ( -0.000000000000000000, -0.000000000000000000, 1.000000000000000000 ) ) ;
#310 = ADVANCED_FACE ( 'NONE', ( #21 ), #168, .T. ) ;
#311 = APPLICATION_CONTEXT ( 'configuration controlled 3d designs of mechanical parts and assemblies' ) ;
#312 = CONICAL_SURFACE ( 'NONE', #223, 18.00000000000000355, 0.7853981633974447263 ) ;
#313 = LOCAL_TIME ( 19, 54, 46.00000000000000000, #215 ) ;
#314 = DIRECTION ( 'NONE',  ( -0.000000000000000000, -0.000000000000000000, 1.000000000000000000 ) ) ;
#315 = ADVANCED_FACE ( 'NONE', ( #284 ), #89, .T. ) ;
#316 = DIRECTION ( 'NONE',  ( 1.224646799147353207E-16, 1.000000000000000000, 0.000000000000000000 ) ) ;
#317 = TOROIDAL_SURFACE ( 'NONE', #14, 16.00000000000000000, 0.5000000000000000000 ) ;
#318 = CARTESIAN_POINT ( 'NONE',  ( 16.00000000000000000, 0.000000000000000000, 0.000000000000000000 ) ) ;
#319 = AXIS2_PLACEMENT_3D ( 'NONE', #352, #58, #188 ) ;
#320 = ORIENTED_EDGE ( 'NONE', *, *, #50, .F. ) ;
#321 = ADVANCED_FACE ( 'NONE', ( #257 ), #294, .T. ) ;
#322 = FACE_OUTER_BOUND ( 'NONE', #405, .T. ) ;
#323 = ORIENTED_EDGE ( 'NONE', *, *, #300, .F. ) ;
#324 = PERSON_AND_ORGANIZATION_ROLE ( 'creator' ) ;
#325 = FACE_OUTER_BOUND ( 'NONE', #145, .T. ) ;
#326 = ORIENTED_EDGE ( 'NONE', *, *, #15, .T. ) ;
#327 = CONICAL_SURFACE ( 'NONE', #334, 18.00000000000000355, 0.7853981633974447263 ) ;
#328 = CARTESIAN_POINT ( 'NONE',  ( -18.50000000000000000, 2.265596578422603396E-15, -0.5000000000000004441 ) ) ;
#329 = DIRECTION ( 'NONE',  ( -0.000000000000000000, -0.000000000000000000, 1.000000000000000000 ) ) ;
#330 = CARTESIAN_POINT ( 'NONE',  ( -16.00000000000000000, 1.959434878635765131E-15, -50.00000000000000000 ) ) ;
#331 = CARTESIAN_POINT ( 'NONE',  ( -16.00000000000000000, 0.000000000000000000, -6.999999999999999112 ) ) ;
#332 = PERSON_AND_ORGANIZATION_ROLE ( 'classification_officer' ) ;
#333 = CARTESIAN_POINT ( 'NONE',  ( 16.00000000000000000, 1.959434878635765131E-15, -7.500000000000000000 ) ) ;
#334 = AXIS2_PLACEMENT_3D ( 'NONE', #80, #169, #106 ) ;
#335 = APPROVAL ( #198, 'NEURÈENÝ' ) ;
#336 = DIRECTION ( 'NONE',  ( 0.000000000000000000, 0.000000000000000000, -1.000000000000000000 ) ) ;
#337 = FACE_OUTER_BOUND ( 'NONE', #100, .T. ) ;
#338 = DIRECTION ( 'NONE',  ( 0.000000000000000000, 0.000000000000000000, -1.000000000000000000 ) ) ;
#339 = CIRCLE ( 'NONE', #228, 18.50000000000000000 ) ;
#340 = CC_DESIGN_APPROVAL ( #143, ( #363 ) ) ;
#341 = CARTESIAN_POINT ( 'NONE',  ( -16.00000000000000000, 0.000000000000000000, -7.500000000000000000 ) ) ;
#342 = ORIENTED_EDGE ( 'NONE', *, *, #287, .F. ) ;
#343 = ADVANCED_FACE ( 'NONE', ( #189 ), #402, .F. ) ;
#344 = EDGE_LOOP ( 'NONE', ( #348, #376 ) ) ;
#345 = ORIENTED_EDGE ( 'NONE', *, *, #368, .F. ) ;
#346 = DIRECTION ( 'NONE',  ( 0.000000000000000000, 0.000000000000000000, -1.000000000000000000 ) ) ;
#347 = DIRECTION ( 'NONE',  ( 1.000000000000000000, 0.000000000000000000, 0.000000000000000000 ) ) ;
#348 = ORIENTED_EDGE ( 'NONE', *, *, #196, .T. ) ;
#349 = CARTESIAN_POINT ( 'NONE',  ( 18.00000000000000355, 2.234980408443919609E-15, 0.000000000000000000 ) ) ;
#350 = PERSON_AND_ORGANIZATION_ROLE ( 'creator' ) ;
#351 = CARTESIAN_POINT ( 'NONE',  ( 0.000000000000000000, 0.000000000000000000, 0.000000000000000000 ) ) ;
#352 = CARTESIAN_POINT ( 'NONE',  ( 0.000000000000000000, 0.000000000000000000, 0.000000000000000000 ) ) ;
#353 = EDGE_CURVE ( 'NONE', #214, #176, #224, .T. ) ;
#354 = AXIS2_PLACEMENT_3D ( 'NONE', #18, #139, #265 ) ;
#355 = APPROVAL_DATE_TIME ( #389, #143 ) ;
#356 = AXIS2_PLACEMENT_3D ( 'NONE', #290, #28, #359 ) ;
#357 = CARTESIAN_POINT ( 'NONE',  ( 0.000000000000000000, 18.50000000000000000, -6.999999999999999112 ) ) ;
#358 = ORIENTED_EDGE ( 'NONE', *, *, #140, .T. ) ;
#359 = DIRECTION ( 'NONE',  ( 1.000000000000000000, 0.000000000000000000, 0.000000000000000000 ) ) ;
#360 = CARTESIAN_POINT ( 'NONE',  ( 18.50000000000000000, 0.000000000000000000, -6.999999999999998224 ) ) ;
#361 = DIRECTION ( 'NONE',  ( 1.000000000000000000, 0.000000000000000000, 0.000000000000000000 ) ) ;
#362 = LINE ( 'NONE', #17, #373 ) ;
#363 = PRODUCT_DEFINITION_FORMATION_WITH_SPECIFIED_SOURCE ( 'LIBOVOLNÝ', '', #74, .NOT_KNOWN. ) ;
#364 = CARTESIAN_POINT ( 'NONE',  ( 18.00000000000000355, 2.204364238465235822E-15, 0.000000000000000000 ) ) ;
#365 = DIRECTION ( 'NONE',  ( 0.000000000000000000, 0.000000000000000000, -1.000000000000000000 ) ) ;
#366 = DIRECTION ( 'NONE',  ( -0.000000000000000000, -0.000000000000000000, 1.000000000000000000 ) ) ;
#367 = APPROVAL_ROLE ( '' ) ;
#368 = EDGE_CURVE ( 'NONE', #40, #182, #211, .T. ) ;
#369 = AXIS2_PLACEMENT_3D ( 'NONE', #264, #67, #127 ) ;
#370 = CARTESIAN_POINT ( 'NONE',  ( -18.50000000000000000, 2.265596578422603396E-15, 0.000000000000000000 ) ) ;
#371 = SHAPE_DEFINITION_REPRESENTATION ( #159, #186 ) ;
#372 = EDGE_CURVE ( 'NONE', #34, #151, #216, .T. ) ;
#373 = VECTOR ( 'NONE', #247, 1000.000000000000114 ) ;
#374 = AXIS2_PLACEMENT_3D ( 'NONE', #115, #230, #69 ) ;
#375 = EDGE_CURVE ( 'NONE', #111, #120, #388, .T. ) ;
#376 = ORIENTED_EDGE ( 'NONE', *, *, #262, .T. ) ;
#377 = AXIS2_PLACEMENT_3D ( 'NONE', #394, #73, #195 ) ;
#378 = DIRECTION ( 'NONE',  ( 0.000000000000000000, 0.000000000000000000, -1.000000000000000000 ) ) ;
#379 = CARTESIAN_POINT ( 'NONE',  ( 16.00000000000000000, 0.000000000000000000, -50.00000000000000000 ) ) ;
#380 = DATE_TIME_ROLE ( 'classification_date' ) ;
#381 = ORIENTED_EDGE ( 'NONE', *, *, #229, .F. ) ;
#382 = ADVANCED_FACE ( 'NONE', ( #337 ), #327, .T. ) ;
#383 = DIRECTION ( 'NONE',  ( -1.000000000000000000, 1.224646799147349509E-16, 0.000000000000000000 ) ) ;
#384 =( NAMED_UNIT ( * ) SI_UNIT ( $, .STERADIAN. ) SOLID_ANGLE_UNIT ( ) );
#385 = DIRECTION ( 'NONE',  ( 1.000000000000000000, 0.000000000000000000, 0.000000000000000000 ) ) ;
#386 = AXIS2_PLACEMENT_3D ( 'NONE', #245, #206, #33 ) ;
#387 = CARTESIAN_POINT ( 'NONE',  ( 0.000000000000000000, 0.000000000000000000, 0.000000000000000000 ) ) ;
#388 = CIRCLE ( 'NONE', #181, 16.00000000000000000 ) ;
#389 = DATE_AND_TIME ( #1, #45 ) ;
#390 = ORIENTED_EDGE ( 'NONE', *, *, #93, .F. ) ;
#391 = ORIENTED_EDGE ( 'NONE', *, *, #267, .T. ) ;
#392 = CIRCLE ( 'NONE', #202, 0.5000000000000004441 ) ;
#393 = DIRECTION ( 'NONE',  ( -0.000000000000000000, -0.000000000000000000, 1.000000000000000000 ) ) ;
#394 = CARTESIAN_POINT ( 'NONE',  ( 0.000000000000000000, 0.000000000000000000, -7.500000000000000000 ) ) ;
#395 = EDGE_CURVE ( 'NONE', #138, #151, #16, .T. ) ;
#396 = PERSON_AND_ORGANIZATION_ROLE ( 'design_supplier' ) ;
#397 = DIRECTION ( 'NONE',  ( 1.000000000000000000, 0.000000000000000000, 0.000000000000000000 ) ) ;
#398 = AXIS2_PLACEMENT_3D ( 'NONE', #260, #131, #187 ) ;
#399 = EDGE_LOOP ( 'NONE', ( #59, #86 ) ) ;
#400 = APPROVAL ( #222, 'NEURÈENÝ' ) ;
#401 = CIRCLE ( 'NONE', #369, 16.00000000000000000 ) ;
#402 = TOROIDAL_SURFACE ( 'NONE', #157, 16.00000000000000000, 0.5000000000000000000 ) ;
#403 = CC_DESIGN_PERSON_AND_ORGANIZATION_ASSIGNMENT ( #116, #396, ( #363 ) ) ;
#404 = ORIENTED_EDGE ( 'NONE', *, *, #72, .F. ) ;
#405 = EDGE_LOOP ( 'NONE', ( #275, #3, #304, #320 ) ) ;
#406 = TOROIDAL_SURFACE ( 'NONE', #146, 16.00000000000000000, 0.5000000000000000000 ) ;
#407 = APPROVAL_PERSON_ORGANIZATION ( #286, #335, #178 ) ;
#408 = PERSON_AND_ORGANIZATION_ROLE ( 'design_owner' ) ;
#409 = ORIENTED_EDGE ( 'NONE', *, *, #20, .T. ) ;
ENDSEC;
END-ISO-10303-21;
