ISO-10303-21;
HEADER;
FILE_DESCRIPTION (( 'STEP AP203' ),
    '1' );
FILE_NAME ('f7f6.STEP',
    '2022-06-20T09:17:44',
    ( '' ),
    ( '' ),
    'SwSTEP 2.0',
    'SolidWorks 2019',
    '' );
FILE_SCHEMA (( 'CONFIG_CONTROL_DESIGN' ));
ENDSEC;

DATA;
#1 = COORDINATED_UNIVERSAL_TIME_OFFSET ( 1, 0, .AHEAD. ) ;
#2 = VERTEX_POINT ( 'NONE', #6 ) ;
#3 = AXIS2_PLACEMENT_3D ( 'NONE', #278, #40, #112 ) ;
#4 = ORIENTED_EDGE ( 'NONE', *, *, #170, .F. ) ;
#5 = EDGE_CURVE ( 'NONE', #119, #70, #171, .T. ) ;
#6 = CARTESIAN_POINT ( 'NONE',  ( -16.00000000000000000, 0.000000000000000000, 10.00000000000000000 ) ) ;
#7 = DIRECTION ( 'NONE',  ( 1.000000000000000000, 0.000000000000000000, 0.000000000000000000 ) ) ;
#8 = ORIENTED_EDGE ( 'NONE', *, *, #187, .T. ) ;
#9 = EDGE_CURVE ( 'NONE', #128, #82, #104, .T. ) ;
#10 = EDGE_LOOP ( 'NONE', ( #288, #294, #124, #219 ) ) ;
#11 = AXIS2_PLACEMENT_3D ( 'NONE', #88, #248, #273 ) ;
#12 = CARTESIAN_POINT ( 'NONE',  ( 0.000000000000000000, 0.000000000000000000, 0.000000000000000000 ) ) ;
#13 = DIRECTION ( 'NONE',  ( -0.000000000000000000, -0.000000000000000000, -1.000000000000000000 ) ) ;
#14 = FACE_OUTER_BOUND ( 'NONE', #289, .T. ) ;
#15 = DIRECTION ( 'NONE',  ( 0.000000000000000000, 0.000000000000000000, 1.000000000000000000 ) ) ;
#16 = CARTESIAN_POINT ( 'NONE',  ( -16.00000000000000000, 0.000000000000000000, 0.000000000000000000 ) ) ;
#17 = MANIFOLD_SOLID_BREP ( 'Zaoblit1', #209 ) ;
#18 = EDGE_CURVE ( 'NONE', #128, #108, #243, .T. ) ;
#19 = APPROVAL_DATE_TIME ( #163, #153 ) ;
#20 = DIRECTION ( 'NONE',  ( 0.000000000000000000, 0.000000000000000000, 1.000000000000000000 ) ) ;
#21 = PERSON_AND_ORGANIZATION_ROLE ( 'design_supplier' ) ;
#22 = PERSON_AND_ORGANIZATION_ROLE ( 'creator' ) ;
#23 = DIRECTION ( 'NONE',  ( 0.000000000000000000, 0.000000000000000000, 1.000000000000000000 ) ) ;
#24 = AXIS2_PLACEMENT_3D ( 'NONE', #56, #111, #224 ) ;
#25 = CC_DESIGN_DATE_AND_TIME_ASSIGNMENT ( #305, #92, ( #135 ) ) ;
#26 = CIRCLE ( 'NONE', #254, 0.2000000000000005107 ) ;
#27 = UNCERTAINTY_MEASURE_WITH_UNIT (LENGTH_MEASURE( 1.000000000000000082E-05 ), #173, 'distance_accuracy_value', 'NONE');
#28 = ORIENTED_EDGE ( 'NONE', *, *, #230, .T. ) ;
#29 = ORIENTED_EDGE ( 'NONE', *, *, #264, .T. ) ;
#30 = CARTESIAN_POINT ( 'NONE',  ( 0.000000000000000000, 0.000000000000000000, 0.000000000000000000 ) ) ;
#31 = APPROVAL_PERSON_ORGANIZATION ( #65, #91, #236 ) ;
#32 = ORGANIZATION ( 'NEURÈENÝ', 'NEURÈENÝ', '' ) ;
#33 = DIRECTION ( 'NONE',  ( -0.000000000000000000, -0.000000000000000000, -1.000000000000000000 ) ) ;
#34 = CARTESIAN_POINT ( 'NONE',  ( -12.50000000000000000, 0.000000000000000000, 10.19999999999998685 ) ) ;
#35 = CARTESIAN_POINT ( 'NONE',  ( 0.000000000000000000, 0.000000000000000000, 10.00000000000000000 ) ) ;
#36 = CARTESIAN_POINT ( 'NONE',  ( 16.00000000000000000, 1.959434878635765131E-15, 10.00000000000000000 ) ) ;
#37 = CIRCLE ( 'NONE', #11, 16.00000000000000000 ) ;
#38 = CARTESIAN_POINT ( 'NONE',  ( 0.000000000000000000, 0.000000000000000000, 10.19999999999998685 ) ) ;
#39 = FACE_OUTER_BOUND ( 'NONE', #147, .T. ) ;
#40 = DIRECTION ( 'NONE',  ( 0.000000000000000000, 0.000000000000000000, 1.000000000000000000 ) ) ;
#41 = DATE_AND_TIME ( #284, #89 ) ;
#42 = PLANE ( 'NONE',  #260 ) ;
#43 = AXIS2_PLACEMENT_3D ( 'NONE', #80, #107, #206 ) ;
#44 = PRODUCT_DEFINITION_FORMATION_WITH_SPECIFIED_SOURCE ( 'LIBOVOLNÝ', '', #73, .NOT_KNOWN. ) ;
#45 = PERSON_AND_ORGANIZATION ( #142, #32 ) ;
#46 = EDGE_CURVE ( 'NONE', #2, #176, #276, .T. ) ;
#47 = ORIENTED_EDGE ( 'NONE', *, *, #9, .F. ) ;
#48 = ADVANCED_FACE ( 'NONE', ( #58 ), #269, .T. ) ;
#49 = CC_DESIGN_PERSON_AND_ORGANIZATION_ASSIGNMENT ( #240, #218, ( #211 ) ) ;
#50 = AXIS2_PLACEMENT_3D ( 'NONE', #132, #198, #126 ) ;
#51 = EDGE_LOOP ( 'NONE', ( #131, #101, #298, #28 ) ) ;
#52 = CARTESIAN_POINT ( 'NONE',  ( 0.000000000000000000, 0.000000000000000000, 10.00000000000000000 ) ) ;
#53 = CIRCLE ( 'NONE', #158, 12.70000000000000107 ) ;
#54 = FACE_OUTER_BOUND ( 'NONE', #194, .T. ) ;
#55 = CARTESIAN_POINT ( 'NONE',  ( 0.000000000000000000, 0.000000000000000000, 510.0000000000000000 ) ) ;
#56 = CARTESIAN_POINT ( 'NONE',  ( 0.000000000000000000, 0.000000000000000000, 10.19999999999998685 ) ) ;
#57 = ORIENTED_EDGE ( 'NONE', *, *, #100, .T. ) ;
#58 = FACE_OUTER_BOUND ( 'NONE', #127, .T. ) ;
#59 = DIRECTION ( 'NONE',  ( -0.000000000000000000, -0.000000000000000000, -1.000000000000000000 ) ) ;
#60 = CC_DESIGN_APPROVAL ( #75, ( #135 ) ) ;
#61 = PERSON_AND_ORGANIZATION ( #142, #32 ) ;
#62 = CARTESIAN_POINT ( 'NONE',  ( 0.000000000000000000, 0.000000000000000000, 510.0000000000000000 ) ) ;
#63 = PERSON_AND_ORGANIZATION ( #142, #32 ) ;
#64 = APPLICATION_CONTEXT ( 'configuration controlled 3d designs of mechanical parts and assemblies' ) ;
#65 = PERSON_AND_ORGANIZATION ( #142, #32 ) ;
#66 = AXIS2_PLACEMENT_3D ( 'NONE', #109, #293, #129 ) ;
#67 = APPROVAL_ROLE ( '' ) ;
#68 = CC_DESIGN_PERSON_AND_ORGANIZATION_ASSIGNMENT ( #61, #118, ( #73 ) ) ;
#69 = AXIS2_PLACEMENT_3D ( 'NONE', #267, #200, #247 ) ;
#70 = VERTEX_POINT ( 'NONE', #105 ) ;
#71 = ADVANCED_FACE ( 'NONE', ( #150 ), #272, .T. ) ;
#72 = CC_DESIGN_SECURITY_CLASSIFICATION ( #211, ( #44 ) ) ;
#73 = PRODUCT ( 'f7f6', 'f7f6', '', ( #165 ) ) ;
#74 = ORIENTED_EDGE ( 'NONE', *, *, #264, .F. ) ;
#75 = APPROVAL ( #186, 'NEURÈENÝ' ) ;
#76 = ORIENTED_EDGE ( 'NONE', *, *, #18, .T. ) ;
#77 = CARTESIAN_POINT ( 'NONE',  ( 12.50000000000000000, 1.530808498934191521E-15, 10.19999999999998685 ) ) ;
#78 = ORIENTED_EDGE ( 'NONE', *, *, #242, .T. ) ;
#79 = AXIS2_PLACEMENT_3D ( 'NONE', #55, #152, #251 ) ;
#80 = CARTESIAN_POINT ( 'NONE',  ( -12.70000000000000107, 1.555301434917138630E-15, 10.19999999999998685 ) ) ;
#81 = LOCAL_TIME ( 11, 17, 44.00000000000000000, #1 ) ;
#82 = VERTEX_POINT ( 'NONE', #34 ) ;
#83 = DIRECTION ( 'NONE',  ( -0.000000000000000000, -0.000000000000000000, -1.000000000000000000 ) ) ;
#84 = EDGE_LOOP ( 'NONE', ( #300, #122 ) ) ;
#85 = ADVANCED_BREP_SHAPE_REPRESENTATION ( 'f7f6', ( #17, #201 ), #146 ) ;
#86 = DIRECTION ( 'NONE',  ( 0.000000000000000000, 0.000000000000000000, -1.000000000000000000 ) ) ;
#87 = DIRECTION ( 'NONE',  ( -1.000000000000000000, 0.000000000000000000, 0.000000000000000000 ) ) ;
#88 = CARTESIAN_POINT ( 'NONE',  ( 0.000000000000000000, 0.000000000000000000, 10.00000000000000000 ) ) ;
#89 = LOCAL_TIME ( 11, 17, 44.00000000000000000, #286 ) ;
#90 = APPROVAL_STATUS ( 'not_yet_approved' ) ;
#91 = APPROVAL ( #90, 'NEURÈENÝ' ) ;
#92 = DATE_TIME_ROLE ( 'creation_date' ) ;
#93 = CALENDAR_DATE ( 2022, 20, 6 ) ;
#94 = AXIS2_PLACEMENT_3D ( 'NONE', #30, #148, #7 ) ;
#95 = APPROVAL_ROLE ( '' ) ;
#96 = EDGE_CURVE ( 'NONE', #108, #292, #185, .T. ) ;
#97 = ORIENTED_EDGE ( 'NONE', *, *, #96, .T. ) ;
#98 = AXIS2_PLACEMENT_3D ( 'NONE', #257, #304, #208 ) ;
#99 = LOCAL_TIME ( 11, 17, 44.00000000000000000, #143 ) ;
#100 = EDGE_CURVE ( 'NONE', #221, #290, #53, .T. ) ;
#101 = ORIENTED_EDGE ( 'NONE', *, *, #18, .F. ) ;
#102 = CIRCLE ( 'NONE', #43, 0.2000000000000005107 ) ;
#103 = ORIENTED_EDGE ( 'NONE', *, *, #46, .F. ) ;
#104 = LINE ( 'NONE', #203, #270 ) ;
#105 = CARTESIAN_POINT ( 'NONE',  ( 16.00000000000000000, 1.959434878635765131E-15, 0.000000000000000000 ) ) ;
#106 = EDGE_LOOP ( 'NONE', ( #8, #29 ) ) ;
#107 = DIRECTION ( 'NONE',  ( 1.224646799147353207E-16, 1.000000000000000000, -0.000000000000000000 ) ) ;
#108 = VERTEX_POINT ( 'NONE', #113 ) ;
#109 = CARTESIAN_POINT ( 'NONE',  ( 0.000000000000000000, 0.000000000000000000, 10.00000000000000000 ) ) ;
#110 = CARTESIAN_POINT ( 'NONE',  ( 12.50000000000000000, 1.530808498934191521E-15, 510.0000000000000000 ) ) ;
#111 = DIRECTION ( 'NONE',  ( 0.000000000000000000, 0.000000000000000000, 1.000000000000000000 ) ) ;
#112 = DIRECTION ( 'NONE',  ( 1.000000000000000000, 0.000000000000000000, 0.000000000000000000 ) ) ;
#113 = CARTESIAN_POINT ( 'NONE',  ( 12.50000000000000000, 1.530808498934191521E-15, 510.0000000000000000 ) ) ;
#114 = PERSON_AND_ORGANIZATION_ROLE ( 'creator' ) ;
#115 = AXIS2_PLACEMENT_3D ( 'NONE', #35, #15, #271 ) ;
#116 = ADVANCED_FACE ( 'NONE', ( #302 ), #42, .F. ) ;
#117 = APPROVAL_PERSON_ORGANIZATION ( #63, #75, #67 ) ;
#118 = PERSON_AND_ORGANIZATION_ROLE ( 'design_owner' ) ;
#119 = VERTEX_POINT ( 'NONE', #137 ) ;
#120 = EDGE_CURVE ( 'NONE', #108, #128, #234, .T. ) ;
#121 = VECTOR ( 'NONE', #162, 1000.000000000000000 ) ;
#122 = ORIENTED_EDGE ( 'NONE', *, *, #307, .F. ) ;
#123 = ORIENTED_EDGE ( 'NONE', *, *, #230, .F. ) ;
#124 = ORIENTED_EDGE ( 'NONE', *, *, #170, .T. ) ;
#125 = ADVANCED_FACE ( 'NONE', ( #39 ), #134, .T. ) ;
#126 = DIRECTION ( 'NONE',  ( -1.000000000000000000, 0.000000000000000000, 0.000000000000000000 ) ) ;
#127 = EDGE_LOOP ( 'NONE', ( #74, #228, #179, #103 ) ) ;
#128 = VERTEX_POINT ( 'NONE', #161 ) ;
#129 = DIRECTION ( 'NONE',  ( 1.000000000000000000, 0.000000000000000000, 0.000000000000000000 ) ) ;
#130 = PRODUCT_RELATED_PRODUCT_CATEGORY ( 'detail', '', ( #73 ) ) ;
#131 = ORIENTED_EDGE ( 'NONE', *, *, #96, .F. ) ;
#132 = CARTESIAN_POINT ( 'NONE',  ( 0.000000000000000000, 0.000000000000000000, 10.00000000000000000 ) ) ;
#133 = CC_DESIGN_APPROVAL ( #91, ( #44 ) ) ;
#134 = PLANE ( 'NONE',  #98 ) ;
#135 = PRODUCT_DEFINITION ( 'NEZNÁMÝ', '', #44, #195 ) ;
#136 = APPROVAL_STATUS ( 'not_yet_approved' ) ;
#137 = CARTESIAN_POINT ( 'NONE',  ( 16.00000000000000000, 1.959434878635765131E-15, 10.00000000000000000 ) ) ;
#138 = COORDINATED_UNIVERSAL_TIME_OFFSET ( 1, 0, .AHEAD. ) ;
#139 = AXIS2_PLACEMENT_3D ( 'NONE', #256, #250, #202 ) ;
#140 = CALENDAR_DATE ( 2022, 20, 6 ) ;
#141 = DATE_AND_TIME ( #93, #81 ) ;
#142 = PERSON ( 'NEURÈENÝ', 'NEURÈENÝ', 'NEURÈENÝ', ('NEURÈENÝ'), ('NEURÈENÝ'), ('NEURÈENÝ') ) ;
#143 = COORDINATED_UNIVERSAL_TIME_OFFSET ( 1, 0, .AHEAD. ) ;
#144 = LOCAL_TIME ( 11, 17, 44.00000000000000000, #233 ) ;
#145 = CC_DESIGN_PERSON_AND_ORGANIZATION_ASSIGNMENT ( #45, #22, ( #135 ) ) ;
#146 =( GEOMETRIC_REPRESENTATION_CONTEXT ( 3 ) GLOBAL_UNCERTAINTY_ASSIGNED_CONTEXT ( ( #27 ) ) GLOBAL_UNIT_ASSIGNED_CONTEXT ( ( #173, #232, #156 ) ) REPRESENTATION_CONTEXT ( 'NONE', 'WORKASPACE' ) );
#147 = EDGE_LOOP ( 'NONE', ( #76, #197 ) ) ;
#148 = DIRECTION ( 'NONE',  ( 0.000000000000000000, 0.000000000000000000, 1.000000000000000000 ) ) ;
#149 = VECTOR ( 'NONE', #155, 1000.000000000000000 ) ;
#150 = FACE_OUTER_BOUND ( 'NONE', #51, .T. ) ;
#151 = DIRECTION ( 'NONE',  ( 1.000000000000000000, 0.000000000000000000, 0.000000000000000000 ) ) ;
#152 = DIRECTION ( 'NONE',  ( -0.000000000000000000, -0.000000000000000000, -1.000000000000000000 ) ) ;
#153 = APPROVAL ( #136, 'NEURÈENÝ' ) ;
#154 = FACE_BOUND ( 'NONE', #199, .T. ) ;
#155 = DIRECTION ( 'NONE',  ( -0.000000000000000000, -0.000000000000000000, -1.000000000000000000 ) ) ;
#156 =( NAMED_UNIT ( * ) SI_UNIT ( $, .STERADIAN. ) SOLID_ANGLE_UNIT ( ) );
#157 = DIRECTION ( 'NONE',  ( 0.000000000000000000, 0.000000000000000000, 1.000000000000000000 ) ) ;
#158 = AXIS2_PLACEMENT_3D ( 'NONE', #259, #59, #282 ) ;
#159 = DIRECTION ( 'NONE',  ( 0.000000000000000000, 0.000000000000000000, 1.000000000000000000 ) ) ;
#160 = CIRCLE ( 'NONE', #217, 12.50000000000000000 ) ;
#161 = CARTESIAN_POINT ( 'NONE',  ( -12.50000000000000000, 0.000000000000000000, 510.0000000000000000 ) ) ;
#162 = DIRECTION ( 'NONE',  ( -0.000000000000000000, -0.000000000000000000, -1.000000000000000000 ) ) ;
#163 = DATE_AND_TIME ( #238, #144 ) ;
#164 = APPROVAL_DATE_TIME ( #283, #91 ) ;
#165 = MECHANICAL_CONTEXT ( 'NONE', #64, 'mechanical' ) ;
#166 = AXIS2_PLACEMENT_3D ( 'NONE', #38, #159, #180 ) ;
#167 = CC_DESIGN_DATE_AND_TIME_ASSIGNMENT ( #141, #261, ( #211 ) ) ;
#168 = AXIS2_PLACEMENT_3D ( 'NONE', #303, #83, #87 ) ;
#169 = AXIS2_PLACEMENT_3D ( 'NONE', #62, #157, #235 ) ;
#170 = EDGE_CURVE ( 'NONE', #292, #221, #26, .T. ) ;
#171 = LINE ( 'NONE', #36, #207 ) ;
#172 = ORIENTED_EDGE ( 'NONE', *, *, #100, .F. ) ;
#173 =( LENGTH_UNIT ( ) NAMED_UNIT ( * ) SI_UNIT ( .MILLI., .METRE. ) );
#174 = TOROIDAL_SURFACE ( 'NONE', #166, 12.70000000000000107, 0.2000000000000000111 ) ;
#175 = ADVANCED_FACE ( 'NONE', ( #14 ), #239, .F. ) ;
#176 = VERTEX_POINT ( 'NONE', #16 ) ;
#177 = CARTESIAN_POINT ( 'NONE',  ( -16.00000000000000000, 0.000000000000000000, 10.00000000000000000 ) ) ;
#178 = DIRECTION ( 'NONE',  ( 0.000000000000000000, 0.000000000000000000, 1.000000000000000000 ) ) ;
#179 = ORIENTED_EDGE ( 'NONE', *, *, #307, .T. ) ;
#180 = DIRECTION ( 'NONE',  ( 1.000000000000000000, 0.000000000000000000, 0.000000000000000000 ) ) ;
#181 = FACE_OUTER_BOUND ( 'NONE', #10, .T. ) ;
#182 = DIRECTION ( 'NONE',  ( 0.000000000000000000, 0.000000000000000000, 1.000000000000000000 ) ) ;
#183 = ADVANCED_FACE ( 'NONE', ( #181 ), #174, .F. ) ;
#184 = CC_DESIGN_APPROVAL ( #153, ( #211 ) ) ;
#185 = LINE ( 'NONE', #110, #121 ) ;
#186 = APPROVAL_STATUS ( 'not_yet_approved' ) ;
#187 = EDGE_CURVE ( 'NONE', #2, #119, #37, .T. ) ;
#188 = CIRCLE ( 'NONE', #24, 12.50000000000000000 ) ;
#189 = PERSON_AND_ORGANIZATION ( #142, #32 ) ;
#190 = SECURITY_CLASSIFICATION_LEVEL ( 'unclassified' ) ;
#191 = ORIENTED_EDGE ( 'NONE', *, *, #297, .T. ) ;
#192 = AXIS2_PLACEMENT_3D ( 'NONE', #52, #33, #225 ) ;
#193 = PRODUCT_DEFINITION_SHAPE ( 'NONE', 'NONE',  #135 ) ;
#194 = EDGE_LOOP ( 'NONE', ( #220, #97, #246, #47 ) ) ;
#195 = DESIGN_CONTEXT ( 'detailed design', #266, 'design' ) ;
#196 = AXIS2_PLACEMENT_3D ( 'NONE', #12, #178, #275 ) ;
#197 = ORIENTED_EDGE ( 'NONE', *, *, #120, .T. ) ;
#198 = DIRECTION ( 'NONE',  ( -0.000000000000000000, -0.000000000000000000, -1.000000000000000000 ) ) ;
#199 = EDGE_LOOP ( 'NONE', ( #57, #78 ) ) ;
#200 = DIRECTION ( 'NONE',  ( 0.000000000000000000, 0.000000000000000000, 1.000000000000000000 ) ) ;
#201 = AXIS2_PLACEMENT_3D ( 'NONE', #258, #23, #210 ) ;
#202 = DIRECTION ( 'NONE',  ( 1.000000000000000000, 0.000000000000000000, 0.000000000000000000 ) ) ;
#203 = CARTESIAN_POINT ( 'NONE',  ( -12.50000000000000000, 0.000000000000000000, 510.0000000000000000 ) ) ;
#204 = PLANE ( 'NONE',  #115 ) ;
#205 = CARTESIAN_POINT ( 'NONE',  ( 12.70000000000000107, 0.000000000000000000, 10.19999999999998685 ) ) ;
#206 = DIRECTION ( 'NONE',  ( -1.000000000000000000, 1.224646799147353207E-16, 0.000000000000000000 ) ) ;
#207 = VECTOR ( 'NONE', #226, 1000.000000000000000 ) ;
#208 = DIRECTION ( 'NONE',  ( 1.000000000000000000, 0.000000000000000000, -0.000000000000000000 ) ) ;
#209 = CLOSED_SHELL ( 'NONE', ( #175, #244, #48, #268, #223, #116, #71, #125, #183 ) ) ;
#210 = DIRECTION ( 'NONE',  ( 1.000000000000000000, 0.000000000000000000, 0.000000000000000000 ) ) ;
#211 = SECURITY_CLASSIFICATION ( '', '', #190 ) ;
#212 = DIRECTION ( 'NONE',  ( 1.000000000000000000, 0.000000000000000000, -0.000000000000000000 ) ) ;
#213 = APPROVAL_DATE_TIME ( #41, #75 ) ;
#214 = CC_DESIGN_PERSON_AND_ORGANIZATION_ASSIGNMENT ( #306, #114, ( #44 ) ) ;
#215 = APPLICATION_PROTOCOL_DEFINITION ( 'international standard', 'config_control_design', 1994, #266 ) ;
#216 = CALENDAR_DATE ( 2022, 20, 6 ) ;
#217 = AXIS2_PLACEMENT_3D ( 'NONE', #227, #182, #151 ) ;
#218 = PERSON_AND_ORGANIZATION_ROLE ( 'classification_officer' ) ;
#219 = ORIENTED_EDGE ( 'NONE', *, *, #242, .F. ) ;
#220 = ORIENTED_EDGE ( 'NONE', *, *, #120, .F. ) ;
#221 = VERTEX_POINT ( 'NONE', #252 ) ;
#222 = CIRCLE ( 'NONE', #94, 16.00000000000000000 ) ;
#223 = ADVANCED_FACE ( 'NONE', ( #154, #296 ), #204, .T. ) ;
#224 = DIRECTION ( 'NONE',  ( 1.000000000000000000, 0.000000000000000000, 0.000000000000000000 ) ) ;
#225 = DIRECTION ( 'NONE',  ( -1.000000000000000000, 0.000000000000000000, 0.000000000000000000 ) ) ;
#226 = DIRECTION ( 'NONE',  ( -0.000000000000000000, -0.000000000000000000, -1.000000000000000000 ) ) ;
#227 = CARTESIAN_POINT ( 'NONE',  ( 0.000000000000000000, 0.000000000000000000, 10.19999999999998685 ) ) ;
#228 = ORIENTED_EDGE ( 'NONE', *, *, #5, .T. ) ;
#229 = CYLINDRICAL_SURFACE ( 'NONE', #50, 16.00000000000000000 ) ;
#230 = EDGE_CURVE ( 'NONE', #82, #292, #188, .T. ) ;
#231 = DIRECTION ( 'NONE',  ( 0.000000000000000000, -1.000000000000000000, 0.000000000000000000 ) ) ;
#232 =( NAMED_UNIT ( * ) PLANE_ANGLE_UNIT ( ) SI_UNIT ( $, .RADIAN. ) );
#233 = COORDINATED_UNIVERSAL_TIME_OFFSET ( 1, 0, .AHEAD. ) ;
#234 = CIRCLE ( 'NONE', #169, 12.50000000000000000 ) ;
#235 = DIRECTION ( 'NONE',  ( 1.000000000000000000, 0.000000000000000000, 0.000000000000000000 ) ) ;
#236 = APPROVAL_ROLE ( '' ) ;
#237 = EDGE_CURVE ( 'NONE', #82, #290, #102, .T. ) ;
#238 = CALENDAR_DATE ( 2022, 20, 6 ) ;
#239 = TOROIDAL_SURFACE ( 'NONE', #3, 12.70000000000000107, 0.2000000000000000111 ) ;
#240 = PERSON_AND_ORGANIZATION ( #142, #32 ) ;
#241 = LOCAL_TIME ( 11, 17, 44.00000000000000000, #138 ) ;
#242 = EDGE_CURVE ( 'NONE', #290, #221, #295, .T. ) ;
#243 = CIRCLE ( 'NONE', #69, 12.50000000000000000 ) ;
#244 = ADVANCED_FACE ( 'NONE', ( #54 ), #280, .T. ) ;
#245 = CIRCLE ( 'NONE', #139, 16.00000000000000000 ) ;
#246 = ORIENTED_EDGE ( 'NONE', *, *, #291, .T. ) ;
#247 = DIRECTION ( 'NONE',  ( 1.000000000000000000, 0.000000000000000000, 0.000000000000000000 ) ) ;
#248 = DIRECTION ( 'NONE',  ( 0.000000000000000000, 0.000000000000000000, 1.000000000000000000 ) ) ;
#249 = ORIENTED_EDGE ( 'NONE', *, *, #5, .F. ) ;
#250 = DIRECTION ( 'NONE',  ( 0.000000000000000000, 0.000000000000000000, 1.000000000000000000 ) ) ;
#251 = DIRECTION ( 'NONE',  ( -1.000000000000000000, 0.000000000000000000, 0.000000000000000000 ) ) ;
#252 = CARTESIAN_POINT ( 'NONE',  ( 12.70000000000000107, 0.000000000000000000, 9.999999999999992895 ) ) ;
#253 = EDGE_LOOP ( 'NONE', ( #249, #274, #265, #191 ) ) ;
#254 = AXIS2_PLACEMENT_3D ( 'NONE', #205, #231, #86 ) ;
#255 = CARTESIAN_POINT ( 'NONE',  ( 0.000000000000000000, 0.000000000000000000, 0.000000000000000000 ) ) ;
#256 = CARTESIAN_POINT ( 'NONE',  ( 0.000000000000000000, 0.000000000000000000, 10.00000000000000000 ) ) ;
#257 = CARTESIAN_POINT ( 'NONE',  ( 0.000000000000000000, 0.000000000000000000, 510.0000000000000000 ) ) ;
#258 = CARTESIAN_POINT ( 'NONE',  ( 0.000000000000000000, 0.000000000000000000, 0.000000000000000000 ) ) ;
#259 = CARTESIAN_POINT ( 'NONE',  ( 0.000000000000000000, 0.000000000000000000, 10.00000000000000000 ) ) ;
#260 = AXIS2_PLACEMENT_3D ( 'NONE', #255, #20, #212 ) ;
#261 = DATE_TIME_ROLE ( 'classification_date' ) ;
#262 = CIRCLE ( 'NONE', #196, 16.00000000000000000 ) ;
#263 = PERSON_AND_ORGANIZATION ( #142, #32 ) ;
#264 = EDGE_CURVE ( 'NONE', #119, #2, #245, .T. ) ;
#265 = ORIENTED_EDGE ( 'NONE', *, *, #46, .T. ) ;
#266 = APPLICATION_CONTEXT ( 'configuration controlled 3d designs of mechanical parts and assemblies' ) ;
#267 = CARTESIAN_POINT ( 'NONE',  ( 0.000000000000000000, 0.000000000000000000, 510.0000000000000000 ) ) ;
#268 = ADVANCED_FACE ( 'NONE', ( #277 ), #229, .T. ) ;
#269 = CYLINDRICAL_SURFACE ( 'NONE', #192, 16.00000000000000000 ) ;
#270 = VECTOR ( 'NONE', #13, 1000.000000000000000 ) ;
#271 = DIRECTION ( 'NONE',  ( 1.000000000000000000, 0.000000000000000000, -0.000000000000000000 ) ) ;
#272 = CYLINDRICAL_SURFACE ( 'NONE', #79, 12.50000000000000000 ) ;
#273 = DIRECTION ( 'NONE',  ( 1.000000000000000000, 0.000000000000000000, 0.000000000000000000 ) ) ;
#274 = ORIENTED_EDGE ( 'NONE', *, *, #187, .F. ) ;
#275 = DIRECTION ( 'NONE',  ( 1.000000000000000000, 0.000000000000000000, 0.000000000000000000 ) ) ;
#276 = LINE ( 'NONE', #177, #149 ) ;
#277 = FACE_OUTER_BOUND ( 'NONE', #253, .T. ) ;
#278 = CARTESIAN_POINT ( 'NONE',  ( 0.000000000000000000, 0.000000000000000000, 10.19999999999998685 ) ) ;
#279 = APPROVAL_PERSON_ORGANIZATION ( #189, #153, #95 ) ;
#280 = CYLINDRICAL_SURFACE ( 'NONE', #168, 12.50000000000000000 ) ;
#281 = CC_DESIGN_PERSON_AND_ORGANIZATION_ASSIGNMENT ( #263, #21, ( #44 ) ) ;
#282 = DIRECTION ( 'NONE',  ( 1.000000000000000000, 0.000000000000000000, 0.000000000000000000 ) ) ;
#283 = DATE_AND_TIME ( #140, #99 ) ;
#284 = CALENDAR_DATE ( 2022, 20, 6 ) ;
#285 = SHAPE_DEFINITION_REPRESENTATION ( #193, #85 ) ;
#286 = COORDINATED_UNIVERSAL_TIME_OFFSET ( 1, 0, .AHEAD. ) ;
#287 = ORIENTED_EDGE ( 'NONE', *, *, #237, .T. ) ;
#288 = ORIENTED_EDGE ( 'NONE', *, *, #237, .F. ) ;
#289 = EDGE_LOOP ( 'NONE', ( #123, #287, #172, #4 ) ) ;
#290 = VERTEX_POINT ( 'NONE', #299 ) ;
#291 = EDGE_CURVE ( 'NONE', #292, #82, #160, .T. ) ;
#292 = VERTEX_POINT ( 'NONE', #77 ) ;
#293 = DIRECTION ( 'NONE',  ( -0.000000000000000000, -0.000000000000000000, -1.000000000000000000 ) ) ;
#294 = ORIENTED_EDGE ( 'NONE', *, *, #291, .F. ) ;
#295 = CIRCLE ( 'NONE', #66, 12.70000000000000107 ) ;
#296 = FACE_OUTER_BOUND ( 'NONE', #106, .T. ) ;
#297 = EDGE_CURVE ( 'NONE', #176, #70, #262, .T. ) ;
#298 = ORIENTED_EDGE ( 'NONE', *, *, #9, .T. ) ;
#299 = CARTESIAN_POINT ( 'NONE',  ( -12.70000000000000107, 1.555301434917138630E-15, 9.999999999999992895 ) ) ;
#300 = ORIENTED_EDGE ( 'NONE', *, *, #297, .F. ) ;
#301 = APPLICATION_PROTOCOL_DEFINITION ( 'international standard', 'config_control_design', 1994, #64 ) ;
#302 = FACE_OUTER_BOUND ( 'NONE', #84, .T. ) ;
#303 = CARTESIAN_POINT ( 'NONE',  ( 0.000000000000000000, 0.000000000000000000, 510.0000000000000000 ) ) ;
#304 = DIRECTION ( 'NONE',  ( 0.000000000000000000, 0.000000000000000000, 1.000000000000000000 ) ) ;
#305 = DATE_AND_TIME ( #216, #241 ) ;
#306 = PERSON_AND_ORGANIZATION ( #142, #32 ) ;
#307 = EDGE_CURVE ( 'NONE', #70, #176, #222, .T. ) ;
ENDSEC;
END-ISO-10303-21;
