ISO-10303-21;
HEADER;
FILE_DESCRIPTION (( 'STEP AP203' ),
    '1' );
FILE_NAME ('b37c.STEP',
    '2022-06-20T09:29:00',
    ( '' ),
    ( '' ),
    'SwSTEP 2.0',
    'SolidWorks 2019',
    '' );
FILE_SCHEMA (( 'CONFIG_CONTROL_DESIGN' ));
ENDSEC;

DATA;
#1 = CARTESIAN_POINT ( 'NONE',  ( 0.000000000000000000, 0.000000000000000000, 0.000000000000000000 ) ) ;
#2 = CIRCLE ( 'NONE', #83, 6.250000000000000000 ) ;
#3 = ADVANCED_FACE ( 'NONE', ( #201 ), #257, .F. ) ;
#4 = LOCAL_TIME ( 11, 29, 0.000000000000000000, #14 ) ;
#5 = EDGE_LOOP ( 'NONE', ( #185, #211, #298, #237 ) ) ;
#6 = AXIS2_PLACEMENT_3D ( 'NONE', #27, #193, #303 ) ;
#7 = PERSON_AND_ORGANIZATION_ROLE ( 'design_owner' ) ;
#8 = FACE_OUTER_BOUND ( 'NONE', #24, .T. ) ;
#9 = PERSON_AND_ORGANIZATION ( #138, #277 ) ;
#10 = COORDINATED_UNIVERSAL_TIME_OFFSET ( 1, 0, .AHEAD. ) ;
#11 = EDGE_CURVE ( 'NONE', #116, #210, #2, .T. ) ;
#12 = SHAPE_DEFINITION_REPRESENTATION ( #85, #154 ) ;
#13 = ADVANCED_FACE ( 'NONE', ( #8 ), #131, .T. ) ;
#14 = COORDINATED_UNIVERSAL_TIME_OFFSET ( 1, 0, .AHEAD. ) ;
#15 = LOCAL_TIME ( 11, 29, 0.000000000000000000, #105 ) ;
#16 = ORIENTED_EDGE ( 'NONE', *, *, #125, .T. ) ;
#17 = CIRCLE ( 'NONE', #6, 6.450000000000000178 ) ;
#18 = EDGE_CURVE ( 'NONE', #116, #129, #283, .T. ) ;
#19 = CC_DESIGN_APPROVAL ( #109, ( #268 ) ) ;
#20 = ORIENTED_EDGE ( 'NONE', *, *, #58, .T. ) ;
#21 = CARTESIAN_POINT ( 'NONE',  ( 6.250000000000000000, 7.654042494670957606E-16, 132.0000000000000000 ) ) ;
#22 = DIRECTION ( 'NONE',  ( -0.000000000000000000, -0.000000000000000000, -1.000000000000000000 ) ) ;
#23 = CIRCLE ( 'NONE', #199, 9.000000000000000000 ) ;
#24 = EDGE_LOOP ( 'NONE', ( #28, #194, #114, #87 ) ) ;
#25 = DIRECTION ( 'NONE',  ( 1.000000000000000000, 0.000000000000000000, 0.000000000000000000 ) ) ;
#26 = DIRECTION ( 'NONE',  ( 0.000000000000000000, 0.000000000000000000, 1.000000000000000000 ) ) ;
#27 = CARTESIAN_POINT ( 'NONE',  ( 0.000000000000000000, 0.000000000000000000, 7.000000000000000000 ) ) ;
#28 = ORIENTED_EDGE ( 'NONE', *, *, #125, .F. ) ;
#29 = CYLINDRICAL_SURFACE ( 'NONE', #188, 9.000000000000000000 ) ;
#30 = ORIENTED_EDGE ( 'NONE', *, *, #58, .F. ) ;
#31 =( GEOMETRIC_REPRESENTATION_CONTEXT ( 3 ) GLOBAL_UNCERTAINTY_ASSIGNED_CONTEXT ( ( #38 ) ) GLOBAL_UNIT_ASSIGNED_CONTEXT ( ( #79, #251, #81 ) ) REPRESENTATION_CONTEXT ( 'NONE', 'WORKASPACE' ) );
#32 = CALENDAR_DATE ( 2022, 20, 6 ) ;
#33 = EDGE_CURVE ( 'NONE', #65, #84, #304, .T. ) ;
#34 = DIRECTION ( 'NONE',  ( 0.000000000000000000, 0.000000000000000000, 1.000000000000000000 ) ) ;
#35 = APPROVAL_ROLE ( '' ) ;
#36 = PERSON_AND_ORGANIZATION_ROLE ( 'creator' ) ;
#37 = ADVANCED_FACE ( 'NONE', ( #147, #276 ), #196, .T. ) ;
#38 = UNCERTAINTY_MEASURE_WITH_UNIT (LENGTH_MEASURE( 1.000000000000000082E-05 ), #79, 'distance_accuracy_value', 'NONE');
#39 = APPLICATION_CONTEXT ( 'configuration controlled 3d designs of mechanical parts and assemblies' ) ;
#40 = AXIS2_PLACEMENT_3D ( 'NONE', #170, #121, #88 ) ;
#41 = PLANE ( 'NONE',  #167 ) ;
#42 = VECTOR ( 'NONE', #106, 1000.000000000000000 ) ;
#43 = CARTESIAN_POINT ( 'NONE',  ( 0.000000000000000000, 0.000000000000000000, 132.0000000000000000 ) ) ;
#44 = CARTESIAN_POINT ( 'NONE',  ( 6.450000000000000178, 0.000000000000000000, 7.199999999999998401 ) ) ;
#45 = CARTESIAN_POINT ( 'NONE',  ( 0.000000000000000000, 0.000000000000000000, 132.0000000000000000 ) ) ;
#46 = PRODUCT_RELATED_PRODUCT_CATEGORY ( 'detail', '', ( #183 ) ) ;
#47 = VECTOR ( 'NONE', #260, 1000.000000000000000 ) ;
#48 = CARTESIAN_POINT ( 'NONE',  ( 0.000000000000000000, 0.000000000000000000, 7.199999999999998401 ) ) ;
#49 = PERSON_AND_ORGANIZATION ( #138, #277 ) ;
#50 = CARTESIAN_POINT ( 'NONE',  ( 6.250000000000000000, 7.654042494670957606E-16, 132.0000000000000000 ) ) ;
#51 = CIRCLE ( 'NONE', #91, 9.000000000000000000 ) ;
#52 = CARTESIAN_POINT ( 'NONE',  ( 0.000000000000000000, 0.000000000000000000, 7.199999999999998401 ) ) ;
#53 = DATE_TIME_ROLE ( 'creation_date' ) ;
#54 = CARTESIAN_POINT ( 'NONE',  ( 6.450000000000000178, 0.000000000000000000, 6.999999999999999112 ) ) ;
#55 = DATE_AND_TIME ( #252, #15 ) ;
#56 = DIRECTION ( 'NONE',  ( 1.000000000000000000, 0.000000000000000000, 0.000000000000000000 ) ) ;
#57 = DIRECTION ( 'NONE',  ( 0.000000000000000000, 0.000000000000000000, 1.000000000000000000 ) ) ;
#58 = EDGE_CURVE ( 'NONE', #64, #281, #117, .T. ) ;
#59 = ADVANCED_FACE ( 'NONE', ( #92 ), #180, .F. ) ;
#60 = APPROVAL_PERSON_ORGANIZATION ( #230, #109, #35 ) ;
#61 = ADVANCED_FACE ( 'NONE', ( #190 ), #29, .T. ) ;
#62 = ADVANCED_FACE ( 'NONE', ( #241 ), #41, .F. ) ;
#63 = AXIS2_PLACEMENT_3D ( 'NONE', #44, #302, #93 ) ;
#64 = VERTEX_POINT ( 'NONE', #70 ) ;
#65 = VERTEX_POINT ( 'NONE', #169 ) ;
#66 = CARTESIAN_POINT ( 'NONE',  ( 9.000000000000000000, 1.102182119232617714E-15, 0.000000000000000000 ) ) ;
#67 = CARTESIAN_POINT ( 'NONE',  ( 0.000000000000000000, 0.000000000000000000, 7.000000000000000000 ) ) ;
#68 = DIRECTION ( 'NONE',  ( 1.224646799147353207E-16, 1.000000000000000000, -0.000000000000000000 ) ) ;
#69 = ORIENTED_EDGE ( 'NONE', *, *, #178, .F. ) ;
#70 = CARTESIAN_POINT ( 'NONE',  ( -9.000000000000000000, 0.000000000000000000, 7.000000000000000000 ) ) ;
#71 = DIRECTION ( 'NONE',  ( 1.000000000000000000, 0.000000000000000000, 0.000000000000000000 ) ) ;
#72 = ORIENTED_EDGE ( 'NONE', *, *, #178, .T. ) ;
#73 = DIRECTION ( 'NONE',  ( 1.000000000000000000, 0.000000000000000000, 0.000000000000000000 ) ) ;
#74 = CLOSED_SHELL ( 'NONE', ( #3, #13, #61, #234, #37, #62, #120, #195, #59 ) ) ;
#75 = ORIENTED_EDGE ( 'NONE', *, *, #11, .F. ) ;
#76 = APPROVAL_STATUS ( 'not_yet_approved' ) ;
#77 = DIRECTION ( 'NONE',  ( 0.000000000000000000, 0.000000000000000000, 1.000000000000000000 ) ) ;
#78 = PERSON_AND_ORGANIZATION_ROLE ( 'creator' ) ;
#79 =( LENGTH_UNIT ( ) NAMED_UNIT ( * ) SI_UNIT ( .MILLI., .METRE. ) );
#80 = APPROVAL_STATUS ( 'not_yet_approved' ) ;
#81 =( NAMED_UNIT ( * ) SI_UNIT ( $, .STERADIAN. ) SOLID_ANGLE_UNIT ( ) );
#82 = CC_DESIGN_PERSON_AND_ORGANIZATION_ASSIGNMENT ( #134, #7, ( #183 ) ) ;
#83 = AXIS2_PLACEMENT_3D ( 'NONE', #48, #34, #248 ) ;
#84 = VERTEX_POINT ( 'NONE', #21 ) ;
#85 = PRODUCT_DEFINITION_SHAPE ( 'NONE', 'NONE',  #140 ) ;
#86 = EDGE_LOOP ( 'NONE', ( #127, #30, #181, #72 ) ) ;
#87 = ORIENTED_EDGE ( 'NONE', *, *, #203, .F. ) ;
#88 = DIRECTION ( 'NONE',  ( 1.000000000000000000, 0.000000000000000000, 0.000000000000000000 ) ) ;
#89 = CC_DESIGN_PERSON_AND_ORGANIZATION_ASSIGNMENT ( #155, #78, ( #207 ) ) ;
#90 = CARTESIAN_POINT ( 'NONE',  ( 0.000000000000000000, 0.000000000000000000, 7.000000000000000000 ) ) ;
#91 = AXIS2_PLACEMENT_3D ( 'NONE', #1, #261, #123 ) ;
#92 = FACE_OUTER_BOUND ( 'NONE', #122, .T. ) ;
#93 = DIRECTION ( 'NONE',  ( 0.000000000000000000, 0.000000000000000000, -1.000000000000000000 ) ) ;
#94 = EDGE_CURVE ( 'NONE', #197, #192, #51, .T. ) ;
#95 = DIRECTION ( 'NONE',  ( 0.000000000000000000, 0.000000000000000000, 1.000000000000000000 ) ) ;
#96 = ORIENTED_EDGE ( 'NONE', *, *, #203, .T. ) ;
#97 = AXIS2_PLACEMENT_3D ( 'NONE', #218, #171, #146 ) ;
#98 = ORIENTED_EDGE ( 'NONE', *, *, #175, .T. ) ;
#99 = ORIENTED_EDGE ( 'NONE', *, *, #94, .F. ) ;
#100 = CALENDAR_DATE ( 2022, 20, 6 ) ;
#101 = CARTESIAN_POINT ( 'NONE',  ( 9.000000000000000000, 1.102182119232617714E-15, 7.000000000000000000 ) ) ;
#102 = CALENDAR_DATE ( 2022, 20, 6 ) ;
#103 = APPLICATION_PROTOCOL_DEFINITION ( 'international standard', 'config_control_design', 1994, #39 ) ;
#104 = LOCAL_TIME ( 11, 29, 0.000000000000000000, #179 ) ;
#105 = COORDINATED_UNIVERSAL_TIME_OFFSET ( 1, 0, .AHEAD. ) ;
#106 = DIRECTION ( 'NONE',  ( -0.000000000000000000, -0.000000000000000000, -1.000000000000000000 ) ) ;
#107 = VECTOR ( 'NONE', #177, 1000.000000000000000 ) ;
#108 = APPLICATION_CONTEXT ( 'configuration controlled 3d designs of mechanical parts and assemblies' ) ;
#109 = APPROVAL ( #76, 'NEURÈENÝ' ) ;
#110 = AXIS2_PLACEMENT_3D ( 'NONE', #217, #128, #73 ) ;
#111 = CIRCLE ( 'NONE', #162, 6.250000000000000000 ) ;
#112 = CARTESIAN_POINT ( 'NONE',  ( 0.000000000000000000, 0.000000000000000000, 0.000000000000000000 ) ) ;
#113 = CC_DESIGN_APPROVAL ( #259, ( #140 ) ) ;
#114 = ORIENTED_EDGE ( 'NONE', *, *, #300, .T. ) ;
#115 = DESIGN_CONTEXT ( 'detailed design', #108, 'design' ) ;
#116 = VERTEX_POINT ( 'NONE', #306 ) ;
#117 = CIRCLE ( 'NONE', #235, 9.000000000000000000 ) ;
#118 = ORIENTED_EDGE ( 'NONE', *, *, #275, .T. ) ;
#119 = DIRECTION ( 'NONE',  ( -1.000000000000000000, 0.000000000000000000, 0.000000000000000000 ) ) ;
#120 = ADVANCED_FACE ( 'NONE', ( #240 ), #166, .T. ) ;
#121 = DIRECTION ( 'NONE',  ( 0.000000000000000000, 0.000000000000000000, 1.000000000000000000 ) ) ;
#122 = EDGE_LOOP ( 'NONE', ( #184, #279, #98, #172 ) ) ;
#123 = DIRECTION ( 'NONE',  ( 1.000000000000000000, 0.000000000000000000, 0.000000000000000000 ) ) ;
#124 = EDGE_CURVE ( 'NONE', #274, #129, #17, .T. ) ;
#125 = EDGE_CURVE ( 'NONE', #84, #65, #111, .T. ) ;
#126 = DIRECTION ( 'NONE',  ( 0.000000000000000000, 0.000000000000000000, 1.000000000000000000 ) ) ;
#127 = ORIENTED_EDGE ( 'NONE', *, *, #236, .F. ) ;
#128 = DIRECTION ( 'NONE',  ( 0.000000000000000000, 0.000000000000000000, 1.000000000000000000 ) ) ;
#129 = VERTEX_POINT ( 'NONE', #144 ) ;
#130 = AXIS2_PLACEMENT_3D ( 'NONE', #112, #156, #56 ) ;
#131 = CYLINDRICAL_SURFACE ( 'NONE', #231, 6.250000000000000000 ) ;
#132 = PERSON_AND_ORGANIZATION_ROLE ( 'design_supplier' ) ;
#133 = APPROVAL_ROLE ( '' ) ;
#134 = PERSON_AND_ORGANIZATION ( #138, #277 ) ;
#135 = PERSON_AND_ORGANIZATION ( #138, #277 ) ;
#136 = APPROVAL_STATUS ( 'not_yet_approved' ) ;
#137 = AXIS2_PLACEMENT_3D ( 'NONE', #287, #26, #71 ) ;
#138 = PERSON ( 'NEURÈENÝ', 'NEURÈENÝ', 'NEURÈENÝ', ('NEURÈENÝ'), ('NEURÈENÝ'), ('NEURÈENÝ') ) ;
#139 = ORIENTED_EDGE ( 'NONE', *, *, #175, .F. ) ;
#140 = PRODUCT_DEFINITION ( 'NEZNÁMÝ', '', #207, #115 ) ;
#141 = APPROVAL_PERSON_ORGANIZATION ( #270, #259, #229 ) ;
#142 = AXIS2_PLACEMENT_3D ( 'NONE', #205, #297, #227 ) ;
#143 = PLANE ( 'NONE',  #149 ) ;
#144 = CARTESIAN_POINT ( 'NONE',  ( -6.450000000000000178, 7.898971854500428692E-16, 6.999999999999999112 ) ) ;
#145 = DIRECTION ( 'NONE',  ( 1.000000000000000000, 0.000000000000000000, 0.000000000000000000 ) ) ;
#146 = DIRECTION ( 'NONE',  ( 1.000000000000000000, 0.000000000000000000, -0.000000000000000000 ) ) ;
#147 = FACE_BOUND ( 'NONE', #208, .T. ) ;
#148 = CARTESIAN_POINT ( 'NONE',  ( 0.000000000000000000, 0.000000000000000000, 7.000000000000000000 ) ) ;
#149 = AXIS2_PLACEMENT_3D ( 'NONE', #45, #288, #212 ) ;
#150 = APPROVAL ( #80, 'NEURÈENÝ' ) ;
#151 = DIRECTION ( 'NONE',  ( 1.000000000000000000, 0.000000000000000000, 0.000000000000000000 ) ) ;
#152 = APPROVAL_DATE_TIME ( #55, #150 ) ;
#153 = LINE ( 'NONE', #101, #107 ) ;
#154 = ADVANCED_BREP_SHAPE_REPRESENTATION ( 'b37c', ( #258, #130 ), #31 ) ;
#155 = PERSON_AND_ORGANIZATION ( #138, #277 ) ;
#156 = DIRECTION ( 'NONE',  ( 0.000000000000000000, 0.000000000000000000, 1.000000000000000000 ) ) ;
#157 = EDGE_CURVE ( 'NONE', #281, #64, #23, .T. ) ;
#158 = DATE_AND_TIME ( #102, #104 ) ;
#159 = CARTESIAN_POINT ( 'NONE',  ( -9.000000000000000000, 0.000000000000000000, 7.000000000000000000 ) ) ;
#160 = MECHANICAL_CONTEXT ( 'NONE', #39, 'mechanical' ) ;
#161 = CIRCLE ( 'NONE', #202, 6.250000000000000000 ) ;
#162 = AXIS2_PLACEMENT_3D ( 'NONE', #221, #126, #25 ) ;
#163 = CC_DESIGN_SECURITY_CLASSIFICATION ( #268, ( #207 ) ) ;
#164 = CC_DESIGN_DATE_AND_TIME_ASSIGNMENT ( #291, #250, ( #268 ) ) ;
#165 = ORIENTED_EDGE ( 'NONE', *, *, #124, .T. ) ;
#166 = CYLINDRICAL_SURFACE ( 'NONE', #176, 6.250000000000000000 ) ;
#167 = AXIS2_PLACEMENT_3D ( 'NONE', #263, #245, #187 ) ;
#168 = LOCAL_TIME ( 11, 29, 0.000000000000000000, #10 ) ;
#169 = CARTESIAN_POINT ( 'NONE',  ( -6.250000000000000000, 0.000000000000000000, 132.0000000000000000 ) ) ;
#170 = CARTESIAN_POINT ( 'NONE',  ( 0.000000000000000000, 0.000000000000000000, 7.199999999999998401 ) ) ;
#171 = DIRECTION ( 'NONE',  ( 0.000000000000000000, 0.000000000000000000, 1.000000000000000000 ) ) ;
#172 = ORIENTED_EDGE ( 'NONE', *, *, #275, .F. ) ;
#173 = CARTESIAN_POINT ( 'NONE',  ( -6.250000000000000000, 0.000000000000000000, 132.0000000000000000 ) ) ;
#174 = ORIENTED_EDGE ( 'NONE', *, *, #285, .F. ) ;
#175 = EDGE_CURVE ( 'NONE', #210, #274, #239, .T. ) ;
#176 = AXIS2_PLACEMENT_3D ( 'NONE', #43, #305, #119 ) ;
#177 = DIRECTION ( 'NONE',  ( -0.000000000000000000, -0.000000000000000000, -1.000000000000000000 ) ) ;
#178 = EDGE_CURVE ( 'NONE', #192, #197, #246, .T. ) ;
#179 = COORDINATED_UNIVERSAL_TIME_OFFSET ( 1, 0, .AHEAD. ) ;
#180 = TOROIDAL_SURFACE ( 'NONE', #40, 6.450000000000000178, 0.2000000000000000111 ) ;
#181 = ORIENTED_EDGE ( 'NONE', *, *, #295, .T. ) ;
#182 = ORIENTED_EDGE ( 'NONE', *, *, #33, .T. ) ;
#183 = PRODUCT ( 'b37c', 'b37c', '', ( #160 ) ) ;
#184 = ORIENTED_EDGE ( 'NONE', *, *, #18, .F. ) ;
#185 = ORIENTED_EDGE ( 'NONE', *, *, #157, .F. ) ;
#186 = FACE_OUTER_BOUND ( 'NONE', #209, .T. ) ;
#187 = DIRECTION ( 'NONE',  ( 1.000000000000000000, 0.000000000000000000, -0.000000000000000000 ) ) ;
#188 = AXIS2_PLACEMENT_3D ( 'NONE', #67, #286, #215 ) ;
#189 = DIRECTION ( 'NONE',  ( 1.000000000000000000, 0.000000000000000000, 0.000000000000000000 ) ) ;
#190 = FACE_OUTER_BOUND ( 'NONE', #5, .T. ) ;
#191 = DIRECTION ( 'NONE',  ( -0.000000000000000000, -0.000000000000000000, -1.000000000000000000 ) ) ;
#192 = VERTEX_POINT ( 'NONE', #282 ) ;
#193 = DIRECTION ( 'NONE',  ( -0.000000000000000000, -0.000000000000000000, -1.000000000000000000 ) ) ;
#194 = ORIENTED_EDGE ( 'NONE', *, *, #285, .T. ) ;
#195 = ADVANCED_FACE ( 'NONE', ( #186 ), #143, .T. ) ;
#196 = PLANE ( 'NONE',  #97 ) ;
#197 = VERTEX_POINT ( 'NONE', #66 ) ;
#198 = APPLICATION_PROTOCOL_DEFINITION ( 'international standard', 'config_control_design', 1994, #108 ) ;
#199 = AXIS2_PLACEMENT_3D ( 'NONE', #90, #95, #145 ) ;
#200 = LINE ( 'NONE', #50, #42 ) ;
#201 = FACE_OUTER_BOUND ( 'NONE', #244, .T. ) ;
#202 = AXIS2_PLACEMENT_3D ( 'NONE', #253, #57, #292 ) ;
#203 = EDGE_CURVE ( 'NONE', #65, #116, #284, .T. ) ;
#204 = LINE ( 'NONE', #159, #247 ) ;
#205 = CARTESIAN_POINT ( 'NONE',  ( 0.000000000000000000, 0.000000000000000000, 7.000000000000000000 ) ) ;
#206 = CC_DESIGN_PERSON_AND_ORGANIZATION_ASSIGNMENT ( #255, #36, ( #140 ) ) ;
#207 = PRODUCT_DEFINITION_FORMATION_WITH_SPECIFIED_SOURCE ( 'LIBOVOLNÝ', '', #183, .NOT_KNOWN. ) ;
#208 = EDGE_LOOP ( 'NONE', ( #165, #118 ) ) ;
#209 = EDGE_LOOP ( 'NONE', ( #182, #16 ) ) ;
#210 = VERTEX_POINT ( 'NONE', #265 ) ;
#211 = ORIENTED_EDGE ( 'NONE', *, *, #236, .T. ) ;
#212 = DIRECTION ( 'NONE',  ( 1.000000000000000000, 0.000000000000000000, -0.000000000000000000 ) ) ;
#213 = FACE_OUTER_BOUND ( 'NONE', #86, .T. ) ;
#214 = ORIENTED_EDGE ( 'NONE', *, *, #33, .F. ) ;
#215 = DIRECTION ( 'NONE',  ( -1.000000000000000000, 0.000000000000000000, 0.000000000000000000 ) ) ;
#216 = CARTESIAN_POINT ( 'NONE',  ( 0.000000000000000000, 0.000000000000000000, 132.0000000000000000 ) ) ;
#217 = CARTESIAN_POINT ( 'NONE',  ( 0.000000000000000000, 0.000000000000000000, 0.000000000000000000 ) ) ;
#218 = CARTESIAN_POINT ( 'NONE',  ( 0.000000000000000000, 0.000000000000000000, 7.000000000000000000 ) ) ;
#219 = CC_DESIGN_PERSON_AND_ORGANIZATION_ASSIGNMENT ( #9, #226, ( #268 ) ) ;
#220 = CARTESIAN_POINT ( 'NONE',  ( -6.450000000000000178, 7.898971854500428692E-16, 7.199999999999998401 ) ) ;
#221 = CARTESIAN_POINT ( 'NONE',  ( 0.000000000000000000, 0.000000000000000000, 132.0000000000000000 ) ) ;
#222 = ORIENTED_EDGE ( 'NONE', *, *, #157, .T. ) ;
#223 = SECURITY_CLASSIFICATION_LEVEL ( 'unclassified' ) ;
#224 = APPROVAL_PERSON_ORGANIZATION ( #49, #150, #133 ) ;
#225 = DIRECTION ( 'NONE',  ( -1.000000000000000000, 0.000000000000000000, 0.000000000000000000 ) ) ;
#226 = PERSON_AND_ORGANIZATION_ROLE ( 'classification_officer' ) ;
#227 = DIRECTION ( 'NONE',  ( 1.000000000000000000, 0.000000000000000000, 0.000000000000000000 ) ) ;
#228 = DATE_AND_TIME ( #100, #4 ) ;
#229 = APPROVAL_ROLE ( '' ) ;
#230 = PERSON_AND_ORGANIZATION ( #138, #277 ) ;
#231 = AXIS2_PLACEMENT_3D ( 'NONE', #216, #191, #264 ) ;
#232 = DATE_AND_TIME ( #269, #168 ) ;
#233 = DIRECTION ( 'NONE',  ( -0.000000000000000000, -0.000000000000000000, -1.000000000000000000 ) ) ;
#234 = ADVANCED_FACE ( 'NONE', ( #213 ), #238, .T. ) ;
#235 = AXIS2_PLACEMENT_3D ( 'NONE', #243, #307, #189 ) ;
#236 = EDGE_CURVE ( 'NONE', #281, #197, #153, .T. ) ;
#237 = ORIENTED_EDGE ( 'NONE', *, *, #295, .F. ) ;
#238 = CYLINDRICAL_SURFACE ( 'NONE', #294, 9.000000000000000000 ) ;
#239 = CIRCLE ( 'NONE', #63, 0.1999999999999996503 ) ;
#240 = FACE_OUTER_BOUND ( 'NONE', #301, .T. ) ;
#241 = FACE_OUTER_BOUND ( 'NONE', #267, .T. ) ;
#242 = CC_DESIGN_APPROVAL ( #150, ( #207 ) ) ;
#243 = CARTESIAN_POINT ( 'NONE',  ( 0.000000000000000000, 0.000000000000000000, 7.000000000000000000 ) ) ;
#244 = EDGE_LOOP ( 'NONE', ( #75, #266, #290, #139 ) ) ;
#245 = DIRECTION ( 'NONE',  ( 0.000000000000000000, 0.000000000000000000, 1.000000000000000000 ) ) ;
#246 = CIRCLE ( 'NONE', #110, 9.000000000000000000 ) ;
#247 = VECTOR ( 'NONE', #233, 1000.000000000000000 ) ;
#248 = DIRECTION ( 'NONE',  ( 1.000000000000000000, 0.000000000000000000, 0.000000000000000000 ) ) ;
#249 = COORDINATED_UNIVERSAL_TIME_OFFSET ( 1, 0, .AHEAD. ) ;
#250 = DATE_TIME_ROLE ( 'classification_date' ) ;
#251 =( NAMED_UNIT ( * ) PLANE_ANGLE_UNIT ( ) SI_UNIT ( $, .RADIAN. ) );
#252 = CALENDAR_DATE ( 2022, 20, 6 ) ;
#253 = CARTESIAN_POINT ( 'NONE',  ( 0.000000000000000000, 0.000000000000000000, 7.199999999999998401 ) ) ;
#254 = AXIS2_PLACEMENT_3D ( 'NONE', #220, #68, #262 ) ;
#255 = PERSON_AND_ORGANIZATION ( #138, #277 ) ;
#256 = LOCAL_TIME ( 11, 29, 0.000000000000000000, #249 ) ;
#257 = TOROIDAL_SURFACE ( 'NONE', #273, 6.450000000000000178, 0.2000000000000000111 ) ;
#258 = MANIFOLD_SOLID_BREP ( 'Zaoblit1', #74 ) ;
#259 = APPROVAL ( #136, 'NEURÈENÝ' ) ;
#260 = DIRECTION ( 'NONE',  ( -0.000000000000000000, -0.000000000000000000, -1.000000000000000000 ) ) ;
#261 = DIRECTION ( 'NONE',  ( 0.000000000000000000, 0.000000000000000000, 1.000000000000000000 ) ) ;
#262 = DIRECTION ( 'NONE',  ( -1.000000000000000000, 1.224646799147353454E-16, 0.000000000000000000 ) ) ;
#263 = CARTESIAN_POINT ( 'NONE',  ( 0.000000000000000000, 0.000000000000000000, 0.000000000000000000 ) ) ;
#264 = DIRECTION ( 'NONE',  ( -1.000000000000000000, 0.000000000000000000, 0.000000000000000000 ) ) ;
#265 = CARTESIAN_POINT ( 'NONE',  ( 6.250000000000000000, 7.654042494670957606E-16, 7.199999999999998401 ) ) ;
#266 = ORIENTED_EDGE ( 'NONE', *, *, #18, .T. ) ;
#267 = EDGE_LOOP ( 'NONE', ( #69, #99 ) ) ;
#268 = SECURITY_CLASSIFICATION ( '', '', #223 ) ;
#269 = CALENDAR_DATE ( 2022, 20, 6 ) ;
#270 = PERSON_AND_ORGANIZATION ( #138, #277 ) ;
#271 = CC_DESIGN_DATE_AND_TIME_ASSIGNMENT ( #228, #53, ( #140 ) ) ;
#272 = APPROVAL_DATE_TIME ( #232, #259 ) ;
#273 = AXIS2_PLACEMENT_3D ( 'NONE', #52, #77, #151 ) ;
#274 = VERTEX_POINT ( 'NONE', #54 ) ;
#275 = EDGE_CURVE ( 'NONE', #129, #274, #278, .T. ) ;
#276 = FACE_OUTER_BOUND ( 'NONE', #289, .T. ) ;
#277 = ORGANIZATION ( 'NEURÈENÝ', 'NEURÈENÝ', '' ) ;
#278 = CIRCLE ( 'NONE', #142, 6.450000000000000178 ) ;
#279 = ORIENTED_EDGE ( 'NONE', *, *, #300, .F. ) ;
#280 = CC_DESIGN_PERSON_AND_ORGANIZATION_ASSIGNMENT ( #135, #132, ( #207 ) ) ;
#281 = VERTEX_POINT ( 'NONE', #293 ) ;
#282 = CARTESIAN_POINT ( 'NONE',  ( -9.000000000000000000, 0.000000000000000000, 0.000000000000000000 ) ) ;
#283 = CIRCLE ( 'NONE', #254, 0.1999999999999996503 ) ;
#284 = LINE ( 'NONE', #173, #47 ) ;
#285 = EDGE_CURVE ( 'NONE', #84, #210, #200, .T. ) ;
#286 = DIRECTION ( 'NONE',  ( -0.000000000000000000, -0.000000000000000000, -1.000000000000000000 ) ) ;
#287 = CARTESIAN_POINT ( 'NONE',  ( 0.000000000000000000, 0.000000000000000000, 132.0000000000000000 ) ) ;
#288 = DIRECTION ( 'NONE',  ( 0.000000000000000000, 0.000000000000000000, 1.000000000000000000 ) ) ;
#289 = EDGE_LOOP ( 'NONE', ( #20, #222 ) ) ;
#290 = ORIENTED_EDGE ( 'NONE', *, *, #124, .F. ) ;
#291 = DATE_AND_TIME ( #32, #256 ) ;
#292 = DIRECTION ( 'NONE',  ( 1.000000000000000000, 0.000000000000000000, 0.000000000000000000 ) ) ;
#293 = CARTESIAN_POINT ( 'NONE',  ( 9.000000000000000000, 1.102182119232617714E-15, 7.000000000000000000 ) ) ;
#294 = AXIS2_PLACEMENT_3D ( 'NONE', #148, #22, #225 ) ;
#295 = EDGE_CURVE ( 'NONE', #64, #192, #204, .T. ) ;
#296 = APPROVAL_DATE_TIME ( #158, #109 ) ;
#297 = DIRECTION ( 'NONE',  ( -0.000000000000000000, -0.000000000000000000, -1.000000000000000000 ) ) ;
#298 = ORIENTED_EDGE ( 'NONE', *, *, #94, .T. ) ;
#299 = ORIENTED_EDGE ( 'NONE', *, *, #11, .T. ) ;
#300 = EDGE_CURVE ( 'NONE', #210, #116, #161, .T. ) ;
#301 = EDGE_LOOP ( 'NONE', ( #174, #214, #96, #299 ) ) ;
#302 = DIRECTION ( 'NONE',  ( 0.000000000000000000, -1.000000000000000000, 0.000000000000000000 ) ) ;
#303 = DIRECTION ( 'NONE',  ( 1.000000000000000000, 0.000000000000000000, 0.000000000000000000 ) ) ;
#304 = CIRCLE ( 'NONE', #137, 6.250000000000000000 ) ;
#305 = DIRECTION ( 'NONE',  ( -0.000000000000000000, -0.000000000000000000, -1.000000000000000000 ) ) ;
#306 = CARTESIAN_POINT ( 'NONE',  ( -6.250000000000000000, 0.000000000000000000, 7.199999999999998401 ) ) ;
#307 = DIRECTION ( 'NONE',  ( 0.000000000000000000, 0.000000000000000000, 1.000000000000000000 ) ) ;
ENDSEC;
END-ISO-10303-21;
