ISO-10303-21;
HEADER;
FILE_DESCRIPTION (( 'STEP AP203' ),
    '1' );
FILE_NAME ('b0b2.STEP',
    '2023-02-13T08:58:24',
    ( '' ),
    ( '' ),
    'SwSTEP 2.0',
    'SolidWorks 2019',
    '' );
FILE_SCHEMA (( 'CONFIG_CONTROL_DESIGN' ));
ENDSEC;

DATA;
#1 = DIRECTION ( 'NONE',  ( 0.000000000000000000, 0.000000000000000000, 1.000000000000000000 ) ) ;
#2 = AXIS2_PLACEMENT_3D ( 'NONE', #86, #203, #149 ) ;
#3 = ORIENTED_EDGE ( 'NONE', *, *, #184, .T. ) ;
#4 = AXIS2_PLACEMENT_3D ( 'NONE', #352, #96, #128 ) ;
#5 = VERTEX_POINT ( 'NONE', #62 ) ;
#6 = ORIENTED_EDGE ( 'NONE', *, *, #144, .F. ) ;
#7 = EDGE_CURVE ( 'NONE', #288, #83, #63, .T. ) ;
#8 = FACE_BOUND ( 'NONE', #304, .T. ) ;
#9 = APPROVAL_ROLE ( '' ) ;
#10 = DIRECTION ( 'NONE',  ( 1.000000000000000000, 0.000000000000000000, 0.000000000000000000 ) ) ;
#11 = EDGE_CURVE ( 'NONE', #288, #240, #71, .T. ) ;
#12 = EDGE_LOOP ( 'NONE', ( #311, #332 ) ) ;
#13 = PERSON_AND_ORGANIZATION ( #163, #233 ) ;
#14 = DIRECTION ( 'NONE',  ( 0.000000000000000000, 0.000000000000000000, -1.000000000000000000 ) ) ;
#15 = DIRECTION ( 'NONE',  ( -0.000000000000000000, -0.000000000000000000, 1.000000000000000000 ) ) ;
#16 = PERSON_AND_ORGANIZATION ( #163, #233 ) ;
#17 = DATE_AND_TIME ( #209, #314 ) ;
#18 = CIRCLE ( 'NONE', #58, 1.000000000000000000 ) ;
#19 = CIRCLE ( 'NONE', #308, 3.000000000000000000 ) ;
#20 = CYLINDRICAL_SURFACE ( 'NONE', #276, 3.000000000000000000 ) ;
#21 = EDGE_CURVE ( 'NONE', #258, #167, #132, .T. ) ;
#22 = CARTESIAN_POINT ( 'NONE',  ( -3.000000000000000000, 3.673940397442059868E-16, -3.000000000000000444 ) ) ;
#23 = APPLICATION_CONTEXT ( 'configuration controlled 3d designs of mechanical parts and assemblies' ) ;
#24 = DIRECTION ( 'NONE',  ( -0.000000000000000000, -0.000000000000000000, 1.000000000000000000 ) ) ;
#25 = CARTESIAN_POINT ( 'NONE',  ( -3.000000000000000000, 3.673940397442059868E-16, -3.673940397442059868E-16 ) ) ;
#26 = LOCAL_TIME ( 9, 58, 24.00000000000000000, #156 ) ;
#27 = CARTESIAN_POINT ( 'NONE',  ( 0.000000000000000000, 0.000000000000000000, -1.836970198721029934E-16 ) ) ;
#28 = EDGE_CURVE ( 'NONE', #167, #5, #349, .T. ) ;
#29 = DIRECTION ( 'NONE',  ( -0.000000000000000000, -0.000000000000000000, 1.000000000000000000 ) ) ;
#30 =( LENGTH_UNIT ( ) NAMED_UNIT ( * ) SI_UNIT ( .MILLI., .METRE. ) );
#31 = ADVANCED_FACE ( 'NONE', ( #186 ), #65, .T. ) ;
#32 = CARTESIAN_POINT ( 'NONE',  ( 0.000000000000000000, 0.000000000000000000, -63.00000000000000000 ) ) ;
#33 = COORDINATED_UNIVERSAL_TIME_OFFSET ( 1, 0, .AHEAD. ) ;
#34 = ORIENTED_EDGE ( 'NONE', *, *, #91, .T. ) ;
#35 = EDGE_CURVE ( 'NONE', #324, #204, #182, .T. ) ;
#36 = CARTESIAN_POINT ( 'NONE',  ( 0.000000000000000000, 0.000000000000000000, 0.000000000000000000 ) ) ;
#37 = CC_DESIGN_SECURITY_CLASSIFICATION ( #147, ( #220 ) ) ;
#38 = ORIENTED_EDGE ( 'NONE', *, *, #184, .F. ) ;
#39 = CONICAL_SURFACE ( 'NONE', #344, 1.500000000000000000, 0.5235987755982968173 ) ;
#40 = PRODUCT_DEFINITION ( 'NEZNÁMÝ', '', #220, #82 ) ;
#41 = COORDINATED_UNIVERSAL_TIME_OFFSET ( 1, 0, .AHEAD. ) ;
#42 = CARTESIAN_POINT ( 'NONE',  ( 0.000000000000000000, 0.000000000000000000, -63.00000000000000000 ) ) ;
#43 = DIRECTION ( 'NONE',  ( 1.000000000000000000, 0.000000000000000000, 0.000000000000000000 ) ) ;
#44 = CONICAL_SURFACE ( 'NONE', #246, 1.500000000000000000, 0.5235987755982968173 ) ;
#45 = CARTESIAN_POINT ( 'NONE',  ( 0.000000000000000000, 0.000000000000000000, -3.000000000000000444 ) ) ;
#46 = CYLINDRICAL_SURFACE ( 'NONE', #125, 1.000000000000000000 ) ;
#47 =( NAMED_UNIT ( * ) SI_UNIT ( $, .STERADIAN. ) SOLID_ANGLE_UNIT ( ) );
#48 = DIRECTION ( 'NONE',  ( -0.000000000000000000, -0.000000000000000000, 1.000000000000000000 ) ) ;
#49 = CIRCLE ( 'NONE', #118, 1.000000000000000000 ) ;
#50 = DIRECTION ( 'NONE',  ( 1.000000000000000000, 0.000000000000000000, 0.000000000000000000 ) ) ;
#51 = CARTESIAN_POINT ( 'NONE',  ( 0.000000000000000000, 0.000000000000000000, 0.000000000000000000 ) ) ;
#52 = VECTOR ( 'NONE', #134, 1000.000000000000000 ) ;
#53 = ORIENTED_EDGE ( 'NONE', *, *, #66, .T. ) ;
#54 = ADVANCED_BREP_SHAPE_REPRESENTATION ( 'b0b2', ( #93, #161 ), #200 ) ;
#55 = FACE_OUTER_BOUND ( 'NONE', #112, .T. ) ;
#56 = ORIENTED_EDGE ( 'NONE', *, *, #91, .F. ) ;
#57 = UNCERTAINTY_MEASURE_WITH_UNIT (LENGTH_MEASURE( 1.000000000000000082E-05 ), #30, 'distance_accuracy_value', 'NONE');
#58 = AXIS2_PLACEMENT_3D ( 'NONE', #90, #174, #234 ) ;
#59 = AXIS2_PLACEMENT_3D ( 'NONE', #245, #92, #348 ) ;
#60 = APPROVAL_DATE_TIME ( #17, #155 ) ;
#61 = PRODUCT ( 'b0b2', 'b0b2', '', ( #141 ) ) ;
#62 = CARTESIAN_POINT ( 'NONE',  ( 1.500000000000000000, 0.000000000000000000, -3.000000000000000444 ) ) ;
#63 = LINE ( 'NONE', #244, #232 ) ;
#64 = LINE ( 'NONE', #168, #313 ) ;
#65 = CYLINDRICAL_SURFACE ( 'NONE', #257, 1.000000000000000000 ) ;
#66 = EDGE_CURVE ( 'NONE', #5, #94, #146, .T. ) ;
#67 = PERSON_AND_ORGANIZATION_ROLE ( 'classification_officer' ) ;
#68 = CARTESIAN_POINT ( 'NONE',  ( -3.000000000000000000, 3.673940397442059868E-16, 0.000000000000000000 ) ) ;
#69 = PRODUCT_DEFINITION_SHAPE ( 'NONE', 'NONE',  #40 ) ;
#70 = DIRECTION ( 'NONE',  ( -0.000000000000000000, -0.000000000000000000, 1.000000000000000000 ) ) ;
#71 = CIRCLE ( 'NONE', #274, 3.000000000000000000 ) ;
#72 = AXIS2_PLACEMENT_3D ( 'NONE', #202, #179, #177 ) ;
#73 = DIRECTION ( 'NONE',  ( 1.000000000000000000, 0.000000000000000000, 0.000000000000000000 ) ) ;
#74 = DIRECTION ( 'NONE',  ( 1.000000000000000000, 0.000000000000000000, 0.000000000000000000 ) ) ;
#75 = ORIENTED_EDGE ( 'NONE', *, *, #98, .F. ) ;
#76 = VERTEX_POINT ( 'NONE', #25 ) ;
#77 = DIRECTION ( 'NONE',  ( 0.000000000000000000, -0.000000000000000000, 1.000000000000000000 ) ) ;
#78 = EDGE_LOOP ( 'NONE', ( #110, #34, #131, #333 ) ) ;
#79 = FACE_OUTER_BOUND ( 'NONE', #340, .T. ) ;
#80 = EDGE_CURVE ( 'NONE', #204, #324, #18, .T. ) ;
#81 = ORIENTED_EDGE ( 'NONE', *, *, #248, .F. ) ;
#82 = DESIGN_CONTEXT ( 'detailed design', #23, 'design' ) ;
#83 = VERTEX_POINT ( 'NONE', #207 ) ;
#84 = LOCAL_TIME ( 9, 58, 24.00000000000000000, #33 ) ;
#85 = PLANE ( 'NONE',  #140 ) ;
#86 = CARTESIAN_POINT ( 'NONE',  ( 0.000000000000000000, 0.000000000000000000, -3.000000000000000444 ) ) ;
#87 = ORIENTED_EDGE ( 'NONE', *, *, #28, .T. ) ;
#88 = COORDINATED_UNIVERSAL_TIME_OFFSET ( 1, 0, .AHEAD. ) ;
#89 = PLANE ( 'NONE',  #160 ) ;
#90 = CARTESIAN_POINT ( 'NONE',  ( 0.000000000000000000, 0.000000000000000000, -63.86602540378444104 ) ) ;
#91 = EDGE_CURVE ( 'NONE', #331, #229, #269, .T. ) ;
#92 = DIRECTION ( 'NONE',  ( -0.000000000000000000, -0.000000000000000000, 1.000000000000000000 ) ) ;
#93 = MANIFOLD_SOLID_BREP ( 'Rotovat1', #290 ) ;
#94 = VERTEX_POINT ( 'NONE', #316 ) ;
#95 = DATE_TIME_ROLE ( 'classification_date' ) ;
#96 = DIRECTION ( 'NONE',  ( -0.000000000000000000, -0.000000000000000000, 1.000000000000000000 ) ) ;
#97 = AXIS2_PLACEMENT_3D ( 'NONE', #108, #48, #328 ) ;
#98 = EDGE_CURVE ( 'NONE', #76, #83, #253, .T. ) ;
#99 = CC_DESIGN_APPROVAL ( #284, ( #220 ) ) ;
#100 = CARTESIAN_POINT ( 'NONE',  ( 1.500000000000000000, 0.000000000000000000, 0.000000000000000000 ) ) ;
#101 = ORIENTED_EDGE ( 'NONE', *, *, #248, .T. ) ;
#102 = COORDINATED_UNIVERSAL_TIME_OFFSET ( 1, 0, .AHEAD. ) ;
#103 = CYLINDRICAL_SURFACE ( 'NONE', #4, 1.500000000000000000 ) ;
#104 = PLANE ( 'NONE',  #336 ) ;
#105 = APPROVAL_PERSON_ORGANIZATION ( #198, #259, #9 ) ;
#106 = ADVANCED_FACE ( 'NONE', ( #55 ), #39, .T. ) ;
#107 = DIRECTION ( 'NONE',  ( -0.000000000000000000, -0.000000000000000000, 1.000000000000000000 ) ) ;
#108 = CARTESIAN_POINT ( 'NONE',  ( 0.000000000000000000, 0.000000000000000000, -63.86602540378444104 ) ) ;
#109 =( NAMED_UNIT ( * ) PLANE_ANGLE_UNIT ( ) SI_UNIT ( $, .RADIAN. ) );
#110 = ORIENTED_EDGE ( 'NONE', *, *, #305, .F. ) ;
#111 = CYLINDRICAL_SURFACE ( 'NONE', #319, 1.500000000000000000 ) ;
#112 = EDGE_LOOP ( 'NONE', ( #231, #342, #208, #6 ) ) ;
#113 = CC_DESIGN_APPROVAL ( #259, ( #40 ) ) ;
#114 = FACE_OUTER_BOUND ( 'NONE', #78, .T. ) ;
#115 = ORIENTED_EDGE ( 'NONE', *, *, #35, .T. ) ;
#116 = APPLICATION_CONTEXT ( 'configuration controlled 3d designs of mechanical parts and assemblies' ) ;
#117 = FACE_OUTER_BOUND ( 'NONE', #12, .T. ) ;
#118 = AXIS2_PLACEMENT_3D ( 'NONE', #127, #347, #318 ) ;
#119 = CC_DESIGN_PERSON_AND_ORGANIZATION_ASSIGNMENT ( #252, #191, ( #61 ) ) ;
#120 = CARTESIAN_POINT ( 'NONE',  ( 1.500000000000000000, 0.000000000000000000, -63.00000000000000000 ) ) ;
#121 = ORIENTED_EDGE ( 'NONE', *, *, #305, .T. ) ;
#122 = CARTESIAN_POINT ( 'NONE',  ( 1.500000000000000000, 0.000000000000000000, -63.00000000000000000 ) ) ;
#123 = CALENDAR_DATE ( 2023, 13, 2 ) ;
#124 = APPROVAL_ROLE ( '' ) ;
#125 = AXIS2_PLACEMENT_3D ( 'NONE', #221, #29, #329 ) ;
#126 = ORIENTED_EDGE ( 'NONE', *, *, #267, .F. ) ;
#127 = CARTESIAN_POINT ( 'NONE',  ( 0.000000000000000000, 0.000000000000000000, -97.00000000000000000 ) ) ;
#128 = DIRECTION ( 'NONE',  ( 1.000000000000000000, 0.000000000000000000, 0.000000000000000000 ) ) ;
#129 = DIRECTION ( 'NONE',  ( -0.000000000000000000, -0.000000000000000000, 1.000000000000000000 ) ) ;
#130 = DIRECTION ( 'NONE',  ( 1.000000000000000000, 0.000000000000000000, 0.000000000000000000 ) ) ;
#131 = ORIENTED_EDGE ( 'NONE', *, *, #267, .T. ) ;
#132 = CIRCLE ( 'NONE', #281, 1.500000000000000000 ) ;
#133 = LOCAL_TIME ( 9, 58, 24.00000000000000000, #41 ) ;
#134 = DIRECTION ( 'NONE',  ( -0.000000000000000000, -0.000000000000000000, 1.000000000000000000 ) ) ;
#135 = ORIENTED_EDGE ( 'NONE', *, *, #28, .F. ) ;
#136 = FACE_OUTER_BOUND ( 'NONE', #178, .T. ) ;
#137 = ADVANCED_FACE ( 'NONE', ( #8, #117 ), #85, .T. ) ;
#138 = CARTESIAN_POINT ( 'NONE',  ( 0.000000000000000000, 0.000000000000000000, -3.000000000000000444 ) ) ;
#139 = DIRECTION ( 'NONE',  ( 1.000000000000000000, 0.000000000000000000, 0.000000000000000000 ) ) ;
#140 = AXIS2_PLACEMENT_3D ( 'NONE', #173, #283, #205 ) ;
#141 = MECHANICAL_CONTEXT ( 'NONE', #116, 'mechanical' ) ;
#142 = DIRECTION ( 'NONE',  ( 1.000000000000000000, 0.000000000000000000, 0.000000000000000000 ) ) ;
#143 = DIRECTION ( 'NONE',  ( 1.000000000000000000, 0.000000000000000000, 0.000000000000000000 ) ) ;
#144 = EDGE_CURVE ( 'NONE', #204, #167, #339, .T. ) ;
#145 = ORIENTED_EDGE ( 'NONE', *, *, #279, .F. ) ;
#146 = CIRCLE ( 'NONE', #242, 1.500000000000000000 ) ;
#147 = SECURITY_CLASSIFICATION ( '', '', #213 ) ;
#148 = APPROVAL_STATUS ( 'not_yet_approved' ) ;
#149 = DIRECTION ( 'NONE',  ( 1.000000000000000000, 0.000000000000000000, 0.000000000000000000 ) ) ;
#150 = EDGE_CURVE ( 'NONE', #94, #5, #330, .T. ) ;
#151 = VECTOR ( 'NONE', #271, 1000.000000000000000 ) ;
#152 = APPROVAL_DATE_TIME ( #237, #284 ) ;
#153 = LINE ( 'NONE', #68, #151 ) ;
#154 = DIRECTION ( 'NONE',  ( -0.000000000000000000, -0.000000000000000000, 1.000000000000000000 ) ) ;
#155 = APPROVAL ( #320, 'NEURÈENÝ' ) ;
#156 = COORDINATED_UNIVERSAL_TIME_OFFSET ( 1, 0, .AHEAD. ) ;
#157 = LINE ( 'NONE', #183, #351 ) ;
#158 = CARTESIAN_POINT ( 'NONE',  ( 0.000000000000000000, 0.000000000000000000, 0.000000000000000000 ) ) ;
#159 = PERSON_AND_ORGANIZATION ( #163, #233 ) ;
#160 = AXIS2_PLACEMENT_3D ( 'NONE', #312, #14, #187 ) ;
#161 = AXIS2_PLACEMENT_3D ( 'NONE', #250, #1, #139 ) ;
#162 = ADVANCED_FACE ( 'NONE', ( #310 ), #285, .T. ) ;
#163 = PERSON ( 'NEURÈENÝ', 'NEURÈENÝ', 'NEURÈENÝ', ('NEURÈENÝ'), ('NEURÈENÝ'), ('NEURÈENÝ') ) ;
#164 = CARTESIAN_POINT ( 'NONE',  ( -1.000000000000000000, 1.224646799147353207E-16, -97.00000000000000000 ) ) ;
#165 = ORIENTED_EDGE ( 'NONE', *, *, #150, .T. ) ;
#166 = PRODUCT_RELATED_PRODUCT_CATEGORY ( 'detail', '', ( #61 ) ) ;
#167 = VERTEX_POINT ( 'NONE', #122 ) ;
#168 = CARTESIAN_POINT ( 'NONE',  ( -1.500000000000000000, 1.836970198721029934E-16, -63.00000000000000000 ) ) ;
#169 = VECTOR ( 'NONE', #107, 1000.000000000000000 ) ;
#170 = DIRECTION ( 'NONE',  ( -0.000000000000000000, -0.000000000000000000, 1.000000000000000000 ) ) ;
#171 = ADVANCED_FACE ( 'NONE', ( #341 ), #89, .T. ) ;
#172 = ORIENTED_EDGE ( 'NONE', *, *, #21, .F. ) ;
#173 = CARTESIAN_POINT ( 'NONE',  ( 0.000000000000000000, -3.000000000000000000, -3.000000000000000444 ) ) ;
#174 = DIRECTION ( 'NONE',  ( -0.000000000000000000, -0.000000000000000000, 1.000000000000000000 ) ) ;
#175 = CC_DESIGN_PERSON_AND_ORGANIZATION_ASSIGNMENT ( #13, #354, ( #220 ) ) ;
#176 = VECTOR ( 'NONE', #227, 1000.000000000000114 ) ;
#177 = DIRECTION ( 'NONE',  ( 1.000000000000000000, 0.000000000000000000, 0.000000000000000000 ) ) ;
#178 = EDGE_LOOP ( 'NONE', ( #251, #115, #225, #172 ) ) ;
#179 = DIRECTION ( 'NONE',  ( -0.000000000000000000, -0.000000000000000000, 1.000000000000000000 ) ) ;
#180 = CARTESIAN_POINT ( 'NONE',  ( -1.500000000000000000, 1.836970198721029934E-16, -63.00000000000000000 ) ) ;
#181 = DATE_AND_TIME ( #241, #326 ) ;
#182 = CIRCLE ( 'NONE', #97, 1.000000000000000000 ) ;
#183 = CARTESIAN_POINT ( 'NONE',  ( 1.000000000000000000, 0.000000000000000000, 0.000000000000000000 ) ) ;
#184 = EDGE_CURVE ( 'NONE', #240, #76, #153, .T. ) ;
#185 = CALENDAR_DATE ( 2023, 13, 2 ) ;
#186 = FACE_OUTER_BOUND ( 'NONE', #337, .T. ) ;
#187 = DIRECTION ( 'NONE',  ( -1.000000000000000000, 0.000000000000000000, -0.000000000000000000 ) ) ;
#188 = CC_DESIGN_DATE_AND_TIME_ASSIGNMENT ( #325, #95, ( #147 ) ) ;
#189 = LINE ( 'NONE', #280, #169 ) ;
#190 = EDGE_LOOP ( 'NONE', ( #38, #235, #197, #75 ) ) ;
#191 = PERSON_AND_ORGANIZATION_ROLE ( 'design_owner' ) ;
#192 = APPROVAL_PERSON_ORGANIZATION ( #159, #155, #124 ) ;
#193 = EDGE_LOOP ( 'NONE', ( #309, #262, #286, #135 ) ) ;
#194 = CC_DESIGN_DATE_AND_TIME_ASSIGNMENT ( #181, #346, ( #40 ) ) ;
#195 = CARTESIAN_POINT ( 'NONE',  ( -1.000000000000000000, 1.224646799147353207E-16, -63.86602540378444104 ) ) ;
#196 = DIRECTION ( 'NONE',  ( -0.000000000000000000, -0.000000000000000000, 1.000000000000000000 ) ) ;
#197 = ORIENTED_EDGE ( 'NONE', *, *, #7, .T. ) ;
#198 = PERSON_AND_ORGANIZATION ( #163, #233 ) ;
#199 = ADVANCED_FACE ( 'NONE', ( #215 ), #20, .T. ) ;
#200 =( GEOMETRIC_REPRESENTATION_CONTEXT ( 3 ) GLOBAL_UNCERTAINTY_ASSIGNED_CONTEXT ( ( #57 ) ) GLOBAL_UNIT_ASSIGNED_CONTEXT ( ( #30, #109, #47 ) ) REPRESENTATION_CONTEXT ( 'NONE', 'WORKASPACE' ) );
#201 = APPLICATION_PROTOCOL_DEFINITION ( 'international standard', 'config_control_design', 1994, #23 ) ;
#202 = CARTESIAN_POINT ( 'NONE',  ( 0.000000000000000000, 0.000000000000000000, -3.673940397442059868E-16 ) ) ;
#203 = DIRECTION ( 'NONE',  ( -0.000000000000000000, -0.000000000000000000, 1.000000000000000000 ) ) ;
#204 = VERTEX_POINT ( 'NONE', #293 ) ;
#205 = DIRECTION ( 'NONE',  ( -1.000000000000000000, 0.000000000000000000, -0.000000000000000000 ) ) ;
#206 = CIRCLE ( 'NONE', #270, 1.500000000000000000 ) ;
#207 = CARTESIAN_POINT ( 'NONE',  ( 3.000000000000000000, 0.000000000000000000, -3.673940397442059868E-16 ) ) ;
#208 = ORIENTED_EDGE ( 'NONE', *, *, #254, .F. ) ;
#209 = CALENDAR_DATE ( 2023, 13, 2 ) ;
#210 = DIRECTION ( 'NONE',  ( 1.000000000000000000, 0.000000000000000000, 0.000000000000000000 ) ) ;
#211 = DIRECTION ( 'NONE',  ( 1.000000000000000000, 0.000000000000000000, 0.000000000000000000 ) ) ;
#212 = ADVANCED_FACE ( 'NONE', ( #355 ), #103, .T. ) ;
#213 = SECURITY_CLASSIFICATION_LEVEL ( 'unclassified' ) ;
#214 = VECTOR ( 'NONE', #322, 1000.000000000000000 ) ;
#215 = FACE_OUTER_BOUND ( 'NONE', #190, .T. ) ;
#216 = SHAPE_DEFINITION_REPRESENTATION ( #69, #54 ) ;
#217 = CARTESIAN_POINT ( 'NONE',  ( 0.000000000000000000, 0.000000000000000000, -3.000000000000000444 ) ) ;
#218 = ORIENTED_EDGE ( 'NONE', *, *, #11, .T. ) ;
#219 = FACE_OUTER_BOUND ( 'NONE', #277, .T. ) ;
#220 = PRODUCT_DEFINITION_FORMATION_WITH_SPECIFIED_SOURCE ( 'LIBOVOLNÝ', '', #61, .NOT_KNOWN. ) ;
#221 = CARTESIAN_POINT ( 'NONE',  ( 0.000000000000000000, 0.000000000000000000, 0.000000000000000000 ) ) ;
#222 = DIRECTION ( 'NONE',  ( -0.000000000000000000, -0.000000000000000000, 1.000000000000000000 ) ) ;
#223 = EDGE_CURVE ( 'NONE', #240, #288, #19, .T. ) ;
#224 = DIRECTION ( 'NONE',  ( 1.000000000000000000, 0.000000000000000000, 0.000000000000000000 ) ) ;
#225 = ORIENTED_EDGE ( 'NONE', *, *, #144, .T. ) ;
#226 = CC_DESIGN_APPROVAL ( #155, ( #147 ) ) ;
#227 = DIRECTION ( 'NONE',  ( 0.4999999999999981681, 0.000000000000000000, 0.8660254037844395958 ) ) ;
#228 = PERSON_AND_ORGANIZATION_ROLE ( 'creator' ) ;
#229 = VERTEX_POINT ( 'NONE', #238 ) ;
#230 = DATE_AND_TIME ( #123, #84 ) ;
#231 = ORIENTED_EDGE ( 'NONE', *, *, #80, .T. ) ;
#232 = VECTOR ( 'NONE', #15, 1000.000000000000000 ) ;
#233 = ORGANIZATION ( 'NEURÈENÝ', 'NEURÈENÝ', '' ) ;
#234 = DIRECTION ( 'NONE',  ( 1.000000000000000000, 0.000000000000000000, 0.000000000000000000 ) ) ;
#235 = ORIENTED_EDGE ( 'NONE', *, *, #223, .T. ) ;
#236 = CC_DESIGN_PERSON_AND_ORGANIZATION_ASSIGNMENT ( #256, #228, ( #40 ) ) ;
#237 = DATE_AND_TIME ( #268, #133 ) ;
#238 = CARTESIAN_POINT ( 'NONE',  ( 1.000000000000000000, 0.000000000000000000, -97.00000000000000000 ) ) ;
#239 = DIRECTION ( 'NONE',  ( -0.000000000000000000, -0.000000000000000000, 1.000000000000000000 ) ) ;
#240 = VERTEX_POINT ( 'NONE', #22 ) ;
#241 = CALENDAR_DATE ( 2023, 13, 2 ) ;
#242 = AXIS2_PLACEMENT_3D ( 'NONE', #138, #196, #50 ) ;
#243 = CC_DESIGN_PERSON_AND_ORGANIZATION_ASSIGNMENT ( #261, #264, ( #220 ) ) ;
#244 = CARTESIAN_POINT ( 'NONE',  ( 3.000000000000000000, 0.000000000000000000, 0.000000000000000000 ) ) ;
#245 = CARTESIAN_POINT ( 'NONE',  ( 0.000000000000000000, 0.000000000000000000, -3.673940397442059868E-16 ) ) ;
#246 = AXIS2_PLACEMENT_3D ( 'NONE', #272, #24, #73 ) ;
#247 = ORIENTED_EDGE ( 'NONE', *, *, #263, .T. ) ;
#248 = EDGE_CURVE ( 'NONE', #83, #76, #303, .T. ) ;
#249 = ORIENTED_EDGE ( 'NONE', *, *, #7, .F. ) ;
#250 = CARTESIAN_POINT ( 'NONE',  ( 0.000000000000000000, 0.000000000000000000, 0.000000000000000000 ) ) ;
#251 = ORIENTED_EDGE ( 'NONE', *, *, #273, .F. ) ;
#252 = PERSON_AND_ORGANIZATION ( #163, #233 ) ;
#253 = CIRCLE ( 'NONE', #72, 3.000000000000000000 ) ;
#254 = EDGE_CURVE ( 'NONE', #167, #258, #206, .T. ) ;
#255 = ORIENTED_EDGE ( 'NONE', *, *, #98, .T. ) ;
#256 = PERSON_AND_ORGANIZATION ( #163, #233 ) ;
#257 = AXIS2_PLACEMENT_3D ( 'NONE', #158, #353, #142 ) ;
#258 = VERTEX_POINT ( 'NONE', #180 ) ;
#259 = APPROVAL ( #148, 'NEURÈENÝ' ) ;
#260 = DIRECTION ( 'NONE',  ( -0.000000000000000000, -0.000000000000000000, 1.000000000000000000 ) ) ;
#261 = PERSON_AND_ORGANIZATION ( #163, #233 ) ;
#262 = ORIENTED_EDGE ( 'NONE', *, *, #279, .T. ) ;
#263 = EDGE_CURVE ( 'NONE', #229, #331, #49, .T. ) ;
#264 = PERSON_AND_ORGANIZATION_ROLE ( 'creator' ) ;
#265 = CARTESIAN_POINT ( 'NONE',  ( 0.000000000000000000, 0.000000000000000000, -63.00000000000000000 ) ) ;
#266 = APPROVAL_ROLE ( '' ) ;
#267 = EDGE_CURVE ( 'NONE', #229, #204, #157, .T. ) ;
#268 = CALENDAR_DATE ( 2023, 13, 2 ) ;
#269 = CIRCLE ( 'NONE', #295, 1.000000000000000000 ) ;
#270 = AXIS2_PLACEMENT_3D ( 'NONE', #42, #289, #210 ) ;
#271 = DIRECTION ( 'NONE',  ( -0.000000000000000000, -0.000000000000000000, 1.000000000000000000 ) ) ;
#272 = CARTESIAN_POINT ( 'NONE',  ( 0.000000000000000000, 0.000000000000000000, -63.00000000000000000 ) ) ;
#273 = EDGE_CURVE ( 'NONE', #324, #258, #64, .T. ) ;
#274 = AXIS2_PLACEMENT_3D ( 'NONE', #45, #154, #130 ) ;
#275 = APPLICATION_PROTOCOL_DEFINITION ( 'international standard', 'config_control_design', 1994, #116 ) ;
#276 = AXIS2_PLACEMENT_3D ( 'NONE', #317, #129, #211 ) ;
#277 = EDGE_LOOP ( 'NONE', ( #101, #255 ) ) ;
#278 = EDGE_LOOP ( 'NONE', ( #218, #3, #81, #249 ) ) ;
#279 = EDGE_CURVE ( 'NONE', #258, #94, #297, .T. ) ;
#280 = CARTESIAN_POINT ( 'NONE',  ( -1.000000000000000000, 1.224646799147353207E-16, 0.000000000000000000 ) ) ;
#281 = AXIS2_PLACEMENT_3D ( 'NONE', #265, #239, #43 ) ;
#282 = DIRECTION ( 'NONE',  ( 1.000000000000000000, 0.000000000000000000, 0.000000000000000000 ) ) ;
#283 = DIRECTION ( 'NONE',  ( 0.000000000000000000, 0.000000000000000000, -1.000000000000000000 ) ) ;
#284 = APPROVAL ( #292, 'NEURÈENÝ' ) ;
#285 = CYLINDRICAL_SURFACE ( 'NONE', #287, 3.000000000000000000 ) ;
#286 = ORIENTED_EDGE ( 'NONE', *, *, #66, .F. ) ;
#287 = AXIS2_PLACEMENT_3D ( 'NONE', #36, #260, #10 ) ;
#288 = VERTEX_POINT ( 'NONE', #327 ) ;
#289 = DIRECTION ( 'NONE',  ( -0.000000000000000000, -0.000000000000000000, 1.000000000000000000 ) ) ;
#290 = CLOSED_SHELL ( 'NONE', ( #162, #212, #106, #31, #171, #323, #334, #315, #137, #199, #298 ) ) ;
#291 = APPROVAL_PERSON_ORGANIZATION ( #294, #284, #266 ) ;
#292 = APPROVAL_STATUS ( 'not_yet_approved' ) ;
#293 = CARTESIAN_POINT ( 'NONE',  ( 1.000000000000000000, 0.000000000000000000, -63.86602540378444104 ) ) ;
#294 = PERSON_AND_ORGANIZATION ( #163, #233 ) ;
#295 = AXIS2_PLACEMENT_3D ( 'NONE', #307, #170, #282 ) ;
#296 = DIRECTION ( 'NONE',  ( 1.000000000000000000, 0.000000000000000000, 0.000000000000000000 ) ) ;
#297 = LINE ( 'NONE', #302, #52 ) ;
#298 = ADVANCED_FACE ( 'NONE', ( #219 ), #104, .T. ) ;
#299 = DIRECTION ( 'NONE',  ( -0.4999999999999981681, 6.123233995736742617E-17, 0.8660254037844395958 ) ) ;
#300 = EDGE_LOOP ( 'NONE', ( #301, #56 ) ) ;
#301 = ORIENTED_EDGE ( 'NONE', *, *, #263, .F. ) ;
#302 = CARTESIAN_POINT ( 'NONE',  ( -1.500000000000000000, 1.836970198721029934E-16, 0.000000000000000000 ) ) ;
#303 = CIRCLE ( 'NONE', #59, 3.000000000000000000 ) ;
#304 = EDGE_LOOP ( 'NONE', ( #53, #165 ) ) ;
#305 = EDGE_CURVE ( 'NONE', #331, #324, #189, .T. ) ;
#306 = ORIENTED_EDGE ( 'NONE', *, *, #21, .T. ) ;
#307 = CARTESIAN_POINT ( 'NONE',  ( 0.000000000000000000, 0.000000000000000000, -97.00000000000000000 ) ) ;
#308 = AXIS2_PLACEMENT_3D ( 'NONE', #217, #70, #296 ) ;
#309 = ORIENTED_EDGE ( 'NONE', *, *, #254, .T. ) ;
#310 = FACE_OUTER_BOUND ( 'NONE', #278, .T. ) ;
#311 = ORIENTED_EDGE ( 'NONE', *, *, #11, .F. ) ;
#312 = CARTESIAN_POINT ( 'NONE',  ( 0.000000000000000000, 0.000000000000000000, -97.00000000000000000 ) ) ;
#313 = VECTOR ( 'NONE', #299, 1000.000000000000114 ) ;
#314 = LOCAL_TIME ( 9, 58, 24.00000000000000000, #102 ) ;
#315 = ADVANCED_FACE ( 'NONE', ( #79 ), #111, .T. ) ;
#316 = CARTESIAN_POINT ( 'NONE',  ( -1.500000000000000000, 1.836970198721029934E-16, -3.000000000000000444 ) ) ;
#317 = CARTESIAN_POINT ( 'NONE',  ( 0.000000000000000000, 0.000000000000000000, 0.000000000000000000 ) ) ;
#318 = DIRECTION ( 'NONE',  ( 1.000000000000000000, 0.000000000000000000, 0.000000000000000000 ) ) ;
#319 = AXIS2_PLACEMENT_3D ( 'NONE', #51, #222, #224 ) ;
#320 = APPROVAL_STATUS ( 'not_yet_approved' ) ;
#321 = DIRECTION ( 'NONE',  ( -0.000000000000000000, -0.000000000000000000, 1.000000000000000000 ) ) ;
#322 = DIRECTION ( 'NONE',  ( -0.000000000000000000, -0.000000000000000000, 1.000000000000000000 ) ) ;
#323 = ADVANCED_FACE ( 'NONE', ( #114 ), #46, .T. ) ;
#324 = VERTEX_POINT ( 'NONE', #195 ) ;
#325 = DATE_AND_TIME ( #185, #26 ) ;
#326 = LOCAL_TIME ( 9, 58, 24.00000000000000000, #88 ) ;
#327 = CARTESIAN_POINT ( 'NONE',  ( 3.000000000000000000, 0.000000000000000000, -3.000000000000000444 ) ) ;
#328 = DIRECTION ( 'NONE',  ( 1.000000000000000000, 0.000000000000000000, 0.000000000000000000 ) ) ;
#329 = DIRECTION ( 'NONE',  ( 1.000000000000000000, 0.000000000000000000, 0.000000000000000000 ) ) ;
#330 = CIRCLE ( 'NONE', #2, 1.500000000000000000 ) ;
#331 = VERTEX_POINT ( 'NONE', #164 ) ;
#332 = ORIENTED_EDGE ( 'NONE', *, *, #223, .F. ) ;
#333 = ORIENTED_EDGE ( 'NONE', *, *, #35, .F. ) ;
#334 = ADVANCED_FACE ( 'NONE', ( #136 ), #44, .T. ) ;
#335 = DIRECTION ( 'NONE',  ( -0.000000000000000000, -0.000000000000000000, 1.000000000000000000 ) ) ;
#336 = AXIS2_PLACEMENT_3D ( 'NONE', #27, #77, #74 ) ;
#337 = EDGE_LOOP ( 'NONE', ( #247, #121, #350, #126 ) ) ;
#338 = APPROVAL_DATE_TIME ( #230, #259 ) ;
#339 = LINE ( 'NONE', #120, #176 ) ;
#340 = EDGE_LOOP ( 'NONE', ( #145, #306, #87, #345 ) ) ;
#341 = FACE_OUTER_BOUND ( 'NONE', #300, .T. ) ;
#342 = ORIENTED_EDGE ( 'NONE', *, *, #273, .T. ) ;
#343 = CC_DESIGN_PERSON_AND_ORGANIZATION_ASSIGNMENT ( #16, #67, ( #147 ) ) ;
#344 = AXIS2_PLACEMENT_3D ( 'NONE', #32, #335, #143 ) ;
#345 = ORIENTED_EDGE ( 'NONE', *, *, #150, .F. ) ;
#346 = DATE_TIME_ROLE ( 'creation_date' ) ;
#347 = DIRECTION ( 'NONE',  ( -0.000000000000000000, -0.000000000000000000, 1.000000000000000000 ) ) ;
#348 = DIRECTION ( 'NONE',  ( 1.000000000000000000, 0.000000000000000000, 0.000000000000000000 ) ) ;
#349 = LINE ( 'NONE', #100, #214 ) ;
#350 = ORIENTED_EDGE ( 'NONE', *, *, #80, .F. ) ;
#351 = VECTOR ( 'NONE', #321, 1000.000000000000000 ) ;
#352 = CARTESIAN_POINT ( 'NONE',  ( 0.000000000000000000, 0.000000000000000000, 0.000000000000000000 ) ) ;
#353 = DIRECTION ( 'NONE',  ( -0.000000000000000000, -0.000000000000000000, 1.000000000000000000 ) ) ;
#354 = PERSON_AND_ORGANIZATION_ROLE ( 'design_supplier' ) ;
#355 = FACE_OUTER_BOUND ( 'NONE', #193, .T. ) ;
ENDSEC;
END-ISO-10303-21;
