ISO-10303-21;
HEADER;
FILE_DESCRIPTION (( 'STEP AP203' ),
    '1' );
FILE_NAME ('a429.STEP',
    '2023-02-13T08:59:53',
    ( '' ),
    ( '' ),
    'SwSTEP 2.0',
    'SolidWorks 2019',
    '' );
FILE_SCHEMA (( 'CONFIG_CONTROL_DESIGN' ));
ENDSEC;

DATA;
#1 = EDGE_LOOP ( 'NONE', ( #267, #171, #349, #262 ) ) ;
#2 = VECTOR ( 'NONE', #155, 1000.000000000000000 ) ;
#3 = CARTESIAN_POINT ( 'NONE',  ( 0.000000000000000000, 0.000000000000000000, 0.000000000000000000 ) ) ;
#4 = ORIENTED_EDGE ( 'NONE', *, *, #328, .F. ) ;
#5 = DATE_TIME_ROLE ( 'classification_date' ) ;
#6 = ADVANCED_FACE ( 'NONE', ( #87 ), #300, .T. ) ;
#7 = ORIENTED_EDGE ( 'NONE', *, *, #346, .F. ) ;
#8 = DATE_AND_TIME ( #11, #173 ) ;
#9 = CARTESIAN_POINT ( 'NONE',  ( 0.000000000000000000, 0.000000000000000000, -1.836970198721029934E-16 ) ) ;
#10 = LINE ( 'NONE', #215, #47 ) ;
#11 = CALENDAR_DATE ( 2023, 13, 2 ) ;
#12 = ORIENTED_EDGE ( 'NONE', *, *, #286, .T. ) ;
#13 = PERSON_AND_ORGANIZATION_ROLE ( 'design_owner' ) ;
#14 = VECTOR ( 'NONE', #140, 1000.000000000000000 ) ;
#15 = FACE_OUTER_BOUND ( 'NONE', #151, .T. ) ;
#16 = CC_DESIGN_PERSON_AND_ORGANIZATION_ASSIGNMENT ( #123, #13, ( #263 ) ) ;
#17 = ORIENTED_EDGE ( 'NONE', *, *, #220, .F. ) ;
#18 = CARTESIAN_POINT ( 'NONE',  ( 1.500000000000000000, 0.000000000000000000, 0.000000000000000000 ) ) ;
#19 = CONICAL_SURFACE ( 'NONE', #136, 1.500000000000000000, 0.5235987755983013692 ) ;
#20 = FACE_BOUND ( 'NONE', #29, .T. ) ;
#21 = CARTESIAN_POINT ( 'NONE',  ( 0.7500000000000000000, 0.000000000000000000, 0.000000000000000000 ) ) ;
#22 = ADVANCED_FACE ( 'NONE', ( #166 ), #19, .T. ) ;
#23 = CARTESIAN_POINT ( 'NONE',  ( 0.000000000000000000, 0.000000000000000000, -50.00000000000000000 ) ) ;
#24 = ORIENTED_EDGE ( 'NONE', *, *, #103, .T. ) ;
#25 = APPLICATION_CONTEXT ( 'configuration controlled 3d designs of mechanical parts and assemblies' ) ;
#26 = MANIFOLD_SOLID_BREP ( 'Rotovat1', #172 ) ;
#27 = ORIENTED_EDGE ( 'NONE', *, *, #322, .T. ) ;
#28 = CARTESIAN_POINT ( 'NONE',  ( 0.000000000000000000, 0.000000000000000000, 0.000000000000000000 ) ) ;
#29 = EDGE_LOOP ( 'NONE', ( #354, #309 ) ) ;
#30 = CIRCLE ( 'NONE', #336, 1.500000000000000000 ) ;
#31 = DIRECTION ( 'NONE',  ( -0.000000000000000000, -0.000000000000000000, 1.000000000000000000 ) ) ;
#32 = CIRCLE ( 'NONE', #108, 1.500000000000000000 ) ;
#33 = ADVANCED_FACE ( 'NONE', ( #351 ), #59, .T. ) ;
#34 = ORIENTED_EDGE ( 'NONE', *, *, #220, .T. ) ;
#35 = DATE_AND_TIME ( #67, #337 ) ;
#36 = DIRECTION ( 'NONE',  ( 1.000000000000000000, 0.000000000000000000, 0.000000000000000000 ) ) ;
#37 = APPLICATION_PROTOCOL_DEFINITION ( 'international standard', 'config_control_design', 1994, #25 ) ;
#38 = COORDINATED_UNIVERSAL_TIME_OFFSET ( 1, 0, .AHEAD. ) ;
#39 = DIRECTION ( 'NONE',  ( 1.000000000000000000, 0.000000000000000000, 0.000000000000000000 ) ) ;
#40 = VERTEX_POINT ( 'NONE', #299 ) ;
#41 = APPROVAL_DATE_TIME ( #44, #228 ) ;
#42 = CIRCLE ( 'NONE', #177, 3.000000000000000000 ) ;
#43 = PERSON_AND_ORGANIZATION_ROLE ( 'design_supplier' ) ;
#44 = DATE_AND_TIME ( #305, #73 ) ;
#45 = CARTESIAN_POINT ( 'NONE',  ( -1.500000000000000000, 1.836970198721029934E-16, -50.00000000000000000 ) ) ;
#46 = CARTESIAN_POINT ( 'NONE',  ( -0.7500000000000000000, 9.184850993605149670E-17, -50.00000000000000000 ) ) ;
#47 = VECTOR ( 'NONE', #86, 1000.000000000000000 ) ;
#48 = LINE ( 'NONE', #271, #211 ) ;
#49 = AXIS2_PLACEMENT_3D ( 'NONE', #3, #101, #36 ) ;
#50 = EDGE_CURVE ( 'NONE', #147, #280, #30, .T. ) ;
#51 = DIRECTION ( 'NONE',  ( 1.000000000000000000, 0.000000000000000000, 0.000000000000000000 ) ) ;
#52 = CARTESIAN_POINT ( 'NONE',  ( 0.000000000000000000, 0.000000000000000000, -50.00000000000000000 ) ) ;
#53 = DIRECTION ( 'NONE',  ( -0.000000000000000000, -0.000000000000000000, 1.000000000000000000 ) ) ;
#54 = FACE_OUTER_BOUND ( 'NONE', #92, .T. ) ;
#55 =( NAMED_UNIT ( * ) PLANE_ANGLE_UNIT ( ) SI_UNIT ( $, .RADIAN. ) );
#56 = EDGE_LOOP ( 'NONE', ( #128, #315, #209, #236 ) ) ;
#57 = EDGE_CURVE ( 'NONE', #104, #122, #320, .T. ) ;
#58 = AXIS2_PLACEMENT_3D ( 'NONE', #169, #222, #61 ) ;
#59 = PLANE ( 'NONE',  #199 ) ;
#60 = DIRECTION ( 'NONE',  ( -0.000000000000000000, -0.000000000000000000, 1.000000000000000000 ) ) ;
#61 = DIRECTION ( 'NONE',  ( 1.000000000000000000, 0.000000000000000000, 0.000000000000000000 ) ) ;
#62 = PERSON_AND_ORGANIZATION ( #221, #149 ) ;
#63 = DIRECTION ( 'NONE',  ( -0.000000000000000000, -0.000000000000000000, 1.000000000000000000 ) ) ;
#64 = VERTEX_POINT ( 'NONE', #164 ) ;
#65 = MECHANICAL_CONTEXT ( 'NONE', #25, 'mechanical' ) ;
#66 = EDGE_LOOP ( 'NONE', ( #120, #12 ) ) ;
#67 = CALENDAR_DATE ( 2023, 13, 2 ) ;
#68 = APPLICATION_CONTEXT ( 'configuration controlled 3d designs of mechanical parts and assemblies' ) ;
#69 = APPROVAL_ROLE ( '' ) ;
#70 = ORIENTED_EDGE ( 'NONE', *, *, #307, .F. ) ;
#71 = CARTESIAN_POINT ( 'NONE',  ( 1.500000000000000000, 0.000000000000000000, -50.00000000000000000 ) ) ;
#72 = ORIENTED_EDGE ( 'NONE', *, *, #241, .T. ) ;
#73 = LOCAL_TIME ( 9, 59, 53.00000000000000000, #194 ) ;
#74 = PERSON_AND_ORGANIZATION ( #221, #149 ) ;
#75 = CARTESIAN_POINT ( 'NONE',  ( 0.000000000000000000, 0.000000000000000000, 0.000000000000000000 ) ) ;
#76 = DIRECTION ( 'NONE',  ( -0.000000000000000000, -0.000000000000000000, 1.000000000000000000 ) ) ;
#77 = DESIGN_CONTEXT ( 'detailed design', #68, 'design' ) ;
#78 = CYLINDRICAL_SURFACE ( 'NONE', #270, 0.7500000000000000000 ) ;
#79 = EDGE_CURVE ( 'NONE', #265, #64, #148, .T. ) ;
#80 = CARTESIAN_POINT ( 'NONE',  ( -1.500000000000000000, 1.836970198721029934E-16, 0.000000000000000000 ) ) ;
#81 = CARTESIAN_POINT ( 'NONE',  ( 0.000000000000000000, 0.000000000000000000, 0.000000000000000000 ) ) ;
#82 = CARTESIAN_POINT ( 'NONE',  ( 0.000000000000000000, 0.000000000000000000, -50.00000000000000000 ) ) ;
#83 = FACE_OUTER_BOUND ( 'NONE', #260, .T. ) ;
#84 = LINE ( 'NONE', #183, #2 ) ;
#85 = CARTESIAN_POINT ( 'NONE',  ( -1.500000000000000000, 1.836970198721029934E-16, -3.000000000000000444 ) ) ;
#86 = DIRECTION ( 'NONE',  ( -0.000000000000000000, -0.000000000000000000, 1.000000000000000000 ) ) ;
#87 = FACE_OUTER_BOUND ( 'NONE', #56, .T. ) ;
#88 = CC_DESIGN_SECURITY_CLASSIFICATION ( #224, ( #282 ) ) ;
#89 = CARTESIAN_POINT ( 'NONE',  ( 0.000000000000000000, 0.000000000000000000, -3.000000000000000444 ) ) ;
#90 = CARTESIAN_POINT ( 'NONE',  ( 3.000000000000000000, 0.000000000000000000, -3.673940397442059868E-16 ) ) ;
#91 = DIRECTION ( 'NONE',  ( 1.000000000000000000, 0.000000000000000000, 0.000000000000000000 ) ) ;
#92 = EDGE_LOOP ( 'NONE', ( #247, #279, #178, #24 ) ) ;
#93 = CC_DESIGN_APPROVAL ( #228, ( #105 ) ) ;
#94 =( NAMED_UNIT ( * ) SI_UNIT ( $, .STERADIAN. ) SOLID_ANGLE_UNIT ( ) );
#95 = APPROVAL_ROLE ( '' ) ;
#96 = VERTEX_POINT ( 'NONE', #46 ) ;
#97 = AXIS2_PLACEMENT_3D ( 'NONE', #28, #350, #39 ) ;
#98 = AXIS2_PLACEMENT_3D ( 'NONE', #189, #142, #249 ) ;
#99 = CARTESIAN_POINT ( 'NONE',  ( 0.000000000000000000, 0.000000000000000000, 0.000000000000000000 ) ) ;
#100 = EDGE_LOOP ( 'NONE', ( #162, #27, #223, #4 ) ) ;
#101 = DIRECTION ( 'NONE',  ( -0.000000000000000000, -0.000000000000000000, 1.000000000000000000 ) ) ;
#102 =( GEOMETRIC_REPRESENTATION_CONTEXT ( 3 ) GLOBAL_UNCERTAINTY_ASSIGNED_CONTEXT ( ( #133 ) ) GLOBAL_UNIT_ASSIGNED_CONTEXT ( ( #195, #55, #94 ) ) REPRESENTATION_CONTEXT ( 'NONE', 'WORKASPACE' ) );
#103 = EDGE_CURVE ( 'NONE', #276, #96, #257, .T. ) ;
#104 = VERTEX_POINT ( 'NONE', #85 ) ;
#105 = PRODUCT_DEFINITION ( 'NEZNÁMÝ', '', #282, #77 ) ;
#106 = CYLINDRICAL_SURFACE ( 'NONE', #49, 1.500000000000000000 ) ;
#107 = CARTESIAN_POINT ( 'NONE',  ( 0.000000000000000000, 0.000000000000000000, -51.29903810567665090 ) ) ;
#108 = AXIS2_PLACEMENT_3D ( 'NONE', #293, #130, #316 ) ;
#109 = DIRECTION ( 'NONE',  ( 1.000000000000000000, 0.000000000000000000, 0.000000000000000000 ) ) ;
#110 = ADVANCED_FACE ( 'NONE', ( #204 ), #261, .T. ) ;
#111 = DIRECTION ( 'NONE',  ( -0.000000000000000000, -0.000000000000000000, 1.000000000000000000 ) ) ;
#112 = DIRECTION ( 'NONE',  ( -0.000000000000000000, -0.000000000000000000, 1.000000000000000000 ) ) ;
#113 = APPROVAL_PERSON_ORGANIZATION ( #231, #175, #69 ) ;
#114 = DIRECTION ( 'NONE',  ( 1.000000000000000000, 0.000000000000000000, 0.000000000000000000 ) ) ;
#115 = EDGE_CURVE ( 'NONE', #40, #288, #329, .T. ) ;
#116 = DIRECTION ( 'NONE',  ( -1.000000000000000000, 0.000000000000000000, -0.000000000000000000 ) ) ;
#117 = CIRCLE ( 'NONE', #313, 1.500000000000000000 ) ;
#118 = PERSON_AND_ORGANIZATION_ROLE ( 'creator' ) ;
#119 = FACE_OUTER_BOUND ( 'NONE', #100, .T. ) ;
#120 = ORIENTED_EDGE ( 'NONE', *, *, #346, .T. ) ;
#121 = EDGE_CURVE ( 'NONE', #64, #124, #10, .T. ) ;
#122 = VERTEX_POINT ( 'NONE', #317 ) ;
#123 = PERSON_AND_ORGANIZATION ( #221, #149 ) ;
#124 = VERTEX_POINT ( 'NONE', #216 ) ;
#125 = APPROVAL_DATE_TIME ( #208, #175 ) ;
#126 = ORIENTED_EDGE ( 'NONE', *, *, #235, .F. ) ;
#127 = APPROVAL_DATE_TIME ( #8, #323 ) ;
#128 = ORIENTED_EDGE ( 'NONE', *, *, #246, .T. ) ;
#129 = ORIENTED_EDGE ( 'NONE', *, *, #57, .F. ) ;
#130 = DIRECTION ( 'NONE',  ( -0.000000000000000000, -0.000000000000000000, 1.000000000000000000 ) ) ;
#131 = DIRECTION ( 'NONE',  ( 1.000000000000000000, 0.000000000000000000, 0.000000000000000000 ) ) ;
#132 = DIRECTION ( 'NONE',  ( 0.5000000000000021094, 0.000000000000000000, 0.8660254037844373753 ) ) ;
#133 = UNCERTAINTY_MEASURE_WITH_UNIT (LENGTH_MEASURE( 1.000000000000000082E-05 ), #195, 'distance_accuracy_value', 'NONE');
#134 = ADVANCED_FACE ( 'NONE', ( #83 ), #239, .T. ) ;
#135 = DIRECTION ( 'NONE',  ( -0.000000000000000000, -0.000000000000000000, 1.000000000000000000 ) ) ;
#136 = AXIS2_PLACEMENT_3D ( 'NONE', #23, #143, #248 ) ;
#137 = CIRCLE ( 'NONE', #163, 0.7500000000000000000 ) ;
#138 = CARTESIAN_POINT ( 'NONE',  ( 0.000000000000000000, 0.000000000000000000, -50.00000000000000000 ) ) ;
#139 = DATE_AND_TIME ( #275, #344 ) ;
#140 = DIRECTION ( 'NONE',  ( -0.000000000000000000, -0.000000000000000000, 1.000000000000000000 ) ) ;
#141 = ORIENTED_EDGE ( 'NONE', *, *, #246, .F. ) ;
#142 = DIRECTION ( 'NONE',  ( -0.000000000000000000, -0.000000000000000000, 1.000000000000000000 ) ) ;
#143 = DIRECTION ( 'NONE',  ( -0.000000000000000000, -0.000000000000000000, 1.000000000000000000 ) ) ;
#144 = DIRECTION ( 'NONE',  ( 1.000000000000000000, 0.000000000000000000, 0.000000000000000000 ) ) ;
#145 = APPROVAL_PERSON_ORGANIZATION ( #62, #323, #232 ) ;
#146 = CARTESIAN_POINT ( 'NONE',  ( 0.000000000000000000, 0.000000000000000000, -51.29903810567665090 ) ) ;
#147 = VERTEX_POINT ( 'NONE', #45 ) ;
#148 = CIRCLE ( 'NONE', #312, 3.000000000000000000 ) ;
#149 = ORGANIZATION ( 'NEURÈENÝ', 'NEURÈENÝ', '' ) ;
#150 = SECURITY_CLASSIFICATION_LEVEL ( 'unclassified' ) ;
#151 = EDGE_LOOP ( 'NONE', ( #256, #70 ) ) ;
#152 = CC_DESIGN_APPROVAL ( #323, ( #282 ) ) ;
#153 = EDGE_LOOP ( 'NONE', ( #126, #168, #273, #129 ) ) ;
#154 = ORIENTED_EDGE ( 'NONE', *, *, #121, .T. ) ;
#155 = DIRECTION ( 'NONE',  ( -0.000000000000000000, -0.000000000000000000, 1.000000000000000000 ) ) ;
#156 = DIRECTION ( 'NONE',  ( -0.000000000000000000, -0.000000000000000000, 1.000000000000000000 ) ) ;
#157 = CARTESIAN_POINT ( 'NONE',  ( 0.000000000000000000, 0.000000000000000000, 0.000000000000000000 ) ) ;
#158 = PERSON_AND_ORGANIZATION ( #221, #149 ) ;
#159 = DIRECTION ( 'NONE',  ( 1.000000000000000000, 0.000000000000000000, 0.000000000000000000 ) ) ;
#160 = LINE ( 'NONE', #18, #14 ) ;
#161 = DIRECTION ( 'NONE',  ( -0.000000000000000000, -0.000000000000000000, 1.000000000000000000 ) ) ;
#162 = ORIENTED_EDGE ( 'NONE', *, *, #115, .F. ) ;
#163 = AXIS2_PLACEMENT_3D ( 'NONE', #252, #226, #91 ) ;
#164 = CARTESIAN_POINT ( 'NONE',  ( -3.000000000000000000, 3.673940397442059868E-16, -3.000000000000000444 ) ) ;
#165 = EDGE_CURVE ( 'NONE', #122, #104, #32, .T. ) ;
#166 = FACE_OUTER_BOUND ( 'NONE', #186, .T. ) ;
#167 = DIRECTION ( 'NONE',  ( 1.000000000000000000, 0.000000000000000000, 0.000000000000000000 ) ) ;
#168 = ORIENTED_EDGE ( 'NONE', *, *, #50, .T. ) ;
#169 = CARTESIAN_POINT ( 'NONE',  ( 0.000000000000000000, 0.000000000000000000, 0.000000000000000000 ) ) ;
#170 = ADVANCED_FACE ( 'NONE', ( #54 ), #78, .F. ) ;
#171 = ORIENTED_EDGE ( 'NONE', *, *, #307, .T. ) ;
#172 = CLOSED_SHELL ( 'NONE', ( #110, #6, #134, #259, #33, #170, #22, #181, #179, #174, #294 ) ) ;
#173 = LOCAL_TIME ( 9, 59, 53.00000000000000000, #38 ) ;
#174 = ADVANCED_FACE ( 'NONE', ( #268 ), #318, .T. ) ;
#175 = APPROVAL ( #310, 'NEURÈENÝ' ) ;
#176 = CC_DESIGN_DATE_AND_TIME_ASSIGNMENT ( #139, #284, ( #105 ) ) ;
#177 = AXIS2_PLACEMENT_3D ( 'NONE', #234, #135, #114 ) ;
#178 = ORIENTED_EDGE ( 'NONE', *, *, #328, .T. ) ;
#179 = ADVANCED_FACE ( 'NONE', ( #20, #15 ), #243, .T. ) ;
#180 = DIRECTION ( 'NONE',  ( 1.000000000000000000, 0.000000000000000000, 0.000000000000000000 ) ) ;
#181 = ADVANCED_FACE ( 'NONE', ( #334 ), #106, .T. ) ;
#182 = AXIS2_PLACEMENT_3D ( 'NONE', #89, #187, #303 ) ;
#183 = CARTESIAN_POINT ( 'NONE',  ( -0.7500000000000000000, 9.184850993605149670E-17, 0.000000000000000000 ) ) ;
#184 = LINE ( 'NONE', #80, #352 ) ;
#185 = DIRECTION ( 'NONE',  ( -0.5000000000000021094, 6.123233995736791920E-17, 0.8660254037844373753 ) ) ;
#186 = EDGE_LOOP ( 'NONE', ( #17, #330, #72, #230 ) ) ;
#187 = DIRECTION ( 'NONE',  ( -0.000000000000000000, -0.000000000000000000, 1.000000000000000000 ) ) ;
#188 = APPROVAL_STATUS ( 'not_yet_approved' ) ;
#189 = CARTESIAN_POINT ( 'NONE',  ( 0.000000000000000000, 0.000000000000000000, -3.673940397442059868E-16 ) ) ;
#190 = CARTESIAN_POINT ( 'NONE',  ( 0.000000000000000000, 0.000000000000000000, -3.673940397442059868E-16 ) ) ;
#191 = CIRCLE ( 'NONE', #297, 3.000000000000000000 ) ;
#192 = DIRECTION ( 'NONE',  ( 1.000000000000000000, 0.000000000000000000, 0.000000000000000000 ) ) ;
#193 = LINE ( 'NONE', #21, #240 ) ;
#194 = COORDINATED_UNIVERSAL_TIME_OFFSET ( 1, 0, .AHEAD. ) ;
#195 =( LENGTH_UNIT ( ) NAMED_UNIT ( * ) SI_UNIT ( .MILLI., .METRE. ) );
#196 = DIRECTION ( 'NONE',  ( -0.000000000000000000, -0.000000000000000000, 1.000000000000000000 ) ) ;
#197 = COORDINATED_UNIVERSAL_TIME_OFFSET ( 1, 0, .AHEAD. ) ;
#198 = CC_DESIGN_DATE_AND_TIME_ASSIGNMENT ( #35, #5, ( #224 ) ) ;
#199 = AXIS2_PLACEMENT_3D ( 'NONE', #225, #325, #353 ) ;
#200 = AXIS2_PLACEMENT_3D ( 'NONE', #9, #291, #131 ) ;
#201 = DIRECTION ( 'NONE',  ( 1.000000000000000000, 0.000000000000000000, 0.000000000000000000 ) ) ;
#202 = CC_DESIGN_PERSON_AND_ORGANIZATION_ASSIGNMENT ( #289, #237, ( #282 ) ) ;
#203 = PERSON_AND_ORGANIZATION_ROLE ( 'classification_officer' ) ;
#204 = FACE_OUTER_BOUND ( 'NONE', #283, .T. ) ;
#205 = AXIS2_PLACEMENT_3D ( 'NONE', #75, #196, #192 ) ;
#206 = VECTOR ( 'NONE', #132, 1000.000000000000227 ) ;
#207 = ORIENTED_EDGE ( 'NONE', *, *, #103, .F. ) ;
#208 = DATE_AND_TIME ( #311, #306 ) ;
#209 = ORIENTED_EDGE ( 'NONE', *, *, #165, .F. ) ;
#210 = PERSON_AND_ORGANIZATION ( #221, #149 ) ;
#211 = VECTOR ( 'NONE', #111, 1000.000000000000000 ) ;
#212 = EDGE_LOOP ( 'NONE', ( #207, #244 ) ) ;
#213 = DIRECTION ( 'NONE',  ( -0.000000000000000000, -0.000000000000000000, 1.000000000000000000 ) ) ;
#214 = CARTESIAN_POINT ( 'NONE',  ( -1.500000000000000000, 1.836970198721029934E-16, -50.00000000000000000 ) ) ;
#215 = CARTESIAN_POINT ( 'NONE',  ( -3.000000000000000000, 3.673940397442059868E-16, 0.000000000000000000 ) ) ;
#216 = CARTESIAN_POINT ( 'NONE',  ( -3.000000000000000000, 3.673940397442059868E-16, -3.673940397442059868E-16 ) ) ;
#217 = APPROVAL_STATUS ( 'not_yet_approved' ) ;
#218 = CARTESIAN_POINT ( 'NONE',  ( 0.000000000000000000, -3.000000000000000000, -3.000000000000000444 ) ) ;
#219 = DIRECTION ( 'NONE',  ( 1.000000000000000000, 0.000000000000000000, 0.000000000000000000 ) ) ;
#220 = EDGE_CURVE ( 'NONE', #40, #147, #321, .T. ) ;
#221 = PERSON ( 'NEURÈENÝ', 'NEURÈENÝ', 'NEURÈENÝ', ('NEURÈENÝ'), ('NEURÈENÝ'), ('NEURÈENÝ') ) ;
#222 = DIRECTION ( 'NONE',  ( 0.000000000000000000, 0.000000000000000000, 1.000000000000000000 ) ) ;
#223 = ORIENTED_EDGE ( 'NONE', *, *, #281, .T. ) ;
#224 = SECURITY_CLASSIFICATION ( '', '', #150 ) ;
#225 = CARTESIAN_POINT ( 'NONE',  ( 0.000000000000000000, 0.000000000000000000, -50.00000000000000000 ) ) ;
#226 = DIRECTION ( 'NONE',  ( -0.000000000000000000, -0.000000000000000000, 1.000000000000000000 ) ) ;
#227 = CYLINDRICAL_SURFACE ( 'NONE', #331, 0.7500000000000000000 ) ;
#228 = APPROVAL ( #217, 'NEURÈENÝ' ) ;
#229 = APPROVAL_PERSON_ORGANIZATION ( #158, #228, #95 ) ;
#230 = ORIENTED_EDGE ( 'NONE', *, *, #50, .F. ) ;
#231 = PERSON_AND_ORGANIZATION ( #221, #149 ) ;
#232 = APPROVAL_ROLE ( '' ) ;
#233 = CC_DESIGN_APPROVAL ( #175, ( #224 ) ) ;
#234 = CARTESIAN_POINT ( 'NONE',  ( 0.000000000000000000, 0.000000000000000000, -3.000000000000000444 ) ) ;
#235 = EDGE_CURVE ( 'NONE', #147, #104, #184, .T. ) ;
#236 = ORIENTED_EDGE ( 'NONE', *, *, #332, .F. ) ;
#237 = PERSON_AND_ORGANIZATION_ROLE ( 'creator' ) ;
#238 = AXIS2_PLACEMENT_3D ( 'NONE', #107, #156, #180 ) ;
#239 = CONICAL_SURFACE ( 'NONE', #258, 1.500000000000000000, 0.5235987755983013692 ) ;
#240 = VECTOR ( 'NONE', #53, 1000.000000000000000 ) ;
#241 = EDGE_CURVE ( 'NONE', #288, #280, #295, .T. ) ;
#242 = PERSON_AND_ORGANIZATION ( #221, #149 ) ;
#243 = PLANE ( 'NONE',  #308 ) ;
#244 = ORIENTED_EDGE ( 'NONE', *, *, #281, .F. ) ;
#245 = VECTOR ( 'NONE', #185, 1000.000000000000227 ) ;
#246 = EDGE_CURVE ( 'NONE', #280, #147, #117, .T. ) ;
#247 = ORIENTED_EDGE ( 'NONE', *, *, #322, .F. ) ;
#248 = DIRECTION ( 'NONE',  ( 1.000000000000000000, 0.000000000000000000, 0.000000000000000000 ) ) ;
#249 = DIRECTION ( 'NONE',  ( 1.000000000000000000, 0.000000000000000000, 0.000000000000000000 ) ) ;
#250 = CARTESIAN_POINT ( 'NONE',  ( 3.000000000000000000, 0.000000000000000000, -3.000000000000000444 ) ) ;
#251 = AXIS2_PLACEMENT_3D ( 'NONE', #146, #63, #167 ) ;
#252 = CARTESIAN_POINT ( 'NONE',  ( 0.000000000000000000, 0.000000000000000000, -50.00000000000000000 ) ) ;
#253 = CC_DESIGN_PERSON_AND_ORGANIZATION_ASSIGNMENT ( #74, #203, ( #224 ) ) ;
#254 = ORIENTED_EDGE ( 'NONE', *, *, #269, .T. ) ;
#255 = ADVANCED_BREP_SHAPE_REPRESENTATION ( 'a429', ( #26, #58 ), #102 ) ;
#256 = ORIENTED_EDGE ( 'NONE', *, *, #79, .F. ) ;
#257 = CIRCLE ( 'NONE', #302, 0.7500000000000000000 ) ;
#258 = AXIS2_PLACEMENT_3D ( 'NONE', #52, #266, #347 ) ;
#259 = ADVANCED_FACE ( 'NONE', ( #119 ), #227, .F. ) ;
#260 = EDGE_LOOP ( 'NONE', ( #254, #34, #141, #340 ) ) ;
#261 = CYLINDRICAL_SURFACE ( 'NONE', #97, 3.000000000000000000 ) ;
#262 = ORIENTED_EDGE ( 'NONE', *, *, #286, .F. ) ;
#263 = PRODUCT ( 'a429', 'a429', '', ( #65 ) ) ;
#264 = COORDINATED_UNIVERSAL_TIME_OFFSET ( 1, 0, .AHEAD. ) ;
#265 = VERTEX_POINT ( 'NONE', #250 ) ;
#266 = DIRECTION ( 'NONE',  ( -0.000000000000000000, -0.000000000000000000, 1.000000000000000000 ) ) ;
#267 = ORIENTED_EDGE ( 'NONE', *, *, #121, .F. ) ;
#268 = FACE_OUTER_BOUND ( 'NONE', #1, .T. ) ;
#269 = EDGE_CURVE ( 'NONE', #288, #40, #304, .T. ) ;
#270 = AXIS2_PLACEMENT_3D ( 'NONE', #157, #343, #109 ) ;
#271 = CARTESIAN_POINT ( 'NONE',  ( 3.000000000000000000, 0.000000000000000000, 0.000000000000000000 ) ) ;
#272 = DIRECTION ( 'NONE',  ( 1.000000000000000000, 0.000000000000000000, 0.000000000000000000 ) ) ;
#273 = ORIENTED_EDGE ( 'NONE', *, *, #332, .T. ) ;
#274 = ORIENTED_EDGE ( 'NONE', *, *, #314, .F. ) ;
#275 = CALENDAR_DATE ( 2023, 13, 2 ) ;
#276 = VERTEX_POINT ( 'NONE', #278 ) ;
#277 = AXIS2_PLACEMENT_3D ( 'NONE', #81, #296, #159 ) ;
#278 = CARTESIAN_POINT ( 'NONE',  ( 0.7500000000000000000, 0.000000000000000000, -50.00000000000000000 ) ) ;
#279 = ORIENTED_EDGE ( 'NONE', *, *, #269, .F. ) ;
#280 = VERTEX_POINT ( 'NONE', #327 ) ;
#281 = EDGE_CURVE ( 'NONE', #96, #276, #137, .T. ) ;
#282 = PRODUCT_DEFINITION_FORMATION_WITH_SPECIFIED_SOURCE ( 'LIBOVOLNÝ', '', #263, .NOT_KNOWN. ) ;
#283 = EDGE_LOOP ( 'NONE', ( #335, #154, #7, #274 ) ) ;
#284 = DATE_TIME_ROLE ( 'creation_date' ) ;
#285 = FACE_OUTER_BOUND ( 'NONE', #66, .T. ) ;
#286 = EDGE_CURVE ( 'NONE', #124, #333, #191, .T. ) ;
#287 = SHAPE_DEFINITION_REPRESENTATION ( #339, #255 ) ;
#288 = VERTEX_POINT ( 'NONE', #345 ) ;
#289 = PERSON_AND_ORGANIZATION ( #221, #149 ) ;
#290 = CIRCLE ( 'NONE', #98, 3.000000000000000000 ) ;
#291 = DIRECTION ( 'NONE',  ( 0.000000000000000000, -0.000000000000000000, 1.000000000000000000 ) ) ;
#292 = DIRECTION ( 'NONE',  ( -0.000000000000000000, -0.000000000000000000, 1.000000000000000000 ) ) ;
#293 = CARTESIAN_POINT ( 'NONE',  ( 0.000000000000000000, 0.000000000000000000, -3.000000000000000444 ) ) ;
#294 = ADVANCED_FACE ( 'NONE', ( #285 ), #338, .T. ) ;
#295 = LINE ( 'NONE', #71, #206 ) ;
#296 = DIRECTION ( 'NONE',  ( -0.000000000000000000, -0.000000000000000000, 1.000000000000000000 ) ) ;
#297 = AXIS2_PLACEMENT_3D ( 'NONE', #190, #60, #301 ) ;
#298 = APPLICATION_PROTOCOL_DEFINITION ( 'international standard', 'config_control_design', 1994, #68 ) ;
#299 = CARTESIAN_POINT ( 'NONE',  ( -0.7500000000000000000, 9.184850993605149670E-17, -51.29903810567665090 ) ) ;
#300 = CYLINDRICAL_SURFACE ( 'NONE', #205, 1.500000000000000000 ) ;
#301 = DIRECTION ( 'NONE',  ( 1.000000000000000000, 0.000000000000000000, 0.000000000000000000 ) ) ;
#302 = AXIS2_PLACEMENT_3D ( 'NONE', #82, #112, #51 ) ;
#303 = DIRECTION ( 'NONE',  ( 1.000000000000000000, 0.000000000000000000, 0.000000000000000000 ) ) ;
#304 = CIRCLE ( 'NONE', #251, 0.7500000000000000000 ) ;
#305 = CALENDAR_DATE ( 2023, 13, 2 ) ;
#306 = LOCAL_TIME ( 9, 59, 53.00000000000000000, #341 ) ;
#307 = EDGE_CURVE ( 'NONE', #64, #265, #42, .T. ) ;
#308 = AXIS2_PLACEMENT_3D ( 'NONE', #218, #348, #116 ) ;
#309 = ORIENTED_EDGE ( 'NONE', *, *, #57, .T. ) ;
#310 = APPROVAL_STATUS ( 'not_yet_approved' ) ;
#311 = CALENDAR_DATE ( 2023, 13, 2 ) ;
#312 = AXIS2_PLACEMENT_3D ( 'NONE', #342, #213, #272 ) ;
#313 = AXIS2_PLACEMENT_3D ( 'NONE', #355, #292, #201 ) ;
#314 = EDGE_CURVE ( 'NONE', #265, #333, #48, .T. ) ;
#315 = ORIENTED_EDGE ( 'NONE', *, *, #235, .T. ) ;
#316 = DIRECTION ( 'NONE',  ( 1.000000000000000000, 0.000000000000000000, 0.000000000000000000 ) ) ;
#317 = CARTESIAN_POINT ( 'NONE',  ( 1.500000000000000000, 0.000000000000000000, -3.000000000000000444 ) ) ;
#318 = CYLINDRICAL_SURFACE ( 'NONE', #277, 3.000000000000000000 ) ;
#319 = CC_DESIGN_PERSON_AND_ORGANIZATION_ASSIGNMENT ( #210, #43, ( #282 ) ) ;
#320 = CIRCLE ( 'NONE', #182, 1.500000000000000000 ) ;
#321 = LINE ( 'NONE', #214, #245 ) ;
#322 = EDGE_CURVE ( 'NONE', #40, #96, #84, .T. ) ;
#323 = APPROVAL ( #188, 'NEURÈENÝ' ) ;
#324 = PRODUCT_RELATED_PRODUCT_CATEGORY ( 'detail', '', ( #263 ) ) ;
#325 = DIRECTION ( 'NONE',  ( 0.000000000000000000, 0.000000000000000000, -1.000000000000000000 ) ) ;
#326 = CC_DESIGN_PERSON_AND_ORGANIZATION_ASSIGNMENT ( #242, #118, ( #105 ) ) ;
#327 = CARTESIAN_POINT ( 'NONE',  ( 1.500000000000000000, 0.000000000000000000, -50.00000000000000000 ) ) ;
#328 = EDGE_CURVE ( 'NONE', #288, #276, #193, .T. ) ;
#329 = CIRCLE ( 'NONE', #238, 0.7500000000000000000 ) ;
#330 = ORIENTED_EDGE ( 'NONE', *, *, #115, .T. ) ;
#331 = AXIS2_PLACEMENT_3D ( 'NONE', #99, #31, #144 ) ;
#332 = EDGE_CURVE ( 'NONE', #280, #122, #160, .T. ) ;
#333 = VERTEX_POINT ( 'NONE', #90 ) ;
#334 = FACE_OUTER_BOUND ( 'NONE', #153, .T. ) ;
#335 = ORIENTED_EDGE ( 'NONE', *, *, #79, .T. ) ;
#336 = AXIS2_PLACEMENT_3D ( 'NONE', #138, #161, #219 ) ;
#337 = LOCAL_TIME ( 9, 59, 53.00000000000000000, #264 ) ;
#338 = PLANE ( 'NONE',  #200 ) ;
#339 = PRODUCT_DEFINITION_SHAPE ( 'NONE', 'NONE',  #105 ) ;
#340 = ORIENTED_EDGE ( 'NONE', *, *, #241, .F. ) ;
#341 = COORDINATED_UNIVERSAL_TIME_OFFSET ( 1, 0, .AHEAD. ) ;
#342 = CARTESIAN_POINT ( 'NONE',  ( 0.000000000000000000, 0.000000000000000000, -3.000000000000000444 ) ) ;
#343 = DIRECTION ( 'NONE',  ( -0.000000000000000000, -0.000000000000000000, 1.000000000000000000 ) ) ;
#344 = LOCAL_TIME ( 9, 59, 53.00000000000000000, #197 ) ;
#345 = CARTESIAN_POINT ( 'NONE',  ( 0.7500000000000000000, 0.000000000000000000, -51.29903810567665090 ) ) ;
#346 = EDGE_CURVE ( 'NONE', #333, #124, #290, .T. ) ;
#347 = DIRECTION ( 'NONE',  ( 1.000000000000000000, 0.000000000000000000, 0.000000000000000000 ) ) ;
#348 = DIRECTION ( 'NONE',  ( 0.000000000000000000, 0.000000000000000000, -1.000000000000000000 ) ) ;
#349 = ORIENTED_EDGE ( 'NONE', *, *, #314, .T. ) ;
#350 = DIRECTION ( 'NONE',  ( -0.000000000000000000, -0.000000000000000000, 1.000000000000000000 ) ) ;
#351 = FACE_OUTER_BOUND ( 'NONE', #212, .T. ) ;
#352 = VECTOR ( 'NONE', #76, 1000.000000000000000 ) ;
#353 = DIRECTION ( 'NONE',  ( -1.000000000000000000, 0.000000000000000000, -0.000000000000000000 ) ) ;
#354 = ORIENTED_EDGE ( 'NONE', *, *, #165, .T. ) ;
#355 = CARTESIAN_POINT ( 'NONE',  ( 0.000000000000000000, 0.000000000000000000, -50.00000000000000000 ) ) ;
ENDSEC;
END-ISO-10303-21;
