ISO-10303-21;
HEADER;
FILE_DESCRIPTION (( 'STEP AP203' ),
    '1' );
FILE_NAME ('3d7b.STEP',
    '2023-02-13T08:59:14',
    ( '' ),
    ( '' ),
    'SwSTEP 2.0',
    'SolidWorks 2019',
    '' );
FILE_SCHEMA (( 'CONFIG_CONTROL_DESIGN' ));
ENDSEC;

DATA;
#1 = EDGE_CURVE ( 'NONE', #7, #63, #66, .T. ) ;
#2 = CARTESIAN_POINT ( 'NONE',  ( 0.000000000000000000, 0.000000000000000000, -3.673940397442059868E-16 ) ) ;
#3 = AXIS2_PLACEMENT_3D ( 'NONE', #46, #323, #103 ) ;
#4 = COORDINATED_UNIVERSAL_TIME_OFFSET ( 1, 0, .AHEAD. ) ;
#5 = EDGE_LOOP ( 'NONE', ( #30, #332, #140, #81 ) ) ;
#6 = DATE_AND_TIME ( #254, #20 ) ;
#7 = VERTEX_POINT ( 'NONE', #263 ) ;
#8 = AXIS2_PLACEMENT_3D ( 'NONE', #121, #178, #314 ) ;
#9 =( NAMED_UNIT ( * ) SI_UNIT ( $, .STERADIAN. ) SOLID_ANGLE_UNIT ( ) );
#10 = ORIENTED_EDGE ( 'NONE', *, *, #197, .T. ) ;
#11 = ORIENTED_EDGE ( 'NONE', *, *, #243, .F. ) ;
#12 = ORIENTED_EDGE ( 'NONE', *, *, #23, .F. ) ;
#13 = EDGE_CURVE ( 'NONE', #311, #35, #245, .T. ) ;
#14 = CC_DESIGN_APPROVAL ( #275, ( #112 ) ) ;
#15 = DIRECTION ( 'NONE',  ( -0.000000000000000000, -0.000000000000000000, 1.000000000000000000 ) ) ;
#16 = DIRECTION ( 'NONE',  ( 1.000000000000000000, 0.000000000000000000, 0.000000000000000000 ) ) ;
#17 = APPROVAL ( #79, 'NEURÈENÝ' ) ;
#18 = CIRCLE ( 'NONE', #217, 0.7500000000000000000 ) ;
#19 = CARTESIAN_POINT ( 'NONE',  ( 1.500000000000000000, 0.000000000000000000, -3.000000000000000444 ) ) ;
#20 = LOCAL_TIME ( 9, 59, 14.00000000000000000, #133 ) ;
#21 = DIRECTION ( 'NONE',  ( 0.000000000000000000, 0.000000000000000000, -1.000000000000000000 ) ) ;
#22 = DIRECTION ( 'NONE',  ( -0.000000000000000000, -0.000000000000000000, 1.000000000000000000 ) ) ;
#23 = EDGE_CURVE ( 'NONE', #169, #35, #147, .T. ) ;
#24 = DIRECTION ( 'NONE',  ( -0.000000000000000000, -0.000000000000000000, 1.000000000000000000 ) ) ;
#25 = ORGANIZATION ( 'NEURÈENÝ', 'NEURÈENÝ', '' ) ;
#26 = FACE_BOUND ( 'NONE', #261, .T. ) ;
#27 = CARTESIAN_POINT ( 'NONE',  ( 0.7500000000000000000, 0.000000000000000000, -51.29903810567665090 ) ) ;
#28 = DIRECTION ( 'NONE',  ( 1.000000000000000000, 0.000000000000000000, 0.000000000000000000 ) ) ;
#29 = DATE_TIME_ROLE ( 'creation_date' ) ;
#30 = ORIENTED_EDGE ( 'NONE', *, *, #136, .T. ) ;
#31 = APPLICATION_PROTOCOL_DEFINITION ( 'international standard', 'config_control_design', 1994, #179 ) ;
#32 = EDGE_CURVE ( 'NONE', #7, #338, #149, .T. ) ;
#33 = EDGE_LOOP ( 'NONE', ( #210, #307, #161, #269 ) ) ;
#34 = ORIENTED_EDGE ( 'NONE', *, *, #74, .T. ) ;
#35 = VERTEX_POINT ( 'NONE', #116 ) ;
#36 = ORIENTED_EDGE ( 'NONE', *, *, #343, .F. ) ;
#37 = APPROVAL_ROLE ( '' ) ;
#38 = CARTESIAN_POINT ( 'NONE',  ( 0.000000000000000000, 0.000000000000000000, -50.00000000000000000 ) ) ;
#39 = VECTOR ( 'NONE', #271, 1000.000000000000000 ) ;
#40 = CC_DESIGN_PERSON_AND_ORGANIZATION_ASSIGNMENT ( #310, #59, ( #171 ) ) ;
#41 = CYLINDRICAL_SURFACE ( 'NONE', #159, 0.7500000000000000000 ) ;
#42 = CARTESIAN_POINT ( 'NONE',  ( 0.000000000000000000, 0.000000000000000000, -3.673940397442059868E-16 ) ) ;
#43 = DIRECTION ( 'NONE',  ( 1.000000000000000000, 0.000000000000000000, 0.000000000000000000 ) ) ;
#44 = APPLICATION_CONTEXT ( 'configuration controlled 3d designs of mechanical parts and assemblies' ) ;
#45 = LOCAL_TIME ( 9, 59, 14.00000000000000000, #4 ) ;
#46 = CARTESIAN_POINT ( 'NONE',  ( 0.000000000000000000, 0.000000000000000000, -3.000000000000000444 ) ) ;
#47 = FACE_OUTER_BOUND ( 'NONE', #253, .T. ) ;
#48 = DIRECTION ( 'NONE',  ( -0.000000000000000000, -0.000000000000000000, 1.000000000000000000 ) ) ;
#49 = DIRECTION ( 'NONE',  ( -0.000000000000000000, -0.000000000000000000, 1.000000000000000000 ) ) ;
#50 = PRODUCT_DEFINITION ( 'NEZNÁMÝ', '', #171, #206 ) ;
#51 = CARTESIAN_POINT ( 'NONE',  ( 0.000000000000000000, 0.000000000000000000, 0.000000000000000000 ) ) ;
#52 = PERSON_AND_ORGANIZATION_ROLE ( 'design_owner' ) ;
#53 = PERSON_AND_ORGANIZATION ( #344, #25 ) ;
#54 = VECTOR ( 'NONE', #155, 1000.000000000000000 ) ;
#55 = VERTEX_POINT ( 'NONE', #145 ) ;
#56 = EDGE_CURVE ( 'NONE', #183, #338, #346, .T. ) ;
#57 = APPROVAL_STATUS ( 'not_yet_approved' ) ;
#58 = ORIENTED_EDGE ( 'NONE', *, *, #13, .T. ) ;
#59 = PERSON_AND_ORGANIZATION_ROLE ( 'design_supplier' ) ;
#60 = ORIENTED_EDGE ( 'NONE', *, *, #165, .F. ) ;
#61 = ORIENTED_EDGE ( 'NONE', *, *, #1, .T. ) ;
#62 = CIRCLE ( 'NONE', #123, 3.000000000000000000 ) ;
#63 = VERTEX_POINT ( 'NONE', #268 ) ;
#64 = APPROVAL_DATE_TIME ( #117, #275 ) ;
#65 = CARTESIAN_POINT ( 'NONE',  ( 0.7500000000000000000, 0.000000000000000000, 0.000000000000000000 ) ) ;
#66 = LINE ( 'NONE', #234, #109 ) ;
#67 = LOCAL_TIME ( 9, 59, 14.00000000000000000, #337 ) ;
#68 = FACE_OUTER_BOUND ( 'NONE', #309, .T. ) ;
#69 = CALENDAR_DATE ( 2023, 13, 2 ) ;
#70 = CARTESIAN_POINT ( 'NONE',  ( -1.500000000000000000, 1.836970198721029934E-16, 0.000000000000000000 ) ) ;
#71 = DIRECTION ( 'NONE',  ( 1.000000000000000000, 0.000000000000000000, 0.000000000000000000 ) ) ;
#72 = DIRECTION ( 'NONE',  ( 1.000000000000000000, 0.000000000000000000, 0.000000000000000000 ) ) ;
#73 = CARTESIAN_POINT ( 'NONE',  ( 3.000000000000000000, 0.000000000000000000, -3.673940397442059868E-16 ) ) ;
#74 = EDGE_CURVE ( 'NONE', #338, #259, #349, .T. ) ;
#75 = FACE_OUTER_BOUND ( 'NONE', #5, .T. ) ;
#76 = AXIS2_PLACEMENT_3D ( 'NONE', #51, #213, #274 ) ;
#77 = FACE_OUTER_BOUND ( 'NONE', #199, .T. ) ;
#78 = APPLICATION_PROTOCOL_DEFINITION ( 'international standard', 'config_control_design', 1994, #44 ) ;
#79 = APPROVAL_STATUS ( 'not_yet_approved' ) ;
#80 = CIRCLE ( 'NONE', #294, 1.500000000000000000 ) ;
#81 = ORIENTED_EDGE ( 'NONE', *, *, #267, .F. ) ;
#82 = CC_DESIGN_PERSON_AND_ORGANIZATION_ASSIGNMENT ( #306, #160, ( #50 ) ) ;
#83 = PERSON_AND_ORGANIZATION ( #344, #25 ) ;
#84 = CIRCLE ( 'NONE', #151, 1.500000000000000000 ) ;
#85 = VERTEX_POINT ( 'NONE', #19 ) ;
#86 = APPROVAL_DATE_TIME ( #195, #17 ) ;
#87 = ORIENTED_EDGE ( 'NONE', *, *, #56, .T. ) ;
#88 = DATE_AND_TIME ( #226, #162 ) ;
#89 = ORIENTED_EDGE ( 'NONE', *, *, #92, .T. ) ;
#90 = DIRECTION ( 'NONE',  ( -0.000000000000000000, -0.000000000000000000, 1.000000000000000000 ) ) ;
#91 = CARTESIAN_POINT ( 'NONE',  ( -1.500000000000000000, 1.836970198721029934E-16, -3.000000000000000444 ) ) ;
#92 = EDGE_CURVE ( 'NONE', #85, #110, #80, .T. ) ;
#93 = AXIS2_PLACEMENT_3D ( 'NONE', #342, #90, #203 ) ;
#94 = DIRECTION ( 'NONE',  ( -1.000000000000000000, 0.000000000000000000, -0.000000000000000000 ) ) ;
#95 = CIRCLE ( 'NONE', #138, 0.7500000000000000000 ) ;
#96 = MANIFOLD_SOLID_BREP ( 'Rotovat1', #300 ) ;
#97 = DIRECTION ( 'NONE',  ( 1.000000000000000000, 0.000000000000000000, 0.000000000000000000 ) ) ;
#98 = DIRECTION ( 'NONE',  ( 1.000000000000000000, 0.000000000000000000, 0.000000000000000000 ) ) ;
#99 = DIRECTION ( 'NONE',  ( 1.000000000000000000, 0.000000000000000000, 0.000000000000000000 ) ) ;
#100 = AXIS2_PLACEMENT_3D ( 'NONE', #286, #192, #308 ) ;
#101 = DIRECTION ( 'NONE',  ( 1.000000000000000000, 0.000000000000000000, 0.000000000000000000 ) ) ;
#102 = CC_DESIGN_DATE_AND_TIME_ASSIGNMENT ( #88, #29, ( #50 ) ) ;
#103 = DIRECTION ( 'NONE',  ( 1.000000000000000000, 0.000000000000000000, 0.000000000000000000 ) ) ;
#104 = DIRECTION ( 'NONE',  ( -0.000000000000000000, -0.000000000000000000, 1.000000000000000000 ) ) ;
#105 = CIRCLE ( 'NONE', #341, 0.7500000000000000000 ) ;
#106 = DIRECTION ( 'NONE',  ( -1.000000000000000000, 0.000000000000000000, -0.000000000000000000 ) ) ;
#107 = PRODUCT_RELATED_PRODUCT_CATEGORY ( 'detail', '', ( #188 ) ) ;
#108 = ORIENTED_EDGE ( 'NONE', *, *, #224, .F. ) ;
#109 = VECTOR ( 'NONE', #141, 1000.000000000000227 ) ;
#110 = VERTEX_POINT ( 'NONE', #91 ) ;
#111 = APPROVAL_ROLE ( '' ) ;
#112 = SECURITY_CLASSIFICATION ( '', '', #193 ) ;
#113 = CC_DESIGN_PERSON_AND_ORGANIZATION_ASSIGNMENT ( #219, #52, ( #188 ) ) ;
#114 = ORIENTED_EDGE ( 'NONE', *, *, #136, .F. ) ;
#115 = ORIENTED_EDGE ( 'NONE', *, *, #143, .T. ) ;
#116 = CARTESIAN_POINT ( 'NONE',  ( -3.000000000000000000, 3.673940397442059868E-16, -3.673940397442059868E-16 ) ) ;
#117 = DATE_AND_TIME ( #69, #290 ) ;
#118 = DIRECTION ( 'NONE',  ( 1.000000000000000000, 0.000000000000000000, 0.000000000000000000 ) ) ;
#119 = EDGE_CURVE ( 'NONE', #55, #311, #265, .T. ) ;
#120 = COORDINATED_UNIVERSAL_TIME_OFFSET ( 1, 0, .AHEAD. ) ;
#121 = CARTESIAN_POINT ( 'NONE',  ( 0.000000000000000000, 0.000000000000000000, -51.29903810567665090 ) ) ;
#122 = DIRECTION ( 'NONE',  ( -0.000000000000000000, -0.000000000000000000, 1.000000000000000000 ) ) ;
#123 = AXIS2_PLACEMENT_3D ( 'NONE', #2, #22, #72 ) ;
#124 = CARTESIAN_POINT ( 'NONE',  ( 0.000000000000000000, 0.000000000000000000, 0.000000000000000000 ) ) ;
#125 = DIRECTION ( 'NONE',  ( -0.000000000000000000, -0.000000000000000000, 1.000000000000000000 ) ) ;
#126 = ADVANCED_BREP_SHAPE_REPRESENTATION ( '3d7b', ( #96, #316 ), #194 ) ;
#127 = DIRECTION ( 'NONE',  ( 1.000000000000000000, 0.000000000000000000, 0.000000000000000000 ) ) ;
#128 = AXIS2_PLACEMENT_3D ( 'NONE', #296, #328, #106 ) ;
#129 = CARTESIAN_POINT ( 'NONE',  ( 0.000000000000000000, 0.000000000000000000, -3.000000000000000444 ) ) ;
#130 = CARTESIAN_POINT ( 'NONE',  ( 0.000000000000000000, 0.000000000000000000, 0.000000000000000000 ) ) ;
#131 = DIRECTION ( 'NONE',  ( -0.000000000000000000, -0.000000000000000000, 1.000000000000000000 ) ) ;
#132 = ORIENTED_EDGE ( 'NONE', *, *, #325, .F. ) ;
#133 = COORDINATED_UNIVERSAL_TIME_OFFSET ( 1, 0, .AHEAD. ) ;
#134 = DATE_AND_TIME ( #304, #45 ) ;
#135 = ORIENTED_EDGE ( 'NONE', *, *, #32, .T. ) ;
#136 = EDGE_CURVE ( 'NONE', #259, #63, #257, .T. ) ;
#137 = CARTESIAN_POINT ( 'NONE',  ( 0.000000000000000000, 0.000000000000000000, 0.000000000000000000 ) ) ;
#138 = AXIS2_PLACEMENT_3D ( 'NONE', #186, #131, #127 ) ;
#139 = ORIENTED_EDGE ( 'NONE', *, *, #143, .F. ) ;
#140 = ORIENTED_EDGE ( 'NONE', *, *, #92, .F. ) ;
#141 = DIRECTION ( 'NONE',  ( -0.5000000000000021094, 6.123233995736791920E-17, 0.8660254037844373753 ) ) ;
#142 = VECTOR ( 'NONE', #173, 1000.000000000000227 ) ;
#143 = EDGE_CURVE ( 'NONE', #63, #259, #168, .T. ) ;
#144 = AXIS2_PLACEMENT_3D ( 'NONE', #278, #24, #28 ) ;
#145 = CARTESIAN_POINT ( 'NONE',  ( 3.000000000000000000, 0.000000000000000000, -3.000000000000000444 ) ) ;
#146 = DIRECTION ( 'NONE',  ( -0.000000000000000000, -0.000000000000000000, 1.000000000000000000 ) ) ;
#147 = LINE ( 'NONE', #175, #320 ) ;
#148 = ADVANCED_FACE ( 'NONE', ( #68 ), #345, .T. ) ;
#149 = CIRCLE ( 'NONE', #8, 0.7500000000000000000 ) ;
#150 = CARTESIAN_POINT ( 'NONE',  ( 0.000000000000000000, 0.000000000000000000, -3.000000000000000444 ) ) ;
#151 = AXIS2_PLACEMENT_3D ( 'NONE', #129, #157, #71 ) ;
#152 = FACE_OUTER_BOUND ( 'NONE', #201, .T. ) ;
#153 = CARTESIAN_POINT ( 'NONE',  ( 0.000000000000000000, 0.000000000000000000, 0.000000000000000000 ) ) ;
#154 = ADVANCED_FACE ( 'NONE', ( #292 ), #41, .T. ) ;
#155 = DIRECTION ( 'NONE',  ( -0.000000000000000000, -0.000000000000000000, 1.000000000000000000 ) ) ;
#156 = VECTOR ( 'NONE', #299, 1000.000000000000000 ) ;
#157 = DIRECTION ( 'NONE',  ( -0.000000000000000000, -0.000000000000000000, 1.000000000000000000 ) ) ;
#158 = LINE ( 'NONE', #301, #156 ) ;
#159 = AXIS2_PLACEMENT_3D ( 'NONE', #124, #146, #242 ) ;
#160 = PERSON_AND_ORGANIZATION_ROLE ( 'creator' ) ;
#161 = ORIENTED_EDGE ( 'NONE', *, *, #13, .F. ) ;
#162 = LOCAL_TIME ( 9, 59, 14.00000000000000000, #258 ) ;
#163 = PERSON_AND_ORGANIZATION ( #344, #25 ) ;
#164 = ORIENTED_EDGE ( 'NONE', *, *, #343, .T. ) ;
#165 = EDGE_CURVE ( 'NONE', #183, #313, #18, .T. ) ;
#166 = ORIENTED_EDGE ( 'NONE', *, *, #267, .T. ) ;
#167 = PLANE ( 'NONE',  #100 ) ;
#168 = CIRCLE ( 'NONE', #176, 1.500000000000000000 ) ;
#169 = VERTEX_POINT ( 'NONE', #317 ) ;
#170 =( LENGTH_UNIT ( ) NAMED_UNIT ( * ) SI_UNIT ( .MILLI., .METRE. ) );
#171 = PRODUCT_DEFINITION_FORMATION_WITH_SPECIFIED_SOURCE ( 'LIBOVOLNÝ', '', #188, .NOT_KNOWN. ) ;
#172 = ORIENTED_EDGE ( 'NONE', *, *, #56, .F. ) ;
#173 = DIRECTION ( 'NONE',  ( 0.5000000000000021094, 0.000000000000000000, 0.8660254037844373753 ) ) ;
#174 = ADVANCED_FACE ( 'NONE', ( #182 ), #240, .T. ) ;
#175 = CARTESIAN_POINT ( 'NONE',  ( -3.000000000000000000, 3.673940397442059868E-16, 0.000000000000000000 ) ) ;
#176 = AXIS2_PLACEMENT_3D ( 'NONE', #38, #237, #118 ) ;
#177 = APPROVAL_PERSON_ORGANIZATION ( #220, #17, #331 ) ;
#178 = DIRECTION ( 'NONE',  ( -0.000000000000000000, -0.000000000000000000, 1.000000000000000000 ) ) ;
#179 = APPLICATION_CONTEXT ( 'configuration controlled 3d designs of mechanical parts and assemblies' ) ;
#180 = EDGE_CURVE ( 'NONE', #63, #110, #208, .T. ) ;
#181 = PRODUCT_DEFINITION_SHAPE ( 'NONE', 'NONE',  #50 ) ;
#182 = FACE_OUTER_BOUND ( 'NONE', #223, .T. ) ;
#183 = VERTEX_POINT ( 'NONE', #297 ) ;
#184 = FACE_OUTER_BOUND ( 'NONE', #33, .T. ) ;
#185 = CYLINDRICAL_SURFACE ( 'NONE', #302, 1.500000000000000000 ) ;
#186 = CARTESIAN_POINT ( 'NONE',  ( 0.000000000000000000, 0.000000000000000000, -75.00000000000000000 ) ) ;
#187 = VECTOR ( 'NONE', #209, 1000.000000000000000 ) ;
#188 = PRODUCT ( '3d7b', '3d7b', '', ( #260 ) ) ;
#189 = PLANE ( 'NONE',  #128 ) ;
#190 = APPROVAL_PERSON_ORGANIZATION ( #83, #275, #37 ) ;
#191 = CARTESIAN_POINT ( 'NONE',  ( 1.500000000000000000, 0.000000000000000000, -50.00000000000000000 ) ) ;
#192 = DIRECTION ( 'NONE',  ( 0.000000000000000000, -0.000000000000000000, 1.000000000000000000 ) ) ;
#193 = SECURITY_CLASSIFICATION_LEVEL ( 'unclassified' ) ;
#194 =( GEOMETRIC_REPRESENTATION_CONTEXT ( 3 ) GLOBAL_UNCERTAINTY_ASSIGNED_CONTEXT ( ( #231 ) ) GLOBAL_UNIT_ASSIGNED_CONTEXT ( ( #170, #252, #9 ) ) REPRESENTATION_CONTEXT ( 'NONE', 'WORKASPACE' ) );
#195 = DATE_AND_TIME ( #200, #67 ) ;
#196 = ORIENTED_EDGE ( 'NONE', *, *, #215, .F. ) ;
#197 = EDGE_CURVE ( 'NONE', #35, #311, #62, .T. ) ;
#198 = PERSON_AND_ORGANIZATION_ROLE ( 'creator' ) ;
#199 = EDGE_LOOP ( 'NONE', ( #312, #61, #114, #241 ) ) ;
#200 = CALENDAR_DATE ( 2023, 13, 2 ) ;
#201 = EDGE_LOOP ( 'NONE', ( #202, #115, #166, #132 ) ) ;
#202 = ORIENTED_EDGE ( 'NONE', *, *, #180, .F. ) ;
#203 = DIRECTION ( 'NONE',  ( 1.000000000000000000, 0.000000000000000000, 0.000000000000000000 ) ) ;
#204 = CARTESIAN_POINT ( 'NONE',  ( 0.000000000000000000, 0.000000000000000000, -75.00000000000000000 ) ) ;
#205 = EDGE_CURVE ( 'NONE', #313, #7, #158, .T. ) ;
#206 = DESIGN_CONTEXT ( 'detailed design', #44, 'design' ) ;
#207 = DIRECTION ( 'NONE',  ( -0.000000000000000000, -0.000000000000000000, 1.000000000000000000 ) ) ;
#208 = LINE ( 'NONE', #70, #39 ) ;
#209 = DIRECTION ( 'NONE',  ( -0.000000000000000000, -0.000000000000000000, 1.000000000000000000 ) ) ;
#210 = ORIENTED_EDGE ( 'NONE', *, *, #224, .T. ) ;
#211 = FACE_OUTER_BOUND ( 'NONE', #334, .T. ) ;
#212 = CC_DESIGN_SECURITY_CLASSIFICATION ( #112, ( #171 ) ) ;
#213 = DIRECTION ( 'NONE',  ( -0.000000000000000000, -0.000000000000000000, 1.000000000000000000 ) ) ;
#214 = FACE_OUTER_BOUND ( 'NONE', #227, .T. ) ;
#215 = EDGE_CURVE ( 'NONE', #338, #7, #105, .T. ) ;
#216 = CARTESIAN_POINT ( 'NONE',  ( 0.000000000000000000, 0.000000000000000000, -51.29903810567665090 ) ) ;
#217 = AXIS2_PLACEMENT_3D ( 'NONE', #266, #207, #43 ) ;
#218 = CC_DESIGN_APPROVAL ( #255, ( #50 ) ) ;
#219 = PERSON_AND_ORGANIZATION ( #344, #25 ) ;
#220 = PERSON_AND_ORGANIZATION ( #344, #25 ) ;
#221 = ORIENTED_EDGE ( 'NONE', *, *, #197, .F. ) ;
#222 = DATE_TIME_ROLE ( 'classification_date' ) ;
#223 = EDGE_LOOP ( 'NONE', ( #287, #339, #196, #172 ) ) ;
#224 = EDGE_CURVE ( 'NONE', #55, #169, #225, .T. ) ;
#225 = CIRCLE ( 'NONE', #3, 3.000000000000000000 ) ;
#226 = CALENDAR_DATE ( 2023, 13, 2 ) ;
#227 = EDGE_LOOP ( 'NONE', ( #12, #164, #232, #221 ) ) ;
#228 = PERSON_AND_ORGANIZATION ( #344, #25 ) ;
#229 = EDGE_LOOP ( 'NONE', ( #108, #36 ) ) ;
#230 = ADVANCED_FACE ( 'NONE', ( #75 ), #185, .T. ) ;
#231 = UNCERTAINTY_MEASURE_WITH_UNIT (LENGTH_MEASURE( 1.000000000000000082E-05 ), #170, 'distance_accuracy_value', 'NONE');
#232 = ORIENTED_EDGE ( 'NONE', *, *, #119, .T. ) ;
#233 = CARTESIAN_POINT ( 'NONE',  ( 3.000000000000000000, 0.000000000000000000, 0.000000000000000000 ) ) ;
#234 = CARTESIAN_POINT ( 'NONE',  ( -1.500000000000000000, 1.836970198721029934E-16, -50.00000000000000000 ) ) ;
#235 = ADVANCED_FACE ( 'NONE', ( #47 ), #239, .T. ) ;
#236 = SHAPE_DEFINITION_REPRESENTATION ( #181, #126 ) ;
#237 = DIRECTION ( 'NONE',  ( -0.000000000000000000, -0.000000000000000000, 1.000000000000000000 ) ) ;
#238 = AXIS2_PLACEMENT_3D ( 'NONE', #42, #289, #98 ) ;
#239 = CONICAL_SURFACE ( 'NONE', #144, 1.500000000000000000, 0.5235987755983013692 ) ;
#240 = CYLINDRICAL_SURFACE ( 'NONE', #270, 0.7500000000000000000 ) ;
#241 = ORIENTED_EDGE ( 'NONE', *, *, #74, .F. ) ;
#242 = DIRECTION ( 'NONE',  ( 1.000000000000000000, 0.000000000000000000, 0.000000000000000000 ) ) ;
#243 = EDGE_CURVE ( 'NONE', #313, #183, #95, .T. ) ;
#244 = CYLINDRICAL_SURFACE ( 'NONE', #335, 1.500000000000000000 ) ;
#245 = CIRCLE ( 'NONE', #238, 3.000000000000000000 ) ;
#246 = CARTESIAN_POINT ( 'NONE',  ( 1.500000000000000000, 0.000000000000000000, 0.000000000000000000 ) ) ;
#247 = AXIS2_PLACEMENT_3D ( 'NONE', #354, #352, #101 ) ;
#248 = CARTESIAN_POINT ( 'NONE',  ( 0.000000000000000000, 0.000000000000000000, -3.000000000000000444 ) ) ;
#249 = DIRECTION ( 'NONE',  ( 1.000000000000000000, 0.000000000000000000, 0.000000000000000000 ) ) ;
#250 = CARTESIAN_POINT ( 'NONE',  ( -0.7500000000000000000, 9.184850993605149670E-17, -75.00000000000000000 ) ) ;
#251 = CONICAL_SURFACE ( 'NONE', #247, 1.500000000000000000, 0.5235987755983013692 ) ;
#252 =( NAMED_UNIT ( * ) PLANE_ANGLE_UNIT ( ) SI_UNIT ( $, .RADIAN. ) );
#253 = EDGE_LOOP ( 'NONE', ( #256, #135, #34, #139 ) ) ;
#254 = CALENDAR_DATE ( 2023, 13, 2 ) ;
#255 = APPROVAL ( #330, 'NEURÈENÝ' ) ;
#256 = ORIENTED_EDGE ( 'NONE', *, *, #1, .F. ) ;
#257 = CIRCLE ( 'NONE', #93, 1.500000000000000000 ) ;
#258 = COORDINATED_UNIVERSAL_TIME_OFFSET ( 1, 0, .AHEAD. ) ;
#259 = VERTEX_POINT ( 'NONE', #191 ) ;
#260 = MECHANICAL_CONTEXT ( 'NONE', #179, 'mechanical' ) ;
#261 = EDGE_LOOP ( 'NONE', ( #89, #283 ) ) ;
#262 = DIRECTION ( 'NONE',  ( 0.000000000000000000, 0.000000000000000000, 1.000000000000000000 ) ) ;
#263 = CARTESIAN_POINT ( 'NONE',  ( -0.7500000000000000000, 9.184850993605149670E-17, -51.29903810567665090 ) ) ;
#264 = AXIS2_PLACEMENT_3D ( 'NONE', #248, #272, #351 ) ;
#265 = LINE ( 'NONE', #233, #327 ) ;
#266 = CARTESIAN_POINT ( 'NONE',  ( 0.000000000000000000, 0.000000000000000000, -75.00000000000000000 ) ) ;
#267 = EDGE_CURVE ( 'NONE', #259, #85, #303, .T. ) ;
#268 = CARTESIAN_POINT ( 'NONE',  ( -1.500000000000000000, 1.836970198721029934E-16, -50.00000000000000000 ) ) ;
#269 = ORIENTED_EDGE ( 'NONE', *, *, #119, .F. ) ;
#270 = AXIS2_PLACEMENT_3D ( 'NONE', #293, #122, #97 ) ;
#271 = DIRECTION ( 'NONE',  ( -0.000000000000000000, -0.000000000000000000, 1.000000000000000000 ) ) ;
#272 = DIRECTION ( 'NONE',  ( -0.000000000000000000, -0.000000000000000000, 1.000000000000000000 ) ) ;
#273 = DIRECTION ( 'NONE',  ( 1.000000000000000000, 0.000000000000000000, 0.000000000000000000 ) ) ;
#274 = DIRECTION ( 'NONE',  ( 1.000000000000000000, 0.000000000000000000, 0.000000000000000000 ) ) ;
#275 = APPROVAL ( #57, 'NEURÈENÝ' ) ;
#276 = CC_DESIGN_APPROVAL ( #17, ( #171 ) ) ;
#277 = CYLINDRICAL_SURFACE ( 'NONE', #322, 3.000000000000000000 ) ;
#278 = CARTESIAN_POINT ( 'NONE',  ( 0.000000000000000000, 0.000000000000000000, -50.00000000000000000 ) ) ;
#279 = DIRECTION ( 'NONE',  ( 1.000000000000000000, 0.000000000000000000, 0.000000000000000000 ) ) ;
#280 = ORIENTED_EDGE ( 'NONE', *, *, #32, .F. ) ;
#281 = PERSON_AND_ORGANIZATION_ROLE ( 'classification_officer' ) ;
#282 = ORIENTED_EDGE ( 'NONE', *, *, #243, .T. ) ;
#283 = ORIENTED_EDGE ( 'NONE', *, *, #325, .T. ) ;
#284 = CC_DESIGN_DATE_AND_TIME_ASSIGNMENT ( #6, #222, ( #112 ) ) ;
#285 = CIRCLE ( 'NONE', #264, 3.000000000000000000 ) ;
#286 = CARTESIAN_POINT ( 'NONE',  ( 0.000000000000000000, 0.000000000000000000, -1.836970198721029934E-16 ) ) ;
#287 = ORIENTED_EDGE ( 'NONE', *, *, #165, .T. ) ;
#288 = CARTESIAN_POINT ( 'NONE',  ( 1.500000000000000000, 0.000000000000000000, -50.00000000000000000 ) ) ;
#289 = DIRECTION ( 'NONE',  ( -0.000000000000000000, -0.000000000000000000, 1.000000000000000000 ) ) ;
#290 = LOCAL_TIME ( 9, 59, 14.00000000000000000, #120 ) ;
#291 = ADVANCED_FACE ( 'NONE', ( #77 ), #251, .T. ) ;
#292 = FACE_OUTER_BOUND ( 'NONE', #348, .T. ) ;
#293 = CARTESIAN_POINT ( 'NONE',  ( 0.000000000000000000, 0.000000000000000000, 0.000000000000000000 ) ) ;
#294 = AXIS2_PLACEMENT_3D ( 'NONE', #150, #319, #16 ) ;
#295 = ADVANCED_FACE ( 'NONE', ( #184 ), #355, .T. ) ;
#296 = CARTESIAN_POINT ( 'NONE',  ( 0.000000000000000000, -3.000000000000000000, -3.000000000000000444 ) ) ;
#297 = CARTESIAN_POINT ( 'NONE',  ( 0.7500000000000000000, 0.000000000000000000, -75.00000000000000000 ) ) ;
#298 = ADVANCED_FACE ( 'NONE', ( #214 ), #277, .T. ) ;
#299 = DIRECTION ( 'NONE',  ( -0.000000000000000000, -0.000000000000000000, 1.000000000000000000 ) ) ;
#300 = CLOSED_SHELL ( 'NONE', ( #295, #230, #291, #174, #148, #154, #235, #305, #318, #298, #353 ) ) ;
#301 = CARTESIAN_POINT ( 'NONE',  ( -0.7500000000000000000, 9.184850993605149670E-17, 0.000000000000000000 ) ) ;
#302 = AXIS2_PLACEMENT_3D ( 'NONE', #153, #48, #273 ) ;
#303 = LINE ( 'NONE', #246, #54 ) ;
#304 = CALENDAR_DATE ( 2023, 13, 2 ) ;
#305 = ADVANCED_FACE ( 'NONE', ( #152 ), #244, .T. ) ;
#306 = PERSON_AND_ORGANIZATION ( #344, #25 ) ;
#307 = ORIENTED_EDGE ( 'NONE', *, *, #23, .T. ) ;
#308 = DIRECTION ( 'NONE',  ( 1.000000000000000000, 0.000000000000000000, 0.000000000000000000 ) ) ;
#309 = EDGE_LOOP ( 'NONE', ( #60, #11 ) ) ;
#310 = PERSON_AND_ORGANIZATION ( #344, #25 ) ;
#311 = VERTEX_POINT ( 'NONE', #73 ) ;
#312 = ORIENTED_EDGE ( 'NONE', *, *, #215, .T. ) ;
#313 = VERTEX_POINT ( 'NONE', #250 ) ;
#314 = DIRECTION ( 'NONE',  ( 1.000000000000000000, 0.000000000000000000, 0.000000000000000000 ) ) ;
#315 = DIRECTION ( 'NONE',  ( -0.000000000000000000, -0.000000000000000000, 1.000000000000000000 ) ) ;
#316 = AXIS2_PLACEMENT_3D ( 'NONE', #137, #262, #279 ) ;
#317 = CARTESIAN_POINT ( 'NONE',  ( -3.000000000000000000, 3.673940397442059868E-16, -3.000000000000000444 ) ) ;
#318 = ADVANCED_FACE ( 'NONE', ( #26, #326 ), #189, .T. ) ;
#319 = DIRECTION ( 'NONE',  ( -0.000000000000000000, -0.000000000000000000, 1.000000000000000000 ) ) ;
#320 = VECTOR ( 'NONE', #15, 1000.000000000000000 ) ;
#321 = CARTESIAN_POINT ( 'NONE',  ( 0.000000000000000000, 0.000000000000000000, 0.000000000000000000 ) ) ;
#322 = AXIS2_PLACEMENT_3D ( 'NONE', #130, #125, #324 ) ;
#323 = DIRECTION ( 'NONE',  ( -0.000000000000000000, -0.000000000000000000, 1.000000000000000000 ) ) ;
#324 = DIRECTION ( 'NONE',  ( 1.000000000000000000, 0.000000000000000000, 0.000000000000000000 ) ) ;
#325 = EDGE_CURVE ( 'NONE', #110, #85, #84, .T. ) ;
#326 = FACE_OUTER_BOUND ( 'NONE', #229, .T. ) ;
#327 = VECTOR ( 'NONE', #315, 1000.000000000000000 ) ;
#328 = DIRECTION ( 'NONE',  ( 0.000000000000000000, 0.000000000000000000, -1.000000000000000000 ) ) ;
#329 = APPROVAL_PERSON_ORGANIZATION ( #228, #255, #111 ) ;
#330 = APPROVAL_STATUS ( 'not_yet_approved' ) ;
#331 = APPROVAL_ROLE ( '' ) ;
#332 = ORIENTED_EDGE ( 'NONE', *, *, #180, .T. ) ;
#333 = APPROVAL_DATE_TIME ( #134, #255 ) ;
#334 = EDGE_LOOP ( 'NONE', ( #58, #10 ) ) ;
#335 = AXIS2_PLACEMENT_3D ( 'NONE', #321, #104, #99 ) ;
#336 = CC_DESIGN_PERSON_AND_ORGANIZATION_ASSIGNMENT ( #163, #281, ( #112 ) ) ;
#337 = COORDINATED_UNIVERSAL_TIME_OFFSET ( 1, 0, .AHEAD. ) ;
#338 = VERTEX_POINT ( 'NONE', #27 ) ;
#339 = ORIENTED_EDGE ( 'NONE', *, *, #205, .T. ) ;
#340 = ORIENTED_EDGE ( 'NONE', *, *, #205, .F. ) ;
#341 = AXIS2_PLACEMENT_3D ( 'NONE', #216, #49, #249 ) ;
#342 = CARTESIAN_POINT ( 'NONE',  ( 0.000000000000000000, 0.000000000000000000, -50.00000000000000000 ) ) ;
#343 = EDGE_CURVE ( 'NONE', #169, #55, #285, .T. ) ;
#344 = PERSON ( 'NEURÈENÝ', 'NEURÈENÝ', 'NEURÈENÝ', ('NEURÈENÝ'), ('NEURÈENÝ'), ('NEURÈENÝ') ) ;
#345 = PLANE ( 'NONE',  #350 ) ;
#346 = LINE ( 'NONE', #65, #187 ) ;
#347 = CC_DESIGN_PERSON_AND_ORGANIZATION_ASSIGNMENT ( #53, #198, ( #171 ) ) ;
#348 = EDGE_LOOP ( 'NONE', ( #340, #282, #87, #280 ) ) ;
#349 = LINE ( 'NONE', #288, #142 ) ;
#350 = AXIS2_PLACEMENT_3D ( 'NONE', #204, #21, #94 ) ;
#351 = DIRECTION ( 'NONE',  ( 1.000000000000000000, 0.000000000000000000, 0.000000000000000000 ) ) ;
#352 = DIRECTION ( 'NONE',  ( -0.000000000000000000, -0.000000000000000000, 1.000000000000000000 ) ) ;
#353 = ADVANCED_FACE ( 'NONE', ( #211 ), #167, .T. ) ;
#354 = CARTESIAN_POINT ( 'NONE',  ( 0.000000000000000000, 0.000000000000000000, -50.00000000000000000 ) ) ;
#355 = CYLINDRICAL_SURFACE ( 'NONE', #76, 3.000000000000000000 ) ;
ENDSEC;
END-ISO-10303-21;
