ISO-10303-21;
HEADER;
FILE_DESCRIPTION (( 'STEP AP203' ),
    '1' );
FILE_NAME ('e120.STEP',
    '2023-02-13T08:57:16',
    ( '' ),
    ( '' ),
    'SwSTEP 2.0',
    'SolidWorks 2019',
    '' );
FILE_SCHEMA (( 'CONFIG_CONTROL_DESIGN' ));
ENDSEC;

DATA;
#1 = CLOSED_SHELL ( 'NONE', ( #31, #172, #246, #259, #79, #122, #161, #218, #350, #53, #174 ) ) ;
#2 = ORIENTED_EDGE ( 'NONE', *, *, #278, .T. ) ;
#3 = AXIS2_PLACEMENT_3D ( 'NONE', #150, #76, #103 ) ;
#4 = APPROVAL_PERSON_ORGANIZATION ( #337, #296, #58 ) ;
#5 = PLANE ( 'NONE',  #175 ) ;
#6 = CC_DESIGN_DATE_AND_TIME_ASSIGNMENT ( #132, #236, ( #248 ) ) ;
#7 = DIRECTION ( 'NONE',  ( -0.000000000000000000, -0.000000000000000000, 1.000000000000000000 ) ) ;
#8 = VERTEX_POINT ( 'NONE', #230 ) ;
#9 = CYLINDRICAL_SURFACE ( 'NONE', #352, 1.500000000000000000 ) ;
#10 = DIRECTION ( 'NONE',  ( 0.000000000000000000, 0.000000000000000000, 1.000000000000000000 ) ) ;
#11 = CC_DESIGN_APPROVAL ( #296, ( #20 ) ) ;
#12 = ORIENTED_EDGE ( 'NONE', *, *, #206, .T. ) ;
#13 = PERSON_AND_ORGANIZATION ( #169, #170 ) ;
#14 = CARTESIAN_POINT ( 'NONE',  ( 1.500000000000000000, 0.000000000000000000, -100.0000000000000000 ) ) ;
#15 = ORIENTED_EDGE ( 'NONE', *, *, #329, .F. ) ;
#16 = CIRCLE ( 'NONE', #241, 1.500000000000000000 ) ;
#17 = VERTEX_POINT ( 'NONE', #264 ) ;
#18 = EDGE_CURVE ( 'NONE', #308, #37, #284, .T. ) ;
#19 = DIRECTION ( 'NONE',  ( -0.000000000000000000, -0.000000000000000000, 1.000000000000000000 ) ) ;
#20 = PRODUCT_DEFINITION_FORMATION_WITH_SPECIFIED_SOURCE ( 'LIBOVOLNÝ', '', #123, .NOT_KNOWN. ) ;
#21 = PERSON_AND_ORGANIZATION ( #169, #170 ) ;
#22 = CARTESIAN_POINT ( 'NONE',  ( 0.000000000000000000, 0.000000000000000000, 0.000000000000000000 ) ) ;
#23 = DIRECTION ( 'NONE',  ( -0.000000000000000000, -0.000000000000000000, 1.000000000000000000 ) ) ;
#24 = CARTESIAN_POINT ( 'NONE',  ( 0.000000000000000000, 0.000000000000000000, -150.0000000000000000 ) ) ;
#25 = CIRCLE ( 'NONE', #222, 3.000000000000000000 ) ;
#26 = DIRECTION ( 'NONE',  ( -1.000000000000000000, 0.000000000000000000, -0.000000000000000000 ) ) ;
#27 = CARTESIAN_POINT ( 'NONE',  ( 0.000000000000000000, 0.000000000000000000, 0.000000000000000000 ) ) ;
#28 = SECURITY_CLASSIFICATION_LEVEL ( 'unclassified' ) ;
#29 = LINE ( 'NONE', #294, #314 ) ;
#30 = VECTOR ( 'NONE', #307, 1000.000000000000000 ) ;
#31 = ADVANCED_FACE ( 'NONE', ( #43 ), #200, .T. ) ;
#32 = VERTEX_POINT ( 'NONE', #242 ) ;
#33 = CARTESIAN_POINT ( 'NONE',  ( 0.000000000000000000, 0.000000000000000000, -101.2990381056766580 ) ) ;
#34 = APPROVAL_STATUS ( 'not_yet_approved' ) ;
#35 = CARTESIAN_POINT ( 'NONE',  ( 0.000000000000000000, 0.000000000000000000, -100.0000000000000000 ) ) ;
#36 =( NAMED_UNIT ( * ) SI_UNIT ( $, .STERADIAN. ) SOLID_ANGLE_UNIT ( ) );
#37 = VERTEX_POINT ( 'NONE', #328 ) ;
#38 = CC_DESIGN_PERSON_AND_ORGANIZATION_ASSIGNMENT ( #239, #326, ( #123 ) ) ;
#39 = DIRECTION ( 'NONE',  ( -0.000000000000000000, -0.000000000000000000, 1.000000000000000000 ) ) ;
#40 = EDGE_LOOP ( 'NONE', ( #88, #280, #130, #195 ) ) ;
#41 = DIRECTION ( 'NONE',  ( -0.000000000000000000, -0.000000000000000000, 1.000000000000000000 ) ) ;
#42 = ORIENTED_EDGE ( 'NONE', *, *, #271, .T. ) ;
#43 = FACE_OUTER_BOUND ( 'NONE', #135, .T. ) ;
#44 = APPROVAL_PERSON_ORGANIZATION ( #21, #334, #80 ) ;
#45 = CARTESIAN_POINT ( 'NONE',  ( -1.500000000000000000, 1.836970198721029934E-16, -100.0000000000000000 ) ) ;
#46 = EDGE_CURVE ( 'NONE', #32, #8, #131, .T. ) ;
#47 = EDGE_LOOP ( 'NONE', ( #266, #341, #283, #147 ) ) ;
#48 = APPROVAL_STATUS ( 'not_yet_approved' ) ;
#49 = PLANE ( 'NONE',  #333 ) ;
#50 = DIRECTION ( 'NONE',  ( -0.5000000000000021094, 6.123233995736791920E-17, 0.8660254037844373753 ) ) ;
#51 = AXIS2_PLACEMENT_3D ( 'NONE', #33, #301, #340 ) ;
#52 = ADVANCED_BREP_SHAPE_REPRESENTATION ( 'e120', ( #83, #231 ), #320 ) ;
#53 = ADVANCED_FACE ( 'NONE', ( #234 ), #187, .T. ) ;
#54 = APPLICATION_PROTOCOL_DEFINITION ( 'international standard', 'config_control_design', 1994, #189 ) ;
#55 = ORIENTED_EDGE ( 'NONE', *, *, #265, .T. ) ;
#56 = DIRECTION ( 'NONE',  ( 1.000000000000000000, 0.000000000000000000, 0.000000000000000000 ) ) ;
#57 = ORIENTED_EDGE ( 'NONE', *, *, #203, .T. ) ;
#58 = APPROVAL_ROLE ( '' ) ;
#59 = AXIS2_PLACEMENT_3D ( 'NONE', #204, #39, #78 ) ;
#60 = APPROVAL_STATUS ( 'not_yet_approved' ) ;
#61 = LOCAL_TIME ( 9, 57, 16.00000000000000000, #62 ) ;
#62 = COORDINATED_UNIVERSAL_TIME_OFFSET ( 1, 0, .AHEAD. ) ;
#63 = CIRCLE ( 'NONE', #288, 0.7500000000000000000 ) ;
#64 = CC_DESIGN_PERSON_AND_ORGANIZATION_ASSIGNMENT ( #109, #85, ( #248 ) ) ;
#65 = LINE ( 'NONE', #217, #319 ) ;
#66 = ORIENTED_EDGE ( 'NONE', *, *, #290, .T. ) ;
#67 = CIRCLE ( 'NONE', #325, 3.000000000000000000 ) ;
#68 = EDGE_CURVE ( 'NONE', #17, #143, #29, .T. ) ;
#69 = FACE_OUTER_BOUND ( 'NONE', #139, .T. ) ;
#70 = ORIENTED_EDGE ( 'NONE', *, *, #232, .T. ) ;
#71 = EDGE_CURVE ( 'NONE', #308, #124, #298, .T. ) ;
#72 = CARTESIAN_POINT ( 'NONE',  ( 3.000000000000000000, 0.000000000000000000, -3.673940397442059868E-16 ) ) ;
#73 = ORIENTED_EDGE ( 'NONE', *, *, #300, .T. ) ;
#74 = DIRECTION ( 'NONE',  ( -0.000000000000000000, -0.000000000000000000, 1.000000000000000000 ) ) ;
#75 = AXIS2_PLACEMENT_3D ( 'NONE', #225, #125, #317 ) ;
#76 = DIRECTION ( 'NONE',  ( -0.000000000000000000, -0.000000000000000000, 1.000000000000000000 ) ) ;
#77 = CARTESIAN_POINT ( 'NONE',  ( 0.7500000000000000000, 0.000000000000000000, 0.000000000000000000 ) ) ;
#78 = DIRECTION ( 'NONE',  ( 1.000000000000000000, 0.000000000000000000, 0.000000000000000000 ) ) ;
#79 = ADVANCED_FACE ( 'NONE', ( #82 ), #49, .T. ) ;
#80 = APPROVAL_ROLE ( '' ) ;
#81 = CONICAL_SURFACE ( 'NONE', #110, 1.500000000000000000, 0.5235987755983013692 ) ;
#82 = FACE_OUTER_BOUND ( 'NONE', #151, .T. ) ;
#83 = MANIFOLD_SOLID_BREP ( 'Rotovat1', #1 ) ;
#84 = LOCAL_TIME ( 9, 57, 16.00000000000000000, #353 ) ;
#85 = PERSON_AND_ORGANIZATION_ROLE ( 'creator' ) ;
#86 = ORIENTED_EDGE ( 'NONE', *, *, #185, .F. ) ;
#87 = EDGE_CURVE ( 'NONE', #8, #32, #16, .T. ) ;
#88 = ORIENTED_EDGE ( 'NONE', *, *, #71, .T. ) ;
#89 = CARTESIAN_POINT ( 'NONE',  ( 0.000000000000000000, 0.000000000000000000, -3.000000000000000444 ) ) ;
#90 = APPLICATION_CONTEXT ( 'configuration controlled 3d designs of mechanical parts and assemblies' ) ;
#91 = DIRECTION ( 'NONE',  ( 1.000000000000000000, 0.000000000000000000, 0.000000000000000000 ) ) ;
#92 = DIRECTION ( 'NONE',  ( 1.000000000000000000, 0.000000000000000000, 0.000000000000000000 ) ) ;
#93 = CYLINDRICAL_SURFACE ( 'NONE', #344, 1.500000000000000000 ) ;
#94 = AXIS2_PLACEMENT_3D ( 'NONE', #261, #129, #321 ) ;
#95 = LINE ( 'NONE', #272, #30 ) ;
#96 = ORIENTED_EDGE ( 'NONE', *, *, #265, .F. ) ;
#97 = CARTESIAN_POINT ( 'NONE',  ( 0.000000000000000000, 0.000000000000000000, 0.000000000000000000 ) ) ;
#98 = ORIENTED_EDGE ( 'NONE', *, *, #68, .F. ) ;
#99 = CARTESIAN_POINT ( 'NONE',  ( 0.7500000000000000000, 0.000000000000000000, -150.0000000000000000 ) ) ;
#100 = SECURITY_CLASSIFICATION ( '', '', #28 ) ;
#101 = CARTESIAN_POINT ( 'NONE',  ( 1.500000000000000000, 0.000000000000000000, -100.0000000000000000 ) ) ;
#102 = VERTEX_POINT ( 'NONE', #181 ) ;
#103 = DIRECTION ( 'NONE',  ( 1.000000000000000000, 0.000000000000000000, 0.000000000000000000 ) ) ;
#104 = ORIENTED_EDGE ( 'NONE', *, *, #331, .T. ) ;
#105 = CALENDAR_DATE ( 2023, 13, 2 ) ;
#106 = CIRCLE ( 'NONE', #3, 0.7500000000000000000 ) ;
#107 = DIRECTION ( 'NONE',  ( -0.000000000000000000, -0.000000000000000000, 1.000000000000000000 ) ) ;
#108 = DIRECTION ( 'NONE',  ( -0.000000000000000000, -0.000000000000000000, 1.000000000000000000 ) ) ;
#109 = PERSON_AND_ORGANIZATION ( #169, #170 ) ;
#110 = AXIS2_PLACEMENT_3D ( 'NONE', #35, #336, #243 ) ;
#111 = CARTESIAN_POINT ( 'NONE',  ( 0.000000000000000000, 0.000000000000000000, 0.000000000000000000 ) ) ;
#112 = ORIENTED_EDGE ( 'NONE', *, *, #329, .T. ) ;
#113 = DIRECTION ( 'NONE',  ( -0.000000000000000000, -0.000000000000000000, 1.000000000000000000 ) ) ;
#114 = PERSON_AND_ORGANIZATION_ROLE ( 'design_supplier' ) ;
#115 = LOCAL_TIME ( 9, 57, 16.00000000000000000, #183 ) ;
#116 = DIRECTION ( 'NONE',  ( -0.000000000000000000, -0.000000000000000000, 1.000000000000000000 ) ) ;
#117 = EDGE_CURVE ( 'NONE', #124, #308, #63, .T. ) ;
#118 = DIRECTION ( 'NONE',  ( 1.000000000000000000, 0.000000000000000000, 0.000000000000000000 ) ) ;
#119 = PRODUCT_RELATED_PRODUCT_CATEGORY ( 'detail', '', ( #123 ) ) ;
#120 = DIRECTION ( 'NONE',  ( -0.000000000000000000, -0.000000000000000000, 1.000000000000000000 ) ) ;
#121 = DIRECTION ( 'NONE',  ( 0.000000000000000000, -0.000000000000000000, 1.000000000000000000 ) ) ;
#122 = ADVANCED_FACE ( 'NONE', ( #240 ), #297, .T. ) ;
#123 = PRODUCT ( 'e120', 'e120', '', ( #199 ) ) ;
#124 = VERTEX_POINT ( 'NONE', #162 ) ;
#125 = DIRECTION ( 'NONE',  ( 0.000000000000000000, 0.000000000000000000, -1.000000000000000000 ) ) ;
#126 = AXIS2_PLACEMENT_3D ( 'NONE', #343, #41, #315 ) ;
#127 = DATE_TIME_ROLE ( 'classification_date' ) ;
#128 = FACE_OUTER_BOUND ( 'NONE', #342, .T. ) ;
#129 = DIRECTION ( 'NONE',  ( -0.000000000000000000, -0.000000000000000000, 1.000000000000000000 ) ) ;
#130 = ORIENTED_EDGE ( 'NONE', *, *, #203, .F. ) ;
#131 = CIRCLE ( 'NONE', #194, 1.500000000000000000 ) ;
#132 = DATE_AND_TIME ( #156, #115 ) ;
#133 = CARTESIAN_POINT ( 'NONE',  ( 0.000000000000000000, 0.000000000000000000, -150.0000000000000000 ) ) ;
#134 = CC_DESIGN_SECURITY_CLASSIFICATION ( #100, ( #20 ) ) ;
#135 = EDGE_LOOP ( 'NONE', ( #2, #104, #345, #15 ) ) ;
#136 = VECTOR ( 'NONE', #108, 1000.000000000000000 ) ;
#137 = DIRECTION ( 'NONE',  ( 0.000000000000000000, 0.000000000000000000, -1.000000000000000000 ) ) ;
#138 = CONICAL_SURFACE ( 'NONE', #164, 1.500000000000000000, 0.5235987755983013692 ) ;
#139 = EDGE_LOOP ( 'NONE', ( #70, #316, #311, #202 ) ) ;
#140 = FACE_OUTER_BOUND ( 'NONE', #40, .T. ) ;
#141 = PERSON_AND_ORGANIZATION ( #169, #170 ) ;
#142 = EDGE_CURVE ( 'NONE', #124, #17, #327, .T. ) ;
#143 = VERTEX_POINT ( 'NONE', #45 ) ;
#144 = PERSON_AND_ORGANIZATION_ROLE ( 'creator' ) ;
#145 = EDGE_LOOP ( 'NONE', ( #66, #12 ) ) ;
#146 = CARTESIAN_POINT ( 'NONE',  ( 0.000000000000000000, 0.000000000000000000, 0.000000000000000000 ) ) ;
#147 = ORIENTED_EDGE ( 'NONE', *, *, #271, .F. ) ;
#148 = CIRCLE ( 'NONE', #51, 0.7500000000000000000 ) ;
#149 = APPROVAL_DATE_TIME ( #223, #355 ) ;
#150 = CARTESIAN_POINT ( 'NONE',  ( 0.000000000000000000, 0.000000000000000000, -101.2990381056766580 ) ) ;
#151 = EDGE_LOOP ( 'NONE', ( #281, #226 ) ) ;
#152 = VECTOR ( 'NONE', #180, 1000.000000000000227 ) ;
#153 = CALENDAR_DATE ( 2023, 13, 2 ) ;
#154 = FACE_OUTER_BOUND ( 'NONE', #354, .T. ) ;
#155 = ORIENTED_EDGE ( 'NONE', *, *, #300, .F. ) ;
#156 = CALENDAR_DATE ( 2023, 13, 2 ) ;
#157 = DIRECTION ( 'NONE',  ( -0.000000000000000000, -0.000000000000000000, 1.000000000000000000 ) ) ;
#158 = DIRECTION ( 'NONE',  ( -0.000000000000000000, -0.000000000000000000, 1.000000000000000000 ) ) ;
#159 = DIRECTION ( 'NONE',  ( -0.000000000000000000, -0.000000000000000000, 1.000000000000000000 ) ) ;
#160 = AXIS2_PLACEMENT_3D ( 'NONE', #111, #113, #207 ) ;
#161 = ADVANCED_FACE ( 'NONE', ( #154 ), #138, .T. ) ;
#162 = CARTESIAN_POINT ( 'NONE',  ( -0.7500000000000000000, 9.184850993605149670E-17, -150.0000000000000000 ) ) ;
#163 = CARTESIAN_POINT ( 'NONE',  ( 0.000000000000000000, 0.000000000000000000, -100.0000000000000000 ) ) ;
#164 = AXIS2_PLACEMENT_3D ( 'NONE', #249, #7, #118 ) ;
#165 = CC_DESIGN_APPROVAL ( #334, ( #248 ) ) ;
#166 = DATE_AND_TIME ( #339, #244 ) ;
#167 = CARTESIAN_POINT ( 'NONE',  ( 0.000000000000000000, 0.000000000000000000, 0.000000000000000000 ) ) ;
#168 = AXIS2_PLACEMENT_3D ( 'NONE', #24, #158, #330 ) ;
#169 = PERSON ( 'NEURÈENÝ', 'NEURÈENÝ', 'NEURÈENÝ', ('NEURÈENÝ'), ('NEURÈENÝ'), ('NEURÈENÝ') ) ;
#170 = ORGANIZATION ( 'NEURÈENÝ', 'NEURÈENÝ', '' ) ;
#171 = FACE_OUTER_BOUND ( 'NONE', #277, .T. ) ;
#172 = ADVANCED_FACE ( 'NONE', ( #69 ), #9, .T. ) ;
#173 = SHAPE_DEFINITION_REPRESENTATION ( #219, #52 ) ;
#174 = ADVANCED_FACE ( 'NONE', ( #338 ), #5, .T. ) ;
#175 = AXIS2_PLACEMENT_3D ( 'NONE', #279, #121, #216 ) ;
#176 =( NAMED_UNIT ( * ) PLANE_ANGLE_UNIT ( ) SI_UNIT ( $, .RADIAN. ) );
#177 = EDGE_CURVE ( 'NONE', #287, #32, #95, .T. ) ;
#178 = APPROVAL_ROLE ( '' ) ;
#179 =( LENGTH_UNIT ( ) NAMED_UNIT ( * ) SI_UNIT ( .MILLI., .METRE. ) );
#180 = DIRECTION ( 'NONE',  ( 0.5000000000000021094, 0.000000000000000000, 0.8660254037844373753 ) ) ;
#181 = CARTESIAN_POINT ( 'NONE',  ( 3.000000000000000000, 0.000000000000000000, -3.000000000000000444 ) ) ;
#182 = EDGE_LOOP ( 'NONE', ( #86, #55, #258, #262 ) ) ;
#183 = COORDINATED_UNIVERSAL_TIME_OFFSET ( 1, 0, .AHEAD. ) ;
#184 = DIRECTION ( 'NONE',  ( 1.000000000000000000, 0.000000000000000000, 0.000000000000000000 ) ) ;
#185 = EDGE_CURVE ( 'NONE', #143, #8, #65, .T. ) ;
#186 = ORIENTED_EDGE ( 'NONE', *, *, #46, .T. ) ;
#187 = CYLINDRICAL_SURFACE ( 'NONE', #273, 3.000000000000000000 ) ;
#188 = DIRECTION ( 'NONE',  ( -0.000000000000000000, -0.000000000000000000, 1.000000000000000000 ) ) ;
#189 = APPLICATION_CONTEXT ( 'configuration controlled 3d designs of mechanical parts and assemblies' ) ;
#190 = DIRECTION ( 'NONE',  ( 1.000000000000000000, 0.000000000000000000, 0.000000000000000000 ) ) ;
#191 = CIRCLE ( 'NONE', #59, 1.500000000000000000 ) ;
#192 = PERSON_AND_ORGANIZATION ( #169, #170 ) ;
#193 = DIRECTION ( 'NONE',  ( 1.000000000000000000, 0.000000000000000000, 0.000000000000000000 ) ) ;
#194 = AXIS2_PLACEMENT_3D ( 'NONE', #89, #159, #212 ) ;
#195 = ORIENTED_EDGE ( 'NONE', *, *, #18, .F. ) ;
#196 = DIRECTION ( 'NONE',  ( 1.000000000000000000, 0.000000000000000000, 0.000000000000000000 ) ) ;
#197 = LINE ( 'NONE', #312, #285 ) ;
#198 = COORDINATED_UNIVERSAL_TIME_OFFSET ( 1, 0, .AHEAD. ) ;
#199 = MECHANICAL_CONTEXT ( 'NONE', #90, 'mechanical' ) ;
#200 = CYLINDRICAL_SURFACE ( 'NONE', #274, 3.000000000000000000 ) ;
#201 = LINE ( 'NONE', #228, #215 ) ;
#202 = ORIENTED_EDGE ( 'NONE', *, *, #177, .F. ) ;
#203 = EDGE_CURVE ( 'NONE', #37, #17, #148, .T. ) ;
#204 = CARTESIAN_POINT ( 'NONE',  ( 0.000000000000000000, 0.000000000000000000, -100.0000000000000000 ) ) ;
#205 = DIRECTION ( 'NONE',  ( -0.000000000000000000, -0.000000000000000000, 1.000000000000000000 ) ) ;
#206 = EDGE_CURVE ( 'NONE', #238, #318, #25, .T. ) ;
#207 = DIRECTION ( 'NONE',  ( 1.000000000000000000, 0.000000000000000000, 0.000000000000000000 ) ) ;
#208 = ORIENTED_EDGE ( 'NONE', *, *, #206, .F. ) ;
#209 = EDGE_LOOP ( 'NONE', ( #253, #73, #112, #208 ) ) ;
#210 = CARTESIAN_POINT ( 'NONE',  ( 0.000000000000000000, 0.000000000000000000, -3.000000000000000444 ) ) ;
#211 = CIRCLE ( 'NONE', #126, 3.000000000000000000 ) ;
#212 = DIRECTION ( 'NONE',  ( 1.000000000000000000, 0.000000000000000000, 0.000000000000000000 ) ) ;
#213 = ORIENTED_EDGE ( 'NONE', *, *, #68, .T. ) ;
#214 = APPROVAL_DATE_TIME ( #166, #296 ) ;
#215 = VECTOR ( 'NONE', #74, 1000.000000000000000 ) ;
#216 = DIRECTION ( 'NONE',  ( 1.000000000000000000, 0.000000000000000000, 0.000000000000000000 ) ) ;
#217 = CARTESIAN_POINT ( 'NONE',  ( -1.500000000000000000, 1.836970198721029934E-16, 0.000000000000000000 ) ) ;
#218 = ADVANCED_FACE ( 'NONE', ( #252 ), #93, .T. ) ;
#219 = PRODUCT_DEFINITION_SHAPE ( 'NONE', 'NONE',  #248 ) ;
#220 = LINE ( 'NONE', #101, #152 ) ;
#221 = ORIENTED_EDGE ( 'NONE', *, *, #232, .F. ) ;
#222 = AXIS2_PLACEMENT_3D ( 'NONE', #306, #116, #92 ) ;
#223 = DATE_AND_TIME ( #105, #286 ) ;
#224 = DIRECTION ( 'NONE',  ( 1.000000000000000000, 0.000000000000000000, 0.000000000000000000 ) ) ;
#225 = CARTESIAN_POINT ( 'NONE',  ( 0.000000000000000000, -3.000000000000000000, -3.000000000000000444 ) ) ;
#226 = ORIENTED_EDGE ( 'NONE', *, *, #117, .F. ) ;
#227 = DATE_AND_TIME ( #299, #61 ) ;
#228 = CARTESIAN_POINT ( 'NONE',  ( -3.000000000000000000, 3.673940397442059868E-16, 0.000000000000000000 ) ) ;
#229 = CC_DESIGN_PERSON_AND_ORGANIZATION_ASSIGNMENT ( #141, #144, ( #20 ) ) ;
#230 = CARTESIAN_POINT ( 'NONE',  ( -1.500000000000000000, 1.836970198721029934E-16, -3.000000000000000444 ) ) ;
#231 = AXIS2_PLACEMENT_3D ( 'NONE', #146, #10, #224 ) ;
#232 = EDGE_CURVE ( 'NONE', #287, #143, #292, .T. ) ;
#233 = APPROVAL_DATE_TIME ( #267, #334 ) ;
#234 = FACE_OUTER_BOUND ( 'NONE', #209, .T. ) ;
#235 = CIRCLE ( 'NONE', #94, 3.000000000000000000 ) ;
#236 = DATE_TIME_ROLE ( 'creation_date' ) ;
#237 = APPROVAL_PERSON_ORGANIZATION ( #13, #355, #178 ) ;
#238 = VERTEX_POINT ( 'NONE', #303 ) ;
#239 = PERSON_AND_ORGANIZATION ( #169, #170 ) ;
#240 = FACE_OUTER_BOUND ( 'NONE', #47, .T. ) ;
#241 = AXIS2_PLACEMENT_3D ( 'NONE', #210, #157, #91 ) ;
#242 = CARTESIAN_POINT ( 'NONE',  ( 1.500000000000000000, 0.000000000000000000, -3.000000000000000444 ) ) ;
#243 = DIRECTION ( 'NONE',  ( 1.000000000000000000, 0.000000000000000000, 0.000000000000000000 ) ) ;
#244 = LOCAL_TIME ( 9, 57, 16.00000000000000000, #302 ) ;
#245 = CYLINDRICAL_SURFACE ( 'NONE', #310, 0.7500000000000000000 ) ;
#246 = ADVANCED_FACE ( 'NONE', ( #171 ), #81, .T. ) ;
#247 = CARTESIAN_POINT ( 'NONE',  ( 0.000000000000000000, 0.000000000000000000, 0.000000000000000000 ) ) ;
#248 = PRODUCT_DEFINITION ( 'NEZNÁMÝ', '', #20, #322 ) ;
#249 = CARTESIAN_POINT ( 'NONE',  ( 0.000000000000000000, 0.000000000000000000, -100.0000000000000000 ) ) ;
#250 = ORIENTED_EDGE ( 'NONE', *, *, #87, .T. ) ;
#251 = AXIS2_PLACEMENT_3D ( 'NONE', #163, #270, #190 ) ;
#252 = FACE_OUTER_BOUND ( 'NONE', #182, .T. ) ;
#253 = ORIENTED_EDGE ( 'NONE', *, *, #331, .F. ) ;
#254 = CARTESIAN_POINT ( 'NONE',  ( -3.000000000000000000, 3.673940397442059868E-16, -3.000000000000000444 ) ) ;
#255 = DIRECTION ( 'NONE',  ( -0.000000000000000000, -0.000000000000000000, 1.000000000000000000 ) ) ;
#256 = UNCERTAINTY_MEASURE_WITH_UNIT (LENGTH_MEASURE( 1.000000000000000082E-05 ), #179, 'distance_accuracy_value', 'NONE');
#257 = CC_DESIGN_APPROVAL ( #355, ( #100 ) ) ;
#258 = ORIENTED_EDGE ( 'NONE', *, *, #177, .T. ) ;
#259 = ADVANCED_FACE ( 'NONE', ( #140 ), #245, .T. ) ;
#260 = ORIENTED_EDGE ( 'NONE', *, *, #278, .F. ) ;
#261 = CARTESIAN_POINT ( 'NONE',  ( 0.000000000000000000, 0.000000000000000000, -3.000000000000000444 ) ) ;
#262 = ORIENTED_EDGE ( 'NONE', *, *, #87, .F. ) ;
#263 = PLANE ( 'NONE',  #75 ) ;
#264 = CARTESIAN_POINT ( 'NONE',  ( -0.7500000000000000000, 9.184850993605149670E-17, -101.2990381056766580 ) ) ;
#265 = EDGE_CURVE ( 'NONE', #143, #287, #191, .T. ) ;
#266 = ORIENTED_EDGE ( 'NONE', *, *, #142, .F. ) ;
#267 = DATE_AND_TIME ( #153, #84 ) ;
#268 = CC_DESIGN_DATE_AND_TIME_ASSIGNMENT ( #227, #127, ( #100 ) ) ;
#269 = VECTOR ( 'NONE', #19, 1000.000000000000000 ) ;
#270 = DIRECTION ( 'NONE',  ( -0.000000000000000000, -0.000000000000000000, 1.000000000000000000 ) ) ;
#271 = EDGE_CURVE ( 'NONE', #17, #37, #106, .T. ) ;
#272 = CARTESIAN_POINT ( 'NONE',  ( 1.500000000000000000, 0.000000000000000000, 0.000000000000000000 ) ) ;
#273 = AXIS2_PLACEMENT_3D ( 'NONE', #27, #295, #324 ) ;
#274 = AXIS2_PLACEMENT_3D ( 'NONE', #22, #23, #184 ) ;
#275 = EDGE_LOOP ( 'NONE', ( #186, #250 ) ) ;
#276 = DIRECTION ( 'NONE',  ( -0.000000000000000000, -0.000000000000000000, 1.000000000000000000 ) ) ;
#277 = EDGE_LOOP ( 'NONE', ( #57, #213, #221, #348 ) ) ;
#278 = EDGE_CURVE ( 'NONE', #102, #309, #211, .T. ) ;
#279 = CARTESIAN_POINT ( 'NONE',  ( 0.000000000000000000, 0.000000000000000000, -1.836970198721029934E-16 ) ) ;
#280 = ORIENTED_EDGE ( 'NONE', *, *, #142, .T. ) ;
#281 = ORIENTED_EDGE ( 'NONE', *, *, #71, .F. ) ;
#282 = DIRECTION ( 'NONE',  ( 1.000000000000000000, 0.000000000000000000, 0.000000000000000000 ) ) ;
#283 = ORIENTED_EDGE ( 'NONE', *, *, #18, .T. ) ;
#284 = LINE ( 'NONE', #77, #269 ) ;
#285 = VECTOR ( 'NONE', #255, 1000.000000000000000 ) ;
#286 = LOCAL_TIME ( 9, 57, 16.00000000000000000, #198 ) ;
#287 = VERTEX_POINT ( 'NONE', #14 ) ;
#288 = AXIS2_PLACEMENT_3D ( 'NONE', #133, #188, #56 ) ;
#289 = DIRECTION ( 'NONE',  ( 1.000000000000000000, 0.000000000000000000, 0.000000000000000000 ) ) ;
#290 = EDGE_CURVE ( 'NONE', #318, #238, #67, .T. ) ;
#291 = FACE_BOUND ( 'NONE', #275, .T. ) ;
#292 = CIRCLE ( 'NONE', #251, 1.500000000000000000 ) ;
#293 = CARTESIAN_POINT ( 'NONE',  ( -0.7500000000000000000, 9.184850993605149670E-17, 0.000000000000000000 ) ) ;
#294 = CARTESIAN_POINT ( 'NONE',  ( -1.500000000000000000, 1.836970198721029934E-16, -100.0000000000000000 ) ) ;
#295 = DIRECTION ( 'NONE',  ( -0.000000000000000000, -0.000000000000000000, 1.000000000000000000 ) ) ;
#296 = APPROVAL ( #60, 'NEURÈENÝ' ) ;
#297 = CYLINDRICAL_SURFACE ( 'NONE', #160, 0.7500000000000000000 ) ;
#298 = CIRCLE ( 'NONE', #168, 0.7500000000000000000 ) ;
#299 = CALENDAR_DATE ( 2023, 13, 2 ) ;
#300 = EDGE_CURVE ( 'NONE', #309, #102, #235, .T. ) ;
#301 = DIRECTION ( 'NONE',  ( -0.000000000000000000, -0.000000000000000000, 1.000000000000000000 ) ) ;
#302 = COORDINATED_UNIVERSAL_TIME_OFFSET ( 1, 0, .AHEAD. ) ;
#303 = CARTESIAN_POINT ( 'NONE',  ( -3.000000000000000000, 3.673940397442059868E-16, -3.673940397442059868E-16 ) ) ;
#304 = CC_DESIGN_PERSON_AND_ORGANIZATION_ASSIGNMENT ( #192, #114, ( #20 ) ) ;
#305 = PERSON_AND_ORGANIZATION_ROLE ( 'classification_officer' ) ;
#306 = CARTESIAN_POINT ( 'NONE',  ( 0.000000000000000000, 0.000000000000000000, -3.673940397442059868E-16 ) ) ;
#307 = DIRECTION ( 'NONE',  ( -0.000000000000000000, -0.000000000000000000, 1.000000000000000000 ) ) ;
#308 = VERTEX_POINT ( 'NONE', #99 ) ;
#309 = VERTEX_POINT ( 'NONE', #254 ) ;
#310 = AXIS2_PLACEMENT_3D ( 'NONE', #167, #205, #282 ) ;
#311 = ORIENTED_EDGE ( 'NONE', *, *, #46, .F. ) ;
#312 = CARTESIAN_POINT ( 'NONE',  ( 3.000000000000000000, 0.000000000000000000, 0.000000000000000000 ) ) ;
#313 = ORIENTED_EDGE ( 'NONE', *, *, #346, .T. ) ;
#314 = VECTOR ( 'NONE', #50, 1000.000000000000227 ) ;
#315 = DIRECTION ( 'NONE',  ( 1.000000000000000000, 0.000000000000000000, 0.000000000000000000 ) ) ;
#316 = ORIENTED_EDGE ( 'NONE', *, *, #185, .T. ) ;
#317 = DIRECTION ( 'NONE',  ( -1.000000000000000000, 0.000000000000000000, -0.000000000000000000 ) ) ;
#318 = VERTEX_POINT ( 'NONE', #72 ) ;
#319 = VECTOR ( 'NONE', #276, 1000.000000000000000 ) ;
#320 =( GEOMETRIC_REPRESENTATION_CONTEXT ( 3 ) GLOBAL_UNCERTAINTY_ASSIGNED_CONTEXT ( ( #256 ) ) GLOBAL_UNIT_ASSIGNED_CONTEXT ( ( #179, #176, #36 ) ) REPRESENTATION_CONTEXT ( 'NONE', 'WORKASPACE' ) );
#321 = DIRECTION ( 'NONE',  ( 1.000000000000000000, 0.000000000000000000, 0.000000000000000000 ) ) ;
#322 = DESIGN_CONTEXT ( 'detailed design', #189, 'design' ) ;
#323 = CC_DESIGN_PERSON_AND_ORGANIZATION_ASSIGNMENT ( #335, #305, ( #100 ) ) ;
#324 = DIRECTION ( 'NONE',  ( 1.000000000000000000, 0.000000000000000000, 0.000000000000000000 ) ) ;
#325 = AXIS2_PLACEMENT_3D ( 'NONE', #349, #107, #289 ) ;
#326 = PERSON_AND_ORGANIZATION_ROLE ( 'design_owner' ) ;
#327 = LINE ( 'NONE', #293, #136 ) ;
#328 = CARTESIAN_POINT ( 'NONE',  ( 0.7500000000000000000, 0.000000000000000000, -101.2990381056766580 ) ) ;
#329 = EDGE_CURVE ( 'NONE', #102, #318, #197, .T. ) ;
#330 = DIRECTION ( 'NONE',  ( 1.000000000000000000, 0.000000000000000000, 0.000000000000000000 ) ) ;
#331 = EDGE_CURVE ( 'NONE', #309, #238, #201, .T. ) ;
#332 = DIRECTION ( 'NONE',  ( -0.000000000000000000, -0.000000000000000000, 1.000000000000000000 ) ) ;
#333 = AXIS2_PLACEMENT_3D ( 'NONE', #351, #137, #26 ) ;
#334 = APPROVAL ( #48, 'NEURÈENÝ' ) ;
#335 = PERSON_AND_ORGANIZATION ( #169, #170 ) ;
#336 = DIRECTION ( 'NONE',  ( -0.000000000000000000, -0.000000000000000000, 1.000000000000000000 ) ) ;
#337 = PERSON_AND_ORGANIZATION ( #169, #170 ) ;
#338 = FACE_OUTER_BOUND ( 'NONE', #145, .T. ) ;
#339 = CALENDAR_DATE ( 2023, 13, 2 ) ;
#340 = DIRECTION ( 'NONE',  ( 1.000000000000000000, 0.000000000000000000, 0.000000000000000000 ) ) ;
#341 = ORIENTED_EDGE ( 'NONE', *, *, #117, .T. ) ;
#342 = EDGE_LOOP ( 'NONE', ( #260, #155 ) ) ;
#343 = CARTESIAN_POINT ( 'NONE',  ( 0.000000000000000000, 0.000000000000000000, -3.000000000000000444 ) ) ;
#344 = AXIS2_PLACEMENT_3D ( 'NONE', #97, #120, #196 ) ;
#345 = ORIENTED_EDGE ( 'NONE', *, *, #290, .F. ) ;
#346 = EDGE_CURVE ( 'NONE', #37, #287, #220, .T. ) ;
#347 = APPLICATION_PROTOCOL_DEFINITION ( 'international standard', 'config_control_design', 1994, #90 ) ;
#348 = ORIENTED_EDGE ( 'NONE', *, *, #346, .F. ) ;
#349 = CARTESIAN_POINT ( 'NONE',  ( 0.000000000000000000, 0.000000000000000000, -3.673940397442059868E-16 ) ) ;
#350 = ADVANCED_FACE ( 'NONE', ( #291, #128 ), #263, .T. ) ;
#351 = CARTESIAN_POINT ( 'NONE',  ( 0.000000000000000000, 0.000000000000000000, -150.0000000000000000 ) ) ;
#352 = AXIS2_PLACEMENT_3D ( 'NONE', #247, #332, #193 ) ;
#353 = COORDINATED_UNIVERSAL_TIME_OFFSET ( 1, 0, .AHEAD. ) ;
#354 = EDGE_LOOP ( 'NONE', ( #98, #42, #313, #96 ) ) ;
#355 = APPROVAL ( #34, 'NEURÈENÝ' ) ;
ENDSEC;
END-ISO-10303-21;
