ISO-10303-21;
HEADER;
FILE_DESCRIPTION (( 'STEP AP203' ),
    '1' );
FILE_NAME ('6985.STEP',
    '2023-02-13T08:59:41',
    ( '' ),
    ( '' ),
    'SwSTEP 2.0',
    'SolidWorks 2019',
    '' );
FILE_SCHEMA (( 'CONFIG_CONTROL_DESIGN' ));
ENDSEC;

DATA;
#1 = FACE_OUTER_BOUND ( 'NONE', #57, .T. ) ;
#2 = CARTESIAN_POINT ( 'NONE',  ( 0.000000000000000000, 0.000000000000000000, 0.000000000000000000 ) ) ;
#3 = EDGE_CURVE ( 'NONE', #181, #191, #132, .T. ) ;
#4 = CONICAL_SURFACE ( 'NONE', #302, 1.500000000000000000, 0.5235987755983002589 ) ;
#5 = CYLINDRICAL_SURFACE ( 'NONE', #353, 1.500000000000000000 ) ;
#6 = CARTESIAN_POINT ( 'NONE',  ( 0.000000000000000000, 0.000000000000000000, 0.000000000000000000 ) ) ;
#7 = APPROVAL_ROLE ( '' ) ;
#8 = DIRECTION ( 'NONE',  ( 0.000000000000000000, 0.000000000000000000, 1.000000000000000000 ) ) ;
#9 = ORIENTED_EDGE ( 'NONE', *, *, #43, .T. ) ;
#10 = DIRECTION ( 'NONE',  ( 1.000000000000000000, 0.000000000000000000, 0.000000000000000000 ) ) ;
#11 = AXIS2_PLACEMENT_3D ( 'NONE', #2, #331, #201 ) ;
#12 = ORIENTED_EDGE ( 'NONE', *, *, #219, .F. ) ;
#13 = CARTESIAN_POINT ( 'NONE',  ( 1.500000000000000000, 0.000000000000000000, -3.000000000000000444 ) ) ;
#14 = CARTESIAN_POINT ( 'NONE',  ( -1.500000000000000000, 1.836970198721029934E-16, -50.00000000000000000 ) ) ;
#15 = CARTESIAN_POINT ( 'NONE',  ( -3.000000000000000000, 3.673940397442059868E-16, -3.000000000000000444 ) ) ;
#16 = CC_DESIGN_DATE_AND_TIME_ASSIGNMENT ( #314, #167, ( #21 ) ) ;
#17 = ORIENTED_EDGE ( 'NONE', *, *, #193, .F. ) ;
#18 = FACE_OUTER_BOUND ( 'NONE', #332, .T. ) ;
#19 = CARTESIAN_POINT ( 'NONE',  ( 0.000000000000000000, 0.000000000000000000, -50.86602540378444104 ) ) ;
#20 = PERSON_AND_ORGANIZATION ( #56, #273 ) ;
#21 = PRODUCT_DEFINITION ( 'NEZNÁMÝ', '', #301, #231 ) ;
#22 = PERSON_AND_ORGANIZATION ( #56, #273 ) ;
#23 = CC_DESIGN_PERSON_AND_ORGANIZATION_ASSIGNMENT ( #22, #351, ( #277 ) ) ;
#24 = AXIS2_PLACEMENT_3D ( 'NONE', #280, #206, #30 ) ;
#25 = AXIS2_PLACEMENT_3D ( 'NONE', #355, #243, #211 ) ;
#26 = DATE_AND_TIME ( #247, #223 ) ;
#27 = EDGE_LOOP ( 'NONE', ( #12, #237 ) ) ;
#28 = EDGE_CURVE ( 'NONE', #190, #337, #297, .T. ) ;
#29 = CARTESIAN_POINT ( 'NONE',  ( 0.000000000000000000, -3.000000000000000000, -3.000000000000000444 ) ) ;
#30 = DIRECTION ( 'NONE',  ( -1.000000000000000000, 0.000000000000000000, -0.000000000000000000 ) ) ;
#31 = DIRECTION ( 'NONE',  ( -0.000000000000000000, -0.000000000000000000, 1.000000000000000000 ) ) ;
#32 = EDGE_LOOP ( 'NONE', ( #71, #350 ) ) ;
#33 = CARTESIAN_POINT ( 'NONE',  ( 0.000000000000000000, 0.000000000000000000, 0.000000000000000000 ) ) ;
#34 = LOCAL_TIME ( 9, 59, 41.00000000000000000, #160 ) ;
#35 = APPROVAL_STATUS ( 'not_yet_approved' ) ;
#36 = EDGE_CURVE ( 'NONE', #325, #63, #95, .T. ) ;
#37 = ORIENTED_EDGE ( 'NONE', *, *, #28, .F. ) ;
#38 = DIRECTION ( 'NONE',  ( 1.000000000000000000, 0.000000000000000000, 0.000000000000000000 ) ) ;
#39 = CC_DESIGN_DATE_AND_TIME_ASSIGNMENT ( #26, #144, ( #277 ) ) ;
#40 = ORIENTED_EDGE ( 'NONE', *, *, #193, .T. ) ;
#41 = FACE_OUTER_BOUND ( 'NONE', #140, .T. ) ;
#42 = PERSON_AND_ORGANIZATION ( #56, #273 ) ;
#43 = EDGE_CURVE ( 'NONE', #325, #190, #348, .T. ) ;
#44 = ORIENTED_EDGE ( 'NONE', *, *, #327, .F. ) ;
#45 = AXIS2_PLACEMENT_3D ( 'NONE', #107, #267, #164 ) ;
#46 = DIRECTION ( 'NONE',  ( 1.000000000000000000, 0.000000000000000000, 0.000000000000000000 ) ) ;
#47 = CALENDAR_DATE ( 2023, 13, 2 ) ;
#48 = ORIENTED_EDGE ( 'NONE', *, *, #157, .T. ) ;
#49 = CARTESIAN_POINT ( 'NONE',  ( 1.000000000000000000, 0.000000000000000000, 0.000000000000000000 ) ) ;
#50 = APPROVAL_STATUS ( 'not_yet_approved' ) ;
#51 = ORIENTED_EDGE ( 'NONE', *, *, #186, .T. ) ;
#52 = CARTESIAN_POINT ( 'NONE',  ( 0.000000000000000000, 0.000000000000000000, -3.000000000000000444 ) ) ;
#53 = AXIS2_PLACEMENT_3D ( 'NONE', #19, #240, #349 ) ;
#54 = ORIENTED_EDGE ( 'NONE', *, *, #36, .F. ) ;
#55 =( LENGTH_UNIT ( ) NAMED_UNIT ( * ) SI_UNIT ( .MILLI., .METRE. ) );
#56 = PERSON ( 'NEURÈENÝ', 'NEURÈENÝ', 'NEURÈENÝ', ('NEURÈENÝ'), ('NEURÈENÝ'), ('NEURÈENÝ') ) ;
#57 = EDGE_LOOP ( 'NONE', ( #309, #161, #334, #166 ) ) ;
#58 = ADVANCED_FACE ( 'NONE', ( #236 ), #108, .F. ) ;
#59 = CIRCLE ( 'NONE', #142, 1.000000000000000000 ) ;
#60 = APPROVAL_DATE_TIME ( #89, #299 ) ;
#61 =( NAMED_UNIT ( * ) SI_UNIT ( $, .STERADIAN. ) SOLID_ANGLE_UNIT ( ) );
#62 = EDGE_CURVE ( 'NONE', #181, #242, #117, .T. ) ;
#63 = VERTEX_POINT ( 'NONE', #14 ) ;
#64 = VERTEX_POINT ( 'NONE', #139 ) ;
#65 = DIRECTION ( 'NONE',  ( -0.000000000000000000, -0.000000000000000000, 1.000000000000000000 ) ) ;
#66 = CARTESIAN_POINT ( 'NONE',  ( 0.000000000000000000, 0.000000000000000000, 0.000000000000000000 ) ) ;
#67 = CC_DESIGN_PERSON_AND_ORGANIZATION_ASSIGNMENT ( #106, #82, ( #21 ) ) ;
#68 = FACE_OUTER_BOUND ( 'NONE', #260, .T. ) ;
#69 = APPROVAL ( #50, 'NEURÈENÝ' ) ;
#70 = CARTESIAN_POINT ( 'NONE',  ( 0.000000000000000000, 0.000000000000000000, -50.86602540378444104 ) ) ;
#71 = ORIENTED_EDGE ( 'NONE', *, *, #62, .F. ) ;
#72 = DIRECTION ( 'NONE',  ( -0.000000000000000000, -0.000000000000000000, 1.000000000000000000 ) ) ;
#73 = FACE_OUTER_BOUND ( 'NONE', #32, .T. ) ;
#74 = CARTESIAN_POINT ( 'NONE',  ( 0.000000000000000000, 0.000000000000000000, -3.000000000000000444 ) ) ;
#75 = ORIENTED_EDGE ( 'NONE', *, *, #354, .T. ) ;
#76 = PERSON_AND_ORGANIZATION ( #56, #273 ) ;
#77 = EDGE_CURVE ( 'NONE', #63, #337, #344, .T. ) ;
#78 = PRODUCT_DEFINITION_SHAPE ( 'NONE', 'NONE',  #21 ) ;
#79 = CARTESIAN_POINT ( 'NONE',  ( 0.000000000000000000, 0.000000000000000000, -3.000000000000000444 ) ) ;
#80 = CARTESIAN_POINT ( 'NONE',  ( -3.000000000000000000, 3.673940397442059868E-16, 0.000000000000000000 ) ) ;
#81 = AXIS2_PLACEMENT_3D ( 'NONE', #192, #138, #238 ) ;
#82 = PERSON_AND_ORGANIZATION_ROLE ( 'creator' ) ;
#83 = LINE ( 'NONE', #80, #210 ) ;
#84 = APPROVAL_DATE_TIME ( #214, #196 ) ;
#85 = CIRCLE ( 'NONE', #151, 3.000000000000000000 ) ;
#86 = ORIENTED_EDGE ( 'NONE', *, *, #77, .T. ) ;
#87 = VECTOR ( 'NONE', #111, 1000.000000000000000 ) ;
#88 = CONICAL_SURFACE ( 'NONE', #263, 1.500000000000000000, 0.5235987755983002589 ) ;
#89 = DATE_AND_TIME ( #224, #152 ) ;
#90 = CYLINDRICAL_SURFACE ( 'NONE', #274, 1.000000000000000000 ) ;
#91 = ORIENTED_EDGE ( 'NONE', *, *, #36, .T. ) ;
#92 = LINE ( 'NONE', #97, #245 ) ;
#93 = LOCAL_TIME ( 9, 59, 41.00000000000000000, #346 ) ;
#94 = CARTESIAN_POINT ( 'NONE',  ( -1.500000000000000000, 1.836970198721029934E-16, -3.000000000000000444 ) ) ;
#95 = CIRCLE ( 'NONE', #257, 1.500000000000000000 ) ;
#96 = ADVANCED_FACE ( 'NONE', ( #41 ), #4, .T. ) ;
#97 = CARTESIAN_POINT ( 'NONE',  ( -1.500000000000000000, 1.836970198721029934E-16, -50.00000000000000000 ) ) ;
#98 = MANIFOLD_SOLID_BREP ( 'Rotovat1', #204 ) ;
#99 = DIRECTION ( 'NONE',  ( -0.000000000000000000, -0.000000000000000000, 1.000000000000000000 ) ) ;
#100 = ORIENTED_EDGE ( 'NONE', *, *, #157, .F. ) ;
#101 = CC_DESIGN_PERSON_AND_ORGANIZATION_ASSIGNMENT ( #76, #202, ( #301 ) ) ;
#102 = CYLINDRICAL_SURFACE ( 'NONE', #251, 1.500000000000000000 ) ;
#103 = AXIS2_PLACEMENT_3D ( 'NONE', #52, #170, #38 ) ;
#104 = PERSON_AND_ORGANIZATION ( #56, #273 ) ;
#105 = DIRECTION ( 'NONE',  ( 1.000000000000000000, 0.000000000000000000, 0.000000000000000000 ) ) ;
#106 = PERSON_AND_ORGANIZATION ( #56, #273 ) ;
#107 = CARTESIAN_POINT ( 'NONE',  ( 0.000000000000000000, 0.000000000000000000, -3.000000000000000444 ) ) ;
#108 = CYLINDRICAL_SURFACE ( 'NONE', #110, 1.000000000000000000 ) ;
#109 = LINE ( 'NONE', #49, #215 ) ;
#110 = AXIS2_PLACEMENT_3D ( 'NONE', #320, #341, #315 ) ;
#111 = DIRECTION ( 'NONE',  ( -0.000000000000000000, -0.000000000000000000, 1.000000000000000000 ) ) ;
#112 = CARTESIAN_POINT ( 'NONE',  ( 0.000000000000000000, 0.000000000000000000, -50.00000000000000000 ) ) ;
#113 = EDGE_LOOP ( 'NONE', ( #290, #75, #51, #122 ) ) ;
#114 = VERTEX_POINT ( 'NONE', #127 ) ;
#115 = APPROVAL_PERSON_ORGANIZATION ( #216, #69, #261 ) ;
#116 = CC_DESIGN_APPROVAL ( #196, ( #21 ) ) ;
#117 = CIRCLE ( 'NONE', #154, 3.000000000000000000 ) ;
#118 = PERSON_AND_ORGANIZATION ( #56, #273 ) ;
#119 = APPROVAL_PERSON_ORGANIZATION ( #118, #299, #323 ) ;
#120 = ADVANCED_FACE ( 'NONE', ( #134 ), #90, .F. ) ;
#121 = CIRCLE ( 'NONE', #194, 1.000000000000000000 ) ;
#122 = ORIENTED_EDGE ( 'NONE', *, *, #207, .F. ) ;
#123 = FACE_OUTER_BOUND ( 'NONE', #199, .T. ) ;
#124 = EDGE_LOOP ( 'NONE', ( #285, #175, #178, #254 ) ) ;
#125 = VERTEX_POINT ( 'NONE', #129 ) ;
#126 = DIRECTION ( 'NONE',  ( -1.000000000000000000, 0.000000000000000000, -0.000000000000000000 ) ) ;
#127 = CARTESIAN_POINT ( 'NONE',  ( -3.000000000000000000, 3.673940397442059868E-16, -3.673940397442059868E-16 ) ) ;
#128 = DIRECTION ( 'NONE',  ( 1.000000000000000000, 0.000000000000000000, 0.000000000000000000 ) ) ;
#129 = CARTESIAN_POINT ( 'NONE',  ( 1.000000000000000000, 0.000000000000000000, -50.86602540378444104 ) ) ;
#130 = FACE_BOUND ( 'NONE', #226, .T. ) ;
#131 = COORDINATED_UNIVERSAL_TIME_OFFSET ( 1, 0, .AHEAD. ) ;
#132 = LINE ( 'NONE', #168, #146 ) ;
#133 = EDGE_CURVE ( 'NONE', #183, #125, #121, .T. ) ;
#134 = FACE_OUTER_BOUND ( 'NONE', #124, .T. ) ;
#135 = UNCERTAINTY_MEASURE_WITH_UNIT (LENGTH_MEASURE( 1.000000000000000082E-05 ), #55, 'distance_accuracy_value', 'NONE');
#136 = PRODUCT_RELATED_PRODUCT_CATEGORY ( 'detail', '', ( #172 ) ) ;
#137 = CARTESIAN_POINT ( 'NONE',  ( 0.000000000000000000, 0.000000000000000000, -50.00000000000000000 ) ) ;
#138 = DIRECTION ( 'NONE',  ( -0.000000000000000000, -0.000000000000000000, 1.000000000000000000 ) ) ;
#139 = CARTESIAN_POINT ( 'NONE',  ( -1.000000000000000000, 1.224646799147353207E-16, -50.00000000000000000 ) ) ;
#140 = EDGE_LOOP ( 'NONE', ( #44, #200, #283, #17 ) ) ;
#141 = PLANE ( 'NONE',  #171 ) ;
#142 = AXIS2_PLACEMENT_3D ( 'NONE', #112, #345, #212 ) ;
#143 = ADVANCED_BREP_SHAPE_REPRESENTATION ( '6985', ( #98, #203 ), #308 ) ;
#144 = DATE_TIME_ROLE ( 'classification_date' ) ;
#145 = CIRCLE ( 'NONE', #53, 1.000000000000000000 ) ;
#146 = VECTOR ( 'NONE', #264, 1000.000000000000000 ) ;
#147 = MECHANICAL_CONTEXT ( 'NONE', #185, 'mechanical' ) ;
#148 = ORIENTED_EDGE ( 'NONE', *, *, #327, .T. ) ;
#149 = FACE_OUTER_BOUND ( 'NONE', #220, .T. ) ;
#150 = CARTESIAN_POINT ( 'NONE',  ( 0.000000000000000000, 0.000000000000000000, -50.00000000000000000 ) ) ;
#151 = AXIS2_PLACEMENT_3D ( 'NONE', #333, #65, #230 ) ;
#152 = LOCAL_TIME ( 9, 59, 41.00000000000000000, #174 ) ;
#153 = DIRECTION ( 'NONE',  ( -0.000000000000000000, -0.000000000000000000, 1.000000000000000000 ) ) ;
#154 = AXIS2_PLACEMENT_3D ( 'NONE', #79, #291, #46 ) ;
#155 = DIRECTION ( 'NONE',  ( -0.000000000000000000, -0.000000000000000000, 1.000000000000000000 ) ) ;
#156 = VERTEX_POINT ( 'NONE', #336 ) ;
#157 = EDGE_CURVE ( 'NONE', #337, #190, #162, .T. ) ;
#158 = DIRECTION ( 'NONE',  ( -0.5000000000000012212, 6.123233995736782060E-17, 0.8660254037844380415 ) ) ;
#159 = CARTESIAN_POINT ( 'NONE',  ( 1.500000000000000000, 0.000000000000000000, -50.00000000000000000 ) ) ;
#160 = COORDINATED_UNIVERSAL_TIME_OFFSET ( 1, 0, .AHEAD. ) ;
#161 = ORIENTED_EDGE ( 'NONE', *, *, #271, .T. ) ;
#162 = CIRCLE ( 'NONE', #198, 1.500000000000000000 ) ;
#163 = ORIENTED_EDGE ( 'NONE', *, *, #246, .T. ) ;
#164 = DIRECTION ( 'NONE',  ( 1.000000000000000000, 0.000000000000000000, 0.000000000000000000 ) ) ;
#165 = CC_DESIGN_PERSON_AND_ORGANIZATION_ASSIGNMENT ( #20, #287, ( #172 ) ) ;
#166 = ORIENTED_EDGE ( 'NONE', *, *, #324, .F. ) ;
#167 = DATE_TIME_ROLE ( 'creation_date' ) ;
#168 = CARTESIAN_POINT ( 'NONE',  ( 3.000000000000000000, 0.000000000000000000, 0.000000000000000000 ) ) ;
#169 = DIRECTION ( 'NONE',  ( 0.000000000000000000, -0.000000000000000000, 1.000000000000000000 ) ) ;
#170 = DIRECTION ( 'NONE',  ( -0.000000000000000000, -0.000000000000000000, 1.000000000000000000 ) ) ;
#171 = AXIS2_PLACEMENT_3D ( 'NONE', #218, #169, #316 ) ;
#172 = PRODUCT ( '6985', '6985', '', ( #147 ) ) ;
#173 = EDGE_CURVE ( 'NONE', #125, #325, #286, .T. ) ;
#174 = COORDINATED_UNIVERSAL_TIME_OFFSET ( 1, 0, .AHEAD. ) ;
#175 = ORIENTED_EDGE ( 'NONE', *, *, #269, .F. ) ;
#176 = PLANE ( 'NONE',  #24 ) ;
#177 = CARTESIAN_POINT ( 'NONE',  ( 0.000000000000000000, 0.000000000000000000, -50.00000000000000000 ) ) ;
#178 = ORIENTED_EDGE ( 'NONE', *, *, #207, .T. ) ;
#179 = CC_DESIGN_APPROVAL ( #299, ( #277 ) ) ;
#180 = DIRECTION ( 'NONE',  ( 0.000000000000000000, 0.000000000000000000, -1.000000000000000000 ) ) ;
#181 = VERTEX_POINT ( 'NONE', #342 ) ;
#182 = DIRECTION ( 'NONE',  ( 1.000000000000000000, 0.000000000000000000, 0.000000000000000000 ) ) ;
#183 = VERTEX_POINT ( 'NONE', #298 ) ;
#184 = CALENDAR_DATE ( 2023, 13, 2 ) ;
#185 = APPLICATION_CONTEXT ( 'configuration controlled 3d designs of mechanical parts and assemblies' ) ;
#186 = EDGE_CURVE ( 'NONE', #64, #156, #241, .T. ) ;
#187 = AXIS2_PLACEMENT_3D ( 'NONE', #255, #282, #10 ) ;
#188 = DIRECTION ( 'NONE',  ( -0.000000000000000000, -0.000000000000000000, 1.000000000000000000 ) ) ;
#189 = DIRECTION ( 'NONE',  ( -0.000000000000000000, -0.000000000000000000, 1.000000000000000000 ) ) ;
#190 = VERTEX_POINT ( 'NONE', #13 ) ;
#191 = VERTEX_POINT ( 'NONE', #313 ) ;
#192 = CARTESIAN_POINT ( 'NONE',  ( 0.000000000000000000, 0.000000000000000000, -50.00000000000000000 ) ) ;
#193 = EDGE_CURVE ( 'NONE', #63, #325, #310, .T. ) ;
#194 = AXIS2_PLACEMENT_3D ( 'NONE', #70, #234, #229 ) ;
#195 = ORIENTED_EDGE ( 'NONE', *, *, #281, .T. ) ;
#196 = APPROVAL ( #35, 'NEURÈENÝ' ) ;
#197 = APPROVAL_PERSON_ORGANIZATION ( #104, #196, #7 ) ;
#198 = AXIS2_PLACEMENT_3D ( 'NONE', #74, #99, #182 ) ;
#199 = EDGE_LOOP ( 'NONE', ( #235, #148, #54, #303 ) ) ;
#200 = ORIENTED_EDGE ( 'NONE', *, *, #133, .T. ) ;
#201 = DIRECTION ( 'NONE',  ( 1.000000000000000000, 0.000000000000000000, 0.000000000000000000 ) ) ;
#202 = PERSON_AND_ORGANIZATION_ROLE ( 'design_supplier' ) ;
#203 = AXIS2_PLACEMENT_3D ( 'NONE', #66, #8, #105 ) ;
#204 = CLOSED_SHELL ( 'NONE', ( #256, #352, #343, #58, #338, #120, #96, #317, #289, #330, #221 ) ) ;
#205 = FACE_OUTER_BOUND ( 'NONE', #27, .T. ) ;
#206 = DIRECTION ( 'NONE',  ( 0.000000000000000000, 0.000000000000000000, -1.000000000000000000 ) ) ;
#207 = EDGE_CURVE ( 'NONE', #125, #156, #109, .T. ) ;
#208 = DIRECTION ( 'NONE',  ( 1.000000000000000000, 0.000000000000000000, 0.000000000000000000 ) ) ;
#209 = ORIENTED_EDGE ( 'NONE', *, *, #77, .F. ) ;
#210 = VECTOR ( 'NONE', #188, 1000.000000000000000 ) ;
#211 = DIRECTION ( 'NONE',  ( 1.000000000000000000, 0.000000000000000000, 0.000000000000000000 ) ) ;
#212 = DIRECTION ( 'NONE',  ( 1.000000000000000000, 0.000000000000000000, 0.000000000000000000 ) ) ;
#213 = VECTOR ( 'NONE', #335, 1000.000000000000000 ) ;
#214 = DATE_AND_TIME ( #184, #34 ) ;
#215 = VECTOR ( 'NONE', #319, 1000.000000000000000 ) ;
#216 = PERSON_AND_ORGANIZATION ( #56, #273 ) ;
#217 = ORIENTED_EDGE ( 'NONE', *, *, #43, .F. ) ;
#218 = CARTESIAN_POINT ( 'NONE',  ( 0.000000000000000000, 0.000000000000000000, -1.836970198721029934E-16 ) ) ;
#219 = EDGE_CURVE ( 'NONE', #156, #64, #59, .T. ) ;
#220 = EDGE_LOOP ( 'NONE', ( #209, #40, #9, #100 ) ) ;
#221 = ADVANCED_FACE ( 'NONE', ( #18 ), #141, .T. ) ;
#222 = APPROVAL_STATUS ( 'not_yet_approved' ) ;
#223 = LOCAL_TIME ( 9, 59, 41.00000000000000000, #326 ) ;
#224 = CALENDAR_DATE ( 2023, 13, 2 ) ;
#225 = ORIENTED_EDGE ( 'NONE', *, *, #281, .F. ) ;
#226 = EDGE_LOOP ( 'NONE', ( #293, #48 ) ) ;
#227 = AXIS2_PLACEMENT_3D ( 'NONE', #29, #180, #126 ) ;
#228 = LINE ( 'NONE', #284, #213 ) ;
#229 = DIRECTION ( 'NONE',  ( 1.000000000000000000, 0.000000000000000000, 0.000000000000000000 ) ) ;
#230 = DIRECTION ( 'NONE',  ( 1.000000000000000000, 0.000000000000000000, 0.000000000000000000 ) ) ;
#231 = DESIGN_CONTEXT ( 'detailed design', #276, 'design' ) ;
#232 = AXIS2_PLACEMENT_3D ( 'NONE', #266, #189, #294 ) ;
#233 = DIRECTION ( 'NONE',  ( -0.000000000000000000, -0.000000000000000000, 1.000000000000000000 ) ) ;
#234 = DIRECTION ( 'NONE',  ( -0.000000000000000000, -0.000000000000000000, 1.000000000000000000 ) ) ;
#235 = ORIENTED_EDGE ( 'NONE', *, *, #269, .T. ) ;
#236 = FACE_OUTER_BOUND ( 'NONE', #113, .T. ) ;
#237 = ORIENTED_EDGE ( 'NONE', *, *, #186, .F. ) ;
#238 = DIRECTION ( 'NONE',  ( 1.000000000000000000, 0.000000000000000000, 0.000000000000000000 ) ) ;
#239 = DIRECTION ( 'NONE',  ( 1.000000000000000000, 0.000000000000000000, 0.000000000000000000 ) ) ;
#240 = DIRECTION ( 'NONE',  ( -0.000000000000000000, -0.000000000000000000, 1.000000000000000000 ) ) ;
#241 = CIRCLE ( 'NONE', #25, 1.000000000000000000 ) ;
#242 = VERTEX_POINT ( 'NONE', #15 ) ;
#243 = DIRECTION ( 'NONE',  ( -0.000000000000000000, -0.000000000000000000, 1.000000000000000000 ) ) ;
#244 = APPLICATION_PROTOCOL_DEFINITION ( 'international standard', 'config_control_design', 1994, #276 ) ;
#245 = VECTOR ( 'NONE', #158, 999.9999999999998863 ) ;
#246 = EDGE_CURVE ( 'NONE', #242, #114, #83, .T. ) ;
#247 = CALENDAR_DATE ( 2023, 13, 2 ) ;
#248 =( NAMED_UNIT ( * ) PLANE_ANGLE_UNIT ( ) SI_UNIT ( $, .RADIAN. ) );
#249 = DIRECTION ( 'NONE',  ( 0.5000000000000012212, 0.000000000000000000, 0.8660254037844380415 ) ) ;
#250 = CARTESIAN_POINT ( 'NONE',  ( -1.500000000000000000, 1.836970198721029934E-16, 0.000000000000000000 ) ) ;
#251 = AXIS2_PLACEMENT_3D ( 'NONE', #33, #153, #258 ) ;
#252 = CYLINDRICAL_SURFACE ( 'NONE', #11, 3.000000000000000000 ) ;
#253 = SECURITY_CLASSIFICATION_LEVEL ( 'unclassified' ) ;
#254 = ORIENTED_EDGE ( 'NONE', *, *, #219, .T. ) ;
#255 = CARTESIAN_POINT ( 'NONE',  ( 0.000000000000000000, 0.000000000000000000, -3.673940397442059868E-16 ) ) ;
#256 = ADVANCED_FACE ( 'NONE', ( #292 ), #268, .T. ) ;
#257 = AXIS2_PLACEMENT_3D ( 'NONE', #137, #233, #239 ) ;
#258 = DIRECTION ( 'NONE',  ( 1.000000000000000000, 0.000000000000000000, 0.000000000000000000 ) ) ;
#259 = CARTESIAN_POINT ( 'NONE',  ( 0.000000000000000000, 0.000000000000000000, 0.000000000000000000 ) ) ;
#260 = EDGE_LOOP ( 'NONE', ( #91, #86, #37, #217 ) ) ;
#261 = APPROVAL_ROLE ( '' ) ;
#262 = PERSON_AND_ORGANIZATION_ROLE ( 'creator' ) ;
#263 = AXIS2_PLACEMENT_3D ( 'NONE', #150, #155, #304 ) ;
#264 = DIRECTION ( 'NONE',  ( -0.000000000000000000, -0.000000000000000000, 1.000000000000000000 ) ) ;
#265 = CARTESIAN_POINT ( 'NONE',  ( 1.500000000000000000, 0.000000000000000000, 0.000000000000000000 ) ) ;
#266 = CARTESIAN_POINT ( 'NONE',  ( 0.000000000000000000, 0.000000000000000000, 0.000000000000000000 ) ) ;
#267 = DIRECTION ( 'NONE',  ( -0.000000000000000000, -0.000000000000000000, 1.000000000000000000 ) ) ;
#268 = CYLINDRICAL_SURFACE ( 'NONE', #232, 3.000000000000000000 ) ;
#269 = EDGE_CURVE ( 'NONE', #125, #183, #145, .T. ) ;
#270 = CIRCLE ( 'NONE', #187, 3.000000000000000000 ) ;
#271 = EDGE_CURVE ( 'NONE', #242, #181, #296, .T. ) ;
#272 = SHAPE_DEFINITION_REPRESENTATION ( #78, #143 ) ;
#273 = ORGANIZATION ( 'NEURÈENÝ', 'NEURÈENÝ', '' ) ;
#274 = AXIS2_PLACEMENT_3D ( 'NONE', #6, #307, #305 ) ;
#275 = ORIENTED_EDGE ( 'NONE', *, *, #3, .F. ) ;
#276 = APPLICATION_CONTEXT ( 'configuration controlled 3d designs of mechanical parts and assemblies' ) ;
#277 = SECURITY_CLASSIFICATION ( '', '', #253 ) ;
#278 = APPLICATION_PROTOCOL_DEFINITION ( 'international standard', 'config_control_design', 1994, #185 ) ;
#279 = PLANE ( 'NONE',  #227 ) ;
#280 = CARTESIAN_POINT ( 'NONE',  ( 0.000000000000000000, 0.000000000000000000, -50.00000000000000000 ) ) ;
#281 = EDGE_CURVE ( 'NONE', #191, #114, #270, .T. ) ;
#282 = DIRECTION ( 'NONE',  ( -0.000000000000000000, -0.000000000000000000, 1.000000000000000000 ) ) ;
#283 = ORIENTED_EDGE ( 'NONE', *, *, #173, .T. ) ;
#284 = CARTESIAN_POINT ( 'NONE',  ( -1.000000000000000000, 1.224646799147353207E-16, 0.000000000000000000 ) ) ;
#285 = ORIENTED_EDGE ( 'NONE', *, *, #354, .F. ) ;
#286 = LINE ( 'NONE', #159, #329 ) ;
#287 = PERSON_AND_ORGANIZATION_ROLE ( 'design_owner' ) ;
#288 = APPROVAL_DATE_TIME ( #312, #69 ) ;
#289 = ADVANCED_FACE ( 'NONE', ( #130, #73 ), #279, .T. ) ;
#290 = ORIENTED_EDGE ( 'NONE', *, *, #133, .F. ) ;
#291 = DIRECTION ( 'NONE',  ( -0.000000000000000000, -0.000000000000000000, 1.000000000000000000 ) ) ;
#292 = FACE_OUTER_BOUND ( 'NONE', #321, .T. ) ;
#293 = ORIENTED_EDGE ( 'NONE', *, *, #28, .T. ) ;
#294 = DIRECTION ( 'NONE',  ( 1.000000000000000000, 0.000000000000000000, 0.000000000000000000 ) ) ;
#295 = CC_DESIGN_PERSON_AND_ORGANIZATION_ASSIGNMENT ( #42, #262, ( #301 ) ) ;
#296 = CIRCLE ( 'NONE', #103, 3.000000000000000000 ) ;
#297 = CIRCLE ( 'NONE', #45, 1.500000000000000000 ) ;
#298 = CARTESIAN_POINT ( 'NONE',  ( -1.000000000000000000, 1.224646799147353207E-16, -50.86602540378444104 ) ) ;
#299 = APPROVAL ( #222, 'NEURÈENÝ' ) ;
#300 = CC_DESIGN_APPROVAL ( #69, ( #301 ) ) ;
#301 = PRODUCT_DEFINITION_FORMATION_WITH_SPECIFIED_SOURCE ( 'LIBOVOLNÝ', '', #172, .NOT_KNOWN. ) ;
#302 = AXIS2_PLACEMENT_3D ( 'NONE', #177, #31, #208 ) ;
#303 = ORIENTED_EDGE ( 'NONE', *, *, #173, .F. ) ;
#304 = DIRECTION ( 'NONE',  ( 1.000000000000000000, 0.000000000000000000, 0.000000000000000000 ) ) ;
#305 = DIRECTION ( 'NONE',  ( 1.000000000000000000, 0.000000000000000000, 0.000000000000000000 ) ) ;
#306 = DIRECTION ( 'NONE',  ( -0.000000000000000000, -0.000000000000000000, 1.000000000000000000 ) ) ;
#307 = DIRECTION ( 'NONE',  ( -0.000000000000000000, -0.000000000000000000, 1.000000000000000000 ) ) ;
#308 =( GEOMETRIC_REPRESENTATION_CONTEXT ( 3 ) GLOBAL_UNCERTAINTY_ASSIGNED_CONTEXT ( ( #135 ) ) GLOBAL_UNIT_ASSIGNED_CONTEXT ( ( #55, #248, #61 ) ) REPRESENTATION_CONTEXT ( 'NONE', 'WORKASPACE' ) );
#309 = ORIENTED_EDGE ( 'NONE', *, *, #246, .F. ) ;
#310 = CIRCLE ( 'NONE', #81, 1.500000000000000000 ) ;
#311 = CARTESIAN_POINT ( 'NONE',  ( 1.500000000000000000, 0.000000000000000000, -50.00000000000000000 ) ) ;
#312 = DATE_AND_TIME ( #339, #328 ) ;
#313 = CARTESIAN_POINT ( 'NONE',  ( 3.000000000000000000, 0.000000000000000000, -3.673940397442059868E-16 ) ) ;
#314 = DATE_AND_TIME ( #47, #93 ) ;
#315 = DIRECTION ( 'NONE',  ( 1.000000000000000000, 0.000000000000000000, 0.000000000000000000 ) ) ;
#316 = DIRECTION ( 'NONE',  ( 1.000000000000000000, 0.000000000000000000, 0.000000000000000000 ) ) ;
#317 = ADVANCED_FACE ( 'NONE', ( #149 ), #102, .T. ) ;
#318 = ORIENTED_EDGE ( 'NONE', *, *, #324, .T. ) ;
#319 = DIRECTION ( 'NONE',  ( -0.000000000000000000, -0.000000000000000000, 1.000000000000000000 ) ) ;
#320 = CARTESIAN_POINT ( 'NONE',  ( 0.000000000000000000, 0.000000000000000000, 0.000000000000000000 ) ) ;
#321 = EDGE_LOOP ( 'NONE', ( #322, #163, #225, #275 ) ) ;
#322 = ORIENTED_EDGE ( 'NONE', *, *, #62, .T. ) ;
#323 = APPROVAL_ROLE ( '' ) ;
#324 = EDGE_CURVE ( 'NONE', #114, #191, #85, .T. ) ;
#325 = VERTEX_POINT ( 'NONE', #311 ) ;
#326 = COORDINATED_UNIVERSAL_TIME_OFFSET ( 1, 0, .AHEAD. ) ;
#327 = EDGE_CURVE ( 'NONE', #183, #63, #92, .T. ) ;
#328 = LOCAL_TIME ( 9, 59, 41.00000000000000000, #131 ) ;
#329 = VECTOR ( 'NONE', #249, 999.9999999999998863 ) ;
#330 = ADVANCED_FACE ( 'NONE', ( #1 ), #252, .T. ) ;
#331 = DIRECTION ( 'NONE',  ( -0.000000000000000000, -0.000000000000000000, 1.000000000000000000 ) ) ;
#332 = EDGE_LOOP ( 'NONE', ( #195, #318 ) ) ;
#333 = CARTESIAN_POINT ( 'NONE',  ( 0.000000000000000000, 0.000000000000000000, -3.673940397442059868E-16 ) ) ;
#334 = ORIENTED_EDGE ( 'NONE', *, *, #3, .T. ) ;
#335 = DIRECTION ( 'NONE',  ( -0.000000000000000000, -0.000000000000000000, 1.000000000000000000 ) ) ;
#336 = CARTESIAN_POINT ( 'NONE',  ( 1.000000000000000000, 0.000000000000000000, -50.00000000000000000 ) ) ;
#337 = VERTEX_POINT ( 'NONE', #94 ) ;
#338 = ADVANCED_FACE ( 'NONE', ( #205 ), #176, .T. ) ;
#339 = CALENDAR_DATE ( 2023, 13, 2 ) ;
#340 = VECTOR ( 'NONE', #72, 1000.000000000000000 ) ;
#341 = DIRECTION ( 'NONE',  ( -0.000000000000000000, -0.000000000000000000, 1.000000000000000000 ) ) ;
#342 = CARTESIAN_POINT ( 'NONE',  ( 3.000000000000000000, 0.000000000000000000, -3.000000000000000444 ) ) ;
#343 = ADVANCED_FACE ( 'NONE', ( #123 ), #88, .T. ) ;
#344 = LINE ( 'NONE', #250, #340 ) ;
#345 = DIRECTION ( 'NONE',  ( -0.000000000000000000, -0.000000000000000000, 1.000000000000000000 ) ) ;
#346 = COORDINATED_UNIVERSAL_TIME_OFFSET ( 1, 0, .AHEAD. ) ;
#347 = CC_DESIGN_SECURITY_CLASSIFICATION ( #277, ( #301 ) ) ;
#348 = LINE ( 'NONE', #265, #87 ) ;
#349 = DIRECTION ( 'NONE',  ( 1.000000000000000000, 0.000000000000000000, 0.000000000000000000 ) ) ;
#350 = ORIENTED_EDGE ( 'NONE', *, *, #271, .F. ) ;
#351 = PERSON_AND_ORGANIZATION_ROLE ( 'classification_officer' ) ;
#352 = ADVANCED_FACE ( 'NONE', ( #68 ), #5, .T. ) ;
#353 = AXIS2_PLACEMENT_3D ( 'NONE', #259, #306, #128 ) ;
#354 = EDGE_CURVE ( 'NONE', #183, #64, #228, .T. ) ;
#355 = CARTESIAN_POINT ( 'NONE',  ( 0.000000000000000000, 0.000000000000000000, -50.00000000000000000 ) ) ;
ENDSEC;
END-ISO-10303-21;
