ISO-10303-21;
HEADER;
FILE_DESCRIPTION (( 'STEP AP203' ),
    '1' );
FILE_NAME ('4650.STEP',
    '2023-02-13T08:57:28',
    ( '' ),
    ( '' ),
    'SwSTEP 2.0',
    'SolidWorks 2019',
    '' );
FILE_SCHEMA (( 'CONFIG_CONTROL_DESIGN' ));
ENDSEC;

DATA;
#1 = CARTESIAN_POINT ( 'NONE',  ( 0.000000000000000000, 0.000000000000000000, 0.000000000000000000 ) ) ;
#2 = CC_DESIGN_PERSON_AND_ORGANIZATION_ASSIGNMENT ( #180, #171, ( #281 ) ) ;
#3 = VECTOR ( 'NONE', #200, 1000.000000000000000 ) ;
#4 = APPROVAL_PERSON_ORGANIZATION ( #338, #312, #56 ) ;
#5 = CARTESIAN_POINT ( 'NONE',  ( -1.250000000000000000, 1.530808498934191571E-16, -120.0000000000000000 ) ) ;
#6 = DIRECTION ( 'NONE',  ( -0.000000000000000000, -0.000000000000000000, 1.000000000000000000 ) ) ;
#7 = EDGE_CURVE ( 'NONE', #219, #276, #52, .T. ) ;
#8 = APPLICATION_PROTOCOL_DEFINITION ( 'international standard', 'config_control_design', 1994, #231 ) ;
#9 = FACE_BOUND ( 'NONE', #198, .T. ) ;
#10 = ORIENTED_EDGE ( 'NONE', *, *, #225, .F. ) ;
#11 = SECURITY_CLASSIFICATION_LEVEL ( 'unclassified' ) ;
#12 = DIRECTION ( 'NONE',  ( 1.000000000000000000, 0.000000000000000000, 0.000000000000000000 ) ) ;
#13 = DIRECTION ( 'NONE',  ( 1.000000000000000000, 0.000000000000000000, 0.000000000000000000 ) ) ;
#14 = CLOSED_SHELL ( 'NONE', ( #196, #96, #135, #22, #165, #286, #140, #146, #175, #105, #236 ) ) ;
#15 = CYLINDRICAL_SURFACE ( 'NONE', #45, 1.250000000000000000 ) ;
#16 = AXIS2_PLACEMENT_3D ( 'NONE', #218, #184, #331 ) ;
#17 = CARTESIAN_POINT ( 'NONE',  ( 1.250000000000000000, 0.000000000000000000, -80.43301270189222407 ) ) ;
#18 = PERSON_AND_ORGANIZATION ( #224, #95 ) ;
#19 = CIRCLE ( 'NONE', #154, 1.500000000000000000 ) ;
#20 = DIRECTION ( 'NONE',  ( 1.000000000000000000, 0.000000000000000000, 0.000000000000000000 ) ) ;
#21 = AXIS2_PLACEMENT_3D ( 'NONE', #261, #344, #12 ) ;
#22 = ADVANCED_FACE ( 'NONE', ( #334 ), #15, .T. ) ;
#23 = ORIENTED_EDGE ( 'NONE', *, *, #285, .F. ) ;
#24 = ORIENTED_EDGE ( 'NONE', *, *, #68, .F. ) ;
#25 = ORIENTED_EDGE ( 'NONE', *, *, #77, .F. ) ;
#26 = CALENDAR_DATE ( 2023, 13, 2 ) ;
#27 = PLANE ( 'NONE',  #73 ) ;
#28 = CALENDAR_DATE ( 2023, 13, 2 ) ;
#29 = DIRECTION ( 'NONE',  ( -0.000000000000000000, -0.000000000000000000, 1.000000000000000000 ) ) ;
#30 = DIRECTION ( 'NONE',  ( -0.000000000000000000, -0.000000000000000000, 1.000000000000000000 ) ) ;
#31 = FACE_OUTER_BOUND ( 'NONE', #187, .T. ) ;
#32 = EDGE_LOOP ( 'NONE', ( #190, #74, #25, #212 ) ) ;
#33 = DIRECTION ( 'NONE',  ( 0.000000000000000000, 0.000000000000000000, -1.000000000000000000 ) ) ;
#34 = CC_DESIGN_APPROVAL ( #244, ( #303 ) ) ;
#35 = ORIENTED_EDGE ( 'NONE', *, *, #51, .T. ) ;
#36 = ORIENTED_EDGE ( 'NONE', *, *, #287, .T. ) ;
#37 = EDGE_CURVE ( 'NONE', #342, #158, #50, .T. ) ;
#38 = AXIS2_PLACEMENT_3D ( 'NONE', #172, #292, #152 ) ;
#39 = ORIENTED_EDGE ( 'NONE', *, *, #320, .T. ) ;
#40 = PRODUCT_DEFINITION ( 'NEZNÁMÝ', '', #281, #215 ) ;
#41 = ORIENTED_EDGE ( 'NONE', *, *, #77, .T. ) ;
#42 = DIRECTION ( 'NONE',  ( -0.000000000000000000, -0.000000000000000000, 1.000000000000000000 ) ) ;
#43 = PERSON_AND_ORGANIZATION ( #224, #95 ) ;
#44 = DIRECTION ( 'NONE',  ( -0.000000000000000000, -0.000000000000000000, 1.000000000000000000 ) ) ;
#45 = AXIS2_PLACEMENT_3D ( 'NONE', #349, #159, #194 ) ;
#46 = DIRECTION ( 'NONE',  ( 1.000000000000000000, 0.000000000000000000, 0.000000000000000000 ) ) ;
#47 = LOCAL_TIME ( 9, 57, 28.00000000000000000, #235 ) ;
#48 = DIRECTION ( 'NONE',  ( -0.000000000000000000, -0.000000000000000000, 1.000000000000000000 ) ) ;
#49 = VERTEX_POINT ( 'NONE', #321 ) ;
#50 = LINE ( 'NONE', #299, #183 ) ;
#51 = EDGE_CURVE ( 'NONE', #182, #85, #67, .T. ) ;
#52 = CIRCLE ( 'NONE', #208, 1.250000000000000000 ) ;
#53 = CC_DESIGN_DATE_AND_TIME_ASSIGNMENT ( #132, #277, ( #303 ) ) ;
#54 = VECTOR ( 'NONE', #6, 1000.000000000000000 ) ;
#55 = DIRECTION ( 'NONE',  ( 1.000000000000000000, 0.000000000000000000, 0.000000000000000000 ) ) ;
#56 = APPROVAL_ROLE ( '' ) ;
#57 = DIRECTION ( 'NONE',  ( -1.000000000000000000, 0.000000000000000000, -0.000000000000000000 ) ) ;
#58 = APPROVAL ( #323, 'NEURÈENÝ' ) ;
#59 = ORIENTED_EDGE ( 'NONE', *, *, #354, .T. ) ;
#60 = AXIS2_PLACEMENT_3D ( 'NONE', #150, #71, #318 ) ;
#61 = APPLICATION_CONTEXT ( 'configuration controlled 3d designs of mechanical parts and assemblies' ) ;
#62 = PLANE ( 'NONE',  #223 ) ;
#63 = CARTESIAN_POINT ( 'NONE',  ( -3.000000000000000000, 3.673940397442059868E-16, 0.000000000000000000 ) ) ;
#64 = EDGE_LOOP ( 'NONE', ( #23, #284, #35, #157 ) ) ;
#65 = APPROVAL_DATE_TIME ( #340, #58 ) ;
#66 = CARTESIAN_POINT ( 'NONE',  ( 0.000000000000000000, 0.000000000000000000, -120.0000000000000000 ) ) ;
#67 = LINE ( 'NONE', #214, #222 ) ;
#68 = EDGE_CURVE ( 'NONE', #219, #294, #300, .T. ) ;
#69 = ORIENTED_EDGE ( 'NONE', *, *, #201, .F. ) ;
#70 = SHAPE_DEFINITION_REPRESENTATION ( #133, #169 ) ;
#71 = DIRECTION ( 'NONE',  ( 0.000000000000000000, -0.000000000000000000, 1.000000000000000000 ) ) ;
#72 = CIRCLE ( 'NONE', #84, 1.500000000000000000 ) ;
#73 = AXIS2_PLACEMENT_3D ( 'NONE', #156, #264, #57 ) ;
#74 = ORIENTED_EDGE ( 'NONE', *, *, #68, .T. ) ;
#75 = LINE ( 'NONE', #79, #131 ) ;
#76 = EDGE_LOOP ( 'NONE', ( #41, #355, #229, #115 ) ) ;
#77 = EDGE_CURVE ( 'NONE', #342, #294, #268, .T. ) ;
#78 = ORIENTED_EDGE ( 'NONE', *, *, #354, .F. ) ;
#79 = CARTESIAN_POINT ( 'NONE',  ( 1.250000000000000000, 0.000000000000000000, 0.000000000000000000 ) ) ;
#80 = AXIS2_PLACEMENT_3D ( 'NONE', #106, #280, #254 ) ;
#81 = CARTESIAN_POINT ( 'NONE',  ( 0.000000000000000000, 0.000000000000000000, -3.000000000000000444 ) ) ;
#82 =( NAMED_UNIT ( * ) SI_UNIT ( $, .STERADIAN. ) SOLID_ANGLE_UNIT ( ) );
#83 = FACE_OUTER_BOUND ( 'NONE', #64, .T. ) ;
#84 = AXIS2_PLACEMENT_3D ( 'NONE', #346, #329, #111 ) ;
#85 = VERTEX_POINT ( 'NONE', #353 ) ;
#86 = DIRECTION ( 'NONE',  ( -0.000000000000000000, -0.000000000000000000, 1.000000000000000000 ) ) ;
#87 = DIRECTION ( 'NONE',  ( 1.000000000000000000, 0.000000000000000000, 0.000000000000000000 ) ) ;
#88 = VECTOR ( 'NONE', #97, 1000.000000000000114 ) ;
#89 = COORDINATED_UNIVERSAL_TIME_OFFSET ( 1, 0, .AHEAD. ) ;
#90 = PRODUCT_RELATED_PRODUCT_CATEGORY ( 'detail', '', ( #186 ) ) ;
#91 = CARTESIAN_POINT ( 'NONE',  ( 1.500000000000000000, 0.000000000000000000, 0.000000000000000000 ) ) ;
#92 = ORIENTED_EDGE ( 'NONE', *, *, #220, .F. ) ;
#93 = DIRECTION ( 'NONE',  ( -0.000000000000000000, -0.000000000000000000, 1.000000000000000000 ) ) ;
#94 = CALENDAR_DATE ( 2023, 13, 2 ) ;
#95 = ORGANIZATION ( 'NEURÈENÝ', 'NEURÈENÝ', '' ) ;
#96 = ADVANCED_FACE ( 'NONE', ( #288 ), #163, .T. ) ;
#97 = DIRECTION ( 'NONE',  ( -0.4999999999999981681, 6.123233995736742617E-17, 0.8660254037844395958 ) ) ;
#98 = ORIENTED_EDGE ( 'NONE', *, *, #333, .T. ) ;
#99 = CARTESIAN_POINT ( 'NONE',  ( -1.250000000000000000, 1.530808498934191571E-16, -80.43301270189222407 ) ) ;
#100 = LINE ( 'NONE', #119, #210 ) ;
#101 = EDGE_CURVE ( 'NONE', #170, #49, #19, .T. ) ;
#102 = EDGE_LOOP ( 'NONE', ( #305, #123 ) ) ;
#103 = COORDINATED_UNIVERSAL_TIME_OFFSET ( 1, 0, .AHEAD. ) ;
#104 = LOCAL_TIME ( 9, 57, 28.00000000000000000, #116 ) ;
#105 = ADVANCED_FACE ( 'NONE', ( #83 ), #232, .T. ) ;
#106 = CARTESIAN_POINT ( 'NONE',  ( 0.000000000000000000, 0.000000000000000000, -3.673940397442059868E-16 ) ) ;
#107 = UNCERTAINTY_MEASURE_WITH_UNIT (LENGTH_MEASURE( 1.000000000000000082E-05 ), #272, 'distance_accuracy_value', 'NONE');
#108 = DIRECTION ( 'NONE',  ( -0.000000000000000000, -0.000000000000000000, 1.000000000000000000 ) ) ;
#109 = CALENDAR_DATE ( 2023, 13, 2 ) ;
#110 = AXIS2_PLACEMENT_3D ( 'NONE', #134, #42, #20 ) ;
#111 = DIRECTION ( 'NONE',  ( 1.000000000000000000, 0.000000000000000000, 0.000000000000000000 ) ) ;
#112 = CC_DESIGN_APPROVAL ( #312, ( #40 ) ) ;
#113 = CARTESIAN_POINT ( 'NONE',  ( 0.000000000000000000, 0.000000000000000000, 0.000000000000000000 ) ) ;
#114 = EDGE_LOOP ( 'NONE', ( #98, #256, #179, #10 ) ) ;
#115 = ORIENTED_EDGE ( 'NONE', *, *, #37, .F. ) ;
#116 = COORDINATED_UNIVERSAL_TIME_OFFSET ( 1, 0, .AHEAD. ) ;
#117 = CC_DESIGN_APPROVAL ( #58, ( #281 ) ) ;
#118 = PERSON_AND_ORGANIZATION_ROLE ( 'creator' ) ;
#119 = CARTESIAN_POINT ( 'NONE',  ( -1.500000000000000000, 1.836970198721029934E-16, 0.000000000000000000 ) ) ;
#120 = ORIENTED_EDGE ( 'NONE', *, *, #37, .T. ) ;
#121 = FACE_OUTER_BOUND ( 'NONE', #257, .T. ) ;
#122 = FACE_OUTER_BOUND ( 'NONE', #347, .T. ) ;
#123 = ORIENTED_EDGE ( 'NONE', *, *, #249, .F. ) ;
#124 = PERSON_AND_ORGANIZATION ( #224, #95 ) ;
#125 = EDGE_CURVE ( 'NONE', #319, #85, #188, .T. ) ;
#126 =( GEOMETRIC_REPRESENTATION_CONTEXT ( 3 ) GLOBAL_UNCERTAINTY_ASSIGNED_CONTEXT ( ( #107 ) ) GLOBAL_UNIT_ASSIGNED_CONTEXT ( ( #272, #193, #82 ) ) REPRESENTATION_CONTEXT ( 'NONE', 'WORKASPACE' ) );
#127 = CARTESIAN_POINT ( 'NONE',  ( 0.000000000000000000, 0.000000000000000000, -80.43301270189222407 ) ) ;
#128 = DIRECTION ( 'NONE',  ( 1.000000000000000000, 0.000000000000000000, 0.000000000000000000 ) ) ;
#129 = DIRECTION ( 'NONE',  ( 0.4999999999999981681, 0.000000000000000000, 0.8660254037844395958 ) ) ;
#130 = CARTESIAN_POINT ( 'NONE',  ( -1.500000000000000000, 1.836970198721029934E-16, -80.00000000000000000 ) ) ;
#131 = VECTOR ( 'NONE', #185, 1000.000000000000000 ) ;
#132 = DATE_AND_TIME ( #28, #262 ) ;
#133 = PRODUCT_DEFINITION_SHAPE ( 'NONE', 'NONE',  #40 ) ;
#134 = CARTESIAN_POINT ( 'NONE',  ( 0.000000000000000000, 0.000000000000000000, -3.673940397442059868E-16 ) ) ;
#135 = ADVANCED_FACE ( 'NONE', ( #250 ), #174, .T. ) ;
#136 = CC_DESIGN_DATE_AND_TIME_ASSIGNMENT ( #296, #205, ( #40 ) ) ;
#137 = AXIS2_PLACEMENT_3D ( 'NONE', #176, #337, #128 ) ;
#138 = DIRECTION ( 'NONE',  ( 1.000000000000000000, 0.000000000000000000, 0.000000000000000000 ) ) ;
#139 = EDGE_LOOP ( 'NONE', ( #227, #204 ) ) ;
#140 = ADVANCED_FACE ( 'NONE', ( #279 ), #234, .T. ) ;
#141 = AXIS2_PLACEMENT_3D ( 'NONE', #282, #48, #46 ) ;
#142 = CC_DESIGN_SECURITY_CLASSIFICATION ( #303, ( #281 ) ) ;
#143 = PERSON_AND_ORGANIZATION_ROLE ( 'classification_officer' ) ;
#144 = APPROVAL_STATUS ( 'not_yet_approved' ) ;
#145 = CARTESIAN_POINT ( 'NONE',  ( -3.000000000000000000, 3.673940397442059868E-16, -3.000000000000000444 ) ) ;
#146 = ADVANCED_FACE ( 'NONE', ( #306 ), #332, .T. ) ;
#147 = LOCAL_TIME ( 9, 57, 28.00000000000000000, #103 ) ;
#148 = CARTESIAN_POINT ( 'NONE',  ( 1.250000000000000000, 0.000000000000000000, -120.0000000000000000 ) ) ;
#149 = APPROVAL_ROLE ( '' ) ;
#150 = CARTESIAN_POINT ( 'NONE',  ( 0.000000000000000000, 0.000000000000000000, -1.836970198721029934E-16 ) ) ;
#151 = PERSON_AND_ORGANIZATION ( #224, #95 ) ;
#152 = DIRECTION ( 'NONE',  ( 1.000000000000000000, 0.000000000000000000, 0.000000000000000000 ) ) ;
#153 = ORIENTED_EDGE ( 'NONE', *, *, #206, .T. ) ;
#154 = AXIS2_PLACEMENT_3D ( 'NONE', #81, #252, #166 ) ;
#155 = AXIS2_PLACEMENT_3D ( 'NONE', #1, #335, #87 ) ;
#156 = CARTESIAN_POINT ( 'NONE',  ( 0.000000000000000000, 0.000000000000000000, -120.0000000000000000 ) ) ;
#157 = ORIENTED_EDGE ( 'NONE', *, *, #125, .F. ) ;
#158 = VERTEX_POINT ( 'NONE', #352 ) ;
#159 = DIRECTION ( 'NONE',  ( -0.000000000000000000, -0.000000000000000000, 1.000000000000000000 ) ) ;
#160 = ORIENTED_EDGE ( 'NONE', *, *, #125, .T. ) ;
#161 = DIRECTION ( 'NONE',  ( 1.000000000000000000, 0.000000000000000000, 0.000000000000000000 ) ) ;
#162 = AXIS2_PLACEMENT_3D ( 'NONE', #66, #29, #13 ) ;
#163 = CYLINDRICAL_SURFACE ( 'NONE', #141, 1.500000000000000000 ) ;
#164 = PERSON_AND_ORGANIZATION_ROLE ( 'design_owner' ) ;
#165 = ADVANCED_FACE ( 'NONE', ( #226 ), #27, .T. ) ;
#166 = DIRECTION ( 'NONE',  ( 1.000000000000000000, 0.000000000000000000, 0.000000000000000000 ) ) ;
#167 = EDGE_LOOP ( 'NONE', ( #325, #36, #120, #240 ) ) ;
#168 = VERTEX_POINT ( 'NONE', #145 ) ;
#169 = ADVANCED_BREP_SHAPE_REPRESENTATION ( '4650', ( #291, #155 ), #126 ) ;
#170 = VERTEX_POINT ( 'NONE', #181 ) ;
#171 = PERSON_AND_ORGANIZATION_ROLE ( 'creator' ) ;
#172 = CARTESIAN_POINT ( 'NONE',  ( 0.000000000000000000, 0.000000000000000000, -3.000000000000000444 ) ) ;
#173 = AXIS2_PLACEMENT_3D ( 'NONE', #113, #44, #138 ) ;
#174 = CONICAL_SURFACE ( 'NONE', #16, 1.500000000000000000, 0.5235987755982968173 ) ;
#175 = ADVANCED_FACE ( 'NONE', ( #9, #297 ), #62, .T. ) ;
#176 = CARTESIAN_POINT ( 'NONE',  ( 0.000000000000000000, 0.000000000000000000, 0.000000000000000000 ) ) ;
#177 = APPROVAL_DATE_TIME ( #199, #312 ) ;
#178 = DIRECTION ( 'NONE',  ( 1.000000000000000000, 0.000000000000000000, 0.000000000000000000 ) ) ;
#179 = ORIENTED_EDGE ( 'NONE', *, *, #101, .F. ) ;
#180 = PERSON_AND_ORGANIZATION ( #224, #95 ) ;
#181 = CARTESIAN_POINT ( 'NONE',  ( 1.500000000000000000, 0.000000000000000000, -3.000000000000000444 ) ) ;
#182 = VERTEX_POINT ( 'NONE', #270 ) ;
#183 = VECTOR ( 'NONE', #129, 1000.000000000000114 ) ;
#184 = DIRECTION ( 'NONE',  ( -0.000000000000000000, -0.000000000000000000, 1.000000000000000000 ) ) ;
#185 = DIRECTION ( 'NONE',  ( -0.000000000000000000, -0.000000000000000000, 1.000000000000000000 ) ) ;
#186 = PRODUCT ( '4650', '4650', '', ( #314 ) ) ;
#187 = EDGE_LOOP ( 'NONE', ( #59, #160 ) ) ;
#188 = CIRCLE ( 'NONE', #110, 3.000000000000000000 ) ;
#189 = EDGE_CURVE ( 'NONE', #276, #219, #255, .T. ) ;
#190 = ORIENTED_EDGE ( 'NONE', *, *, #189, .T. ) ;
#191 = CARTESIAN_POINT ( 'NONE',  ( 0.000000000000000000, 0.000000000000000000, -80.43301270189222407 ) ) ;
#192 = AXIS2_PLACEMENT_3D ( 'NONE', #191, #108, #55 ) ;
#193 =( NAMED_UNIT ( * ) PLANE_ANGLE_UNIT ( ) SI_UNIT ( $, .RADIAN. ) );
#194 = DIRECTION ( 'NONE',  ( 1.000000000000000000, 0.000000000000000000, 0.000000000000000000 ) ) ;
#195 = APPLICATION_PROTOCOL_DEFINITION ( 'international standard', 'config_control_design', 1994, #61 ) ;
#196 = ADVANCED_FACE ( 'NONE', ( #122 ), #289, .T. ) ;
#197 = AXIS2_PLACEMENT_3D ( 'NONE', #339, #93, #178 ) ;
#198 = EDGE_LOOP ( 'NONE', ( #237, #322 ) ) ;
#199 = DATE_AND_TIME ( #26, #104 ) ;
#200 = DIRECTION ( 'NONE',  ( -0.000000000000000000, -0.000000000000000000, 1.000000000000000000 ) ) ;
#201 = EDGE_CURVE ( 'NONE', #49, #170, #327, .T. ) ;
#202 = CALENDAR_DATE ( 2023, 13, 2 ) ;
#203 = DIRECTION ( 'NONE',  ( -0.000000000000000000, -0.000000000000000000, 1.000000000000000000 ) ) ;
#204 = ORIENTED_EDGE ( 'NONE', *, *, #7, .F. ) ;
#205 = DATE_TIME_ROLE ( 'creation_date' ) ;
#206 = EDGE_CURVE ( 'NONE', #182, #168, #241, .T. ) ;
#207 = LINE ( 'NONE', #341, #88 ) ;
#208 = AXIS2_PLACEMENT_3D ( 'NONE', #258, #86, #230 ) ;
#209 = CC_DESIGN_PERSON_AND_ORGANIZATION_ASSIGNMENT ( #43, #164, ( #186 ) ) ;
#210 = VECTOR ( 'NONE', #30, 1000.000000000000000 ) ;
#211 = LINE ( 'NONE', #63, #54 ) ;
#212 = ORIENTED_EDGE ( 'NONE', *, *, #320, .F. ) ;
#213 = CARTESIAN_POINT ( 'NONE',  ( 0.000000000000000000, 0.000000000000000000, -80.00000000000000000 ) ) ;
#214 = CARTESIAN_POINT ( 'NONE',  ( 3.000000000000000000, 0.000000000000000000, 0.000000000000000000 ) ) ;
#215 = DESIGN_CONTEXT ( 'detailed design', #231, 'design' ) ;
#216 = DIRECTION ( 'NONE',  ( -1.000000000000000000, 0.000000000000000000, -0.000000000000000000 ) ) ;
#217 = LOCAL_TIME ( 9, 57, 28.00000000000000000, #89 ) ;
#218 = CARTESIAN_POINT ( 'NONE',  ( 0.000000000000000000, 0.000000000000000000, -80.00000000000000000 ) ) ;
#219 = VERTEX_POINT ( 'NONE', #5 ) ;
#220 = EDGE_CURVE ( 'NONE', #330, #49, #100, .T. ) ;
#221 = CARTESIAN_POINT ( 'NONE',  ( 0.000000000000000000, 0.000000000000000000, 0.000000000000000000 ) ) ;
#222 = VECTOR ( 'NONE', #275, 1000.000000000000000 ) ;
#223 = AXIS2_PLACEMENT_3D ( 'NONE', #326, #33, #216 ) ;
#224 = PERSON ( 'NEURÈENÝ', 'NEURÈENÝ', 'NEURÈENÝ', ('NEURÈENÝ'), ('NEURÈENÝ'), ('NEURÈENÝ') ) ;
#225 = EDGE_CURVE ( 'NONE', #158, #170, #265, .T. ) ;
#226 = FACE_OUTER_BOUND ( 'NONE', #139, .T. ) ;
#227 = ORIENTED_EDGE ( 'NONE', *, *, #189, .F. ) ;
#228 = APPROVAL_PERSON_ORGANIZATION ( #316, #58, #149 ) ;
#229 = ORIENTED_EDGE ( 'NONE', *, *, #333, .F. ) ;
#230 = DIRECTION ( 'NONE',  ( 1.000000000000000000, 0.000000000000000000, 0.000000000000000000 ) ) ;
#231 = APPLICATION_CONTEXT ( 'configuration controlled 3d designs of mechanical parts and assemblies' ) ;
#232 = CYLINDRICAL_SURFACE ( 'NONE', #309, 3.000000000000000000 ) ;
#233 = AXIS2_PLACEMENT_3D ( 'NONE', #273, #248, #278 ) ;
#234 = CONICAL_SURFACE ( 'NONE', #233, 1.500000000000000000, 0.5235987755982968173 ) ;
#235 = COORDINATED_UNIVERSAL_TIME_OFFSET ( 1, 0, .AHEAD. ) ;
#236 = ADVANCED_FACE ( 'NONE', ( #31 ), #239, .T. ) ;
#237 = ORIENTED_EDGE ( 'NONE', *, *, #101, .T. ) ;
#238 = CYLINDRICAL_SURFACE ( 'NONE', #197, 1.250000000000000000 ) ;
#239 = PLANE ( 'NONE',  #60 ) ;
#240 = ORIENTED_EDGE ( 'NONE', *, *, #311, .F. ) ;
#241 = CIRCLE ( 'NONE', #345, 3.000000000000000000 ) ;
#242 = DIRECTION ( 'NONE',  ( -0.000000000000000000, -0.000000000000000000, 1.000000000000000000 ) ) ;
#243 = CARTESIAN_POINT ( 'NONE',  ( 0.000000000000000000, 0.000000000000000000, -3.000000000000000444 ) ) ;
#244 = APPROVAL ( #245, 'NEURÈENÝ' ) ;
#245 = APPROVAL_STATUS ( 'not_yet_approved' ) ;
#246 = ORIENTED_EDGE ( 'NONE', *, *, #7, .T. ) ;
#247 = AXIS2_PLACEMENT_3D ( 'NONE', #213, #324, #161 ) ;
#248 = DIRECTION ( 'NONE',  ( -0.000000000000000000, -0.000000000000000000, 1.000000000000000000 ) ) ;
#249 = EDGE_CURVE ( 'NONE', #168, #182, #293, .T. ) ;
#250 = FACE_OUTER_BOUND ( 'NONE', #76, .T. ) ;
#251 = CC_DESIGN_PERSON_AND_ORGANIZATION_ASSIGNMENT ( #124, #143, ( #303 ) ) ;
#252 = DIRECTION ( 'NONE',  ( -0.000000000000000000, -0.000000000000000000, 1.000000000000000000 ) ) ;
#253 = ORIENTED_EDGE ( 'NONE', *, *, #285, .T. ) ;
#254 = DIRECTION ( 'NONE',  ( 1.000000000000000000, 0.000000000000000000, 0.000000000000000000 ) ) ;
#255 = CIRCLE ( 'NONE', #162, 1.250000000000000000 ) ;
#256 = ORIENTED_EDGE ( 'NONE', *, *, #220, .T. ) ;
#257 = EDGE_LOOP ( 'NONE', ( #24, #246, #39, #283 ) ) ;
#258 = CARTESIAN_POINT ( 'NONE',  ( 0.000000000000000000, 0.000000000000000000, -120.0000000000000000 ) ) ;
#259 = AXIS2_PLACEMENT_3D ( 'NONE', #127, #242, #343 ) ;
#260 = PERSON_AND_ORGANIZATION ( #224, #95 ) ;
#261 = CARTESIAN_POINT ( 'NONE',  ( 0.000000000000000000, 0.000000000000000000, -3.000000000000000444 ) ) ;
#262 = LOCAL_TIME ( 9, 57, 28.00000000000000000, #290 ) ;
#263 = EDGE_LOOP ( 'NONE', ( #92, #298, #313, #69 ) ) ;
#264 = DIRECTION ( 'NONE',  ( 0.000000000000000000, 0.000000000000000000, -1.000000000000000000 ) ) ;
#265 = LINE ( 'NONE', #91, #336 ) ;
#266 = PERSON_AND_ORGANIZATION_ROLE ( 'design_supplier' ) ;
#267 = DIRECTION ( 'NONE',  ( -0.000000000000000000, -0.000000000000000000, 1.000000000000000000 ) ) ;
#268 = CIRCLE ( 'NONE', #192, 1.250000000000000000 ) ;
#269 = CIRCLE ( 'NONE', #247, 1.500000000000000000 ) ;
#270 = CARTESIAN_POINT ( 'NONE',  ( 3.000000000000000000, 0.000000000000000000, -3.000000000000000444 ) ) ;
#271 = CC_DESIGN_PERSON_AND_ORGANIZATION_ASSIGNMENT ( #260, #118, ( #40 ) ) ;
#272 =( LENGTH_UNIT ( ) NAMED_UNIT ( * ) SI_UNIT ( .MILLI., .METRE. ) );
#273 = CARTESIAN_POINT ( 'NONE',  ( 0.000000000000000000, 0.000000000000000000, -80.00000000000000000 ) ) ;
#274 = EDGE_CURVE ( 'NONE', #294, #330, #207, .T. ) ;
#275 = DIRECTION ( 'NONE',  ( -0.000000000000000000, -0.000000000000000000, 1.000000000000000000 ) ) ;
#276 = VERTEX_POINT ( 'NONE', #148 ) ;
#277 = DATE_TIME_ROLE ( 'classification_date' ) ;
#278 = DIRECTION ( 'NONE',  ( 1.000000000000000000, 0.000000000000000000, 0.000000000000000000 ) ) ;
#279 = FACE_OUTER_BOUND ( 'NONE', #167, .T. ) ;
#280 = DIRECTION ( 'NONE',  ( -0.000000000000000000, -0.000000000000000000, 1.000000000000000000 ) ) ;
#281 = PRODUCT_DEFINITION_FORMATION_WITH_SPECIFIED_SOURCE ( 'LIBOVOLNÝ', '', #186, .NOT_KNOWN. ) ;
#282 = CARTESIAN_POINT ( 'NONE',  ( 0.000000000000000000, 0.000000000000000000, 0.000000000000000000 ) ) ;
#283 = ORIENTED_EDGE ( 'NONE', *, *, #287, .F. ) ;
#284 = ORIENTED_EDGE ( 'NONE', *, *, #249, .T. ) ;
#285 = EDGE_CURVE ( 'NONE', #168, #319, #211, .T. ) ;
#286 = ADVANCED_FACE ( 'NONE', ( #121 ), #238, .T. ) ;
#287 = EDGE_CURVE ( 'NONE', #294, #342, #301, .T. ) ;
#288 = FACE_OUTER_BOUND ( 'NONE', #114, .T. ) ;
#289 = CYLINDRICAL_SURFACE ( 'NONE', #137, 3.000000000000000000 ) ;
#290 = COORDINATED_UNIVERSAL_TIME_OFFSET ( 1, 0, .AHEAD. ) ;
#291 = MANIFOLD_SOLID_BREP ( 'Rotovat1', #14 ) ;
#292 = DIRECTION ( 'NONE',  ( -0.000000000000000000, -0.000000000000000000, 1.000000000000000000 ) ) ;
#293 = CIRCLE ( 'NONE', #38, 3.000000000000000000 ) ;
#294 = VERTEX_POINT ( 'NONE', #99 ) ;
#295 = DIRECTION ( 'NONE',  ( 1.000000000000000000, 0.000000000000000000, 0.000000000000000000 ) ) ;
#296 = DATE_AND_TIME ( #94, #217 ) ;
#297 = FACE_OUTER_BOUND ( 'NONE', #102, .T. ) ;
#298 = ORIENTED_EDGE ( 'NONE', *, *, #311, .T. ) ;
#299 = CARTESIAN_POINT ( 'NONE',  ( 1.500000000000000000, 0.000000000000000000, -80.00000000000000000 ) ) ;
#300 = LINE ( 'NONE', #308, #3 ) ;
#301 = CIRCLE ( 'NONE', #259, 1.250000000000000000 ) ;
#302 = DATE_AND_TIME ( #109, #147 ) ;
#303 = SECURITY_CLASSIFICATION ( '', '', #11 ) ;
#304 = DIRECTION ( 'NONE',  ( 1.000000000000000000, 0.000000000000000000, 0.000000000000000000 ) ) ;
#305 = ORIENTED_EDGE ( 'NONE', *, *, #206, .F. ) ;
#306 = FACE_OUTER_BOUND ( 'NONE', #263, .T. ) ;
#307 = CC_DESIGN_PERSON_AND_ORGANIZATION_ASSIGNMENT ( #151, #266, ( #281 ) ) ;
#308 = CARTESIAN_POINT ( 'NONE',  ( -1.250000000000000000, 1.530808498934191571E-16, 0.000000000000000000 ) ) ;
#309 = AXIS2_PLACEMENT_3D ( 'NONE', #221, #348, #304 ) ;
#310 = APPROVAL_PERSON_ORGANIZATION ( #18, #244, #350 ) ;
#311 = EDGE_CURVE ( 'NONE', #330, #158, #269, .T. ) ;
#312 = APPROVAL ( #144, 'NEURÈENÝ' ) ;
#313 = ORIENTED_EDGE ( 'NONE', *, *, #225, .T. ) ;
#314 = MECHANICAL_CONTEXT ( 'NONE', #61, 'mechanical' ) ;
#315 = CIRCLE ( 'NONE', #80, 3.000000000000000000 ) ;
#316 = PERSON_AND_ORGANIZATION ( #224, #95 ) ;
#317 = ORIENTED_EDGE ( 'NONE', *, *, #51, .F. ) ;
#318 = DIRECTION ( 'NONE',  ( 1.000000000000000000, 0.000000000000000000, 0.000000000000000000 ) ) ;
#319 = VERTEX_POINT ( 'NONE', #351 ) ;
#320 = EDGE_CURVE ( 'NONE', #276, #342, #75, .T. ) ;
#321 = CARTESIAN_POINT ( 'NONE',  ( -1.500000000000000000, 1.836970198721029934E-16, -3.000000000000000444 ) ) ;
#322 = ORIENTED_EDGE ( 'NONE', *, *, #201, .T. ) ;
#323 = APPROVAL_STATUS ( 'not_yet_approved' ) ;
#324 = DIRECTION ( 'NONE',  ( -0.000000000000000000, -0.000000000000000000, 1.000000000000000000 ) ) ;
#325 = ORIENTED_EDGE ( 'NONE', *, *, #274, .F. ) ;
#326 = CARTESIAN_POINT ( 'NONE',  ( 0.000000000000000000, -3.000000000000000000, -3.000000000000000444 ) ) ;
#327 = CIRCLE ( 'NONE', #21, 1.500000000000000000 ) ;
#328 = APPROVAL_DATE_TIME ( #302, #244 ) ;
#329 = DIRECTION ( 'NONE',  ( -0.000000000000000000, -0.000000000000000000, 1.000000000000000000 ) ) ;
#330 = VERTEX_POINT ( 'NONE', #130 ) ;
#331 = DIRECTION ( 'NONE',  ( 1.000000000000000000, 0.000000000000000000, 0.000000000000000000 ) ) ;
#332 = CYLINDRICAL_SURFACE ( 'NONE', #173, 1.500000000000000000 ) ;
#333 = EDGE_CURVE ( 'NONE', #158, #330, #72, .T. ) ;
#334 = FACE_OUTER_BOUND ( 'NONE', #32, .T. ) ;
#335 = DIRECTION ( 'NONE',  ( 0.000000000000000000, 0.000000000000000000, 1.000000000000000000 ) ) ;
#336 = VECTOR ( 'NONE', #203, 1000.000000000000000 ) ;
#337 = DIRECTION ( 'NONE',  ( -0.000000000000000000, -0.000000000000000000, 1.000000000000000000 ) ) ;
#338 = PERSON_AND_ORGANIZATION ( #224, #95 ) ;
#339 = CARTESIAN_POINT ( 'NONE',  ( 0.000000000000000000, 0.000000000000000000, 0.000000000000000000 ) ) ;
#340 = DATE_AND_TIME ( #202, #47 ) ;
#341 = CARTESIAN_POINT ( 'NONE',  ( -1.500000000000000000, 1.836970198721029934E-16, -80.00000000000000000 ) ) ;
#342 = VERTEX_POINT ( 'NONE', #17 ) ;
#343 = DIRECTION ( 'NONE',  ( 1.000000000000000000, 0.000000000000000000, 0.000000000000000000 ) ) ;
#344 = DIRECTION ( 'NONE',  ( -0.000000000000000000, -0.000000000000000000, 1.000000000000000000 ) ) ;
#345 = AXIS2_PLACEMENT_3D ( 'NONE', #243, #267, #295 ) ;
#346 = CARTESIAN_POINT ( 'NONE',  ( 0.000000000000000000, 0.000000000000000000, -80.00000000000000000 ) ) ;
#347 = EDGE_LOOP ( 'NONE', ( #153, #253, #78, #317 ) ) ;
#348 = DIRECTION ( 'NONE',  ( -0.000000000000000000, -0.000000000000000000, 1.000000000000000000 ) ) ;
#349 = CARTESIAN_POINT ( 'NONE',  ( 0.000000000000000000, 0.000000000000000000, 0.000000000000000000 ) ) ;
#350 = APPROVAL_ROLE ( '' ) ;
#351 = CARTESIAN_POINT ( 'NONE',  ( -3.000000000000000000, 3.673940397442059868E-16, -3.673940397442059868E-16 ) ) ;
#352 = CARTESIAN_POINT ( 'NONE',  ( 1.500000000000000000, 0.000000000000000000, -80.00000000000000000 ) ) ;
#353 = CARTESIAN_POINT ( 'NONE',  ( 3.000000000000000000, 0.000000000000000000, -3.673940397442059868E-16 ) ) ;
#354 = EDGE_CURVE ( 'NONE', #85, #319, #315, .T. ) ;
#355 = ORIENTED_EDGE ( 'NONE', *, *, #274, .T. ) ;
ENDSEC;
END-ISO-10303-21;
