ISO-10303-21;
HEADER;
FILE_DESCRIPTION (( 'STEP AP203' ),
    '1' );
FILE_NAME ('e7d3.STEP',
    '2024-09-30T12:48:31',
    ( '' ),
    ( '' ),
    'SwSTEP 2.0',
    'SolidWorks 2019',
    '' );
FILE_SCHEMA (( 'CONFIG_CONTROL_DESIGN' ));
ENDSEC;

DATA;
#1 = CYLINDRICAL_SURFACE ( 'NONE', #219, 1.500000000000000000 ) ;
#2 = AXIS2_PLACEMENT_3D ( 'NONE', #227, #202, #276 ) ;
#3 = AXIS2_PLACEMENT_3D ( 'NONE', #128, #74, #130 ) ;
#4 = VERTEX_POINT ( 'NONE', #156 ) ;
#5 = CC_DESIGN_DATE_AND_TIME_ASSIGNMENT ( #123, #248, ( #322 ) ) ;
#6 = CARTESIAN_POINT ( 'NONE',  ( 0.000000000000000000, 0.000000000000000000, 0.000000000000000000 ) ) ;
#7 = EDGE_LOOP ( 'NONE', ( #340, #175 ) ) ;
#8 = CIRCLE ( 'NONE', #124, 3.000000000000000000 ) ;
#9 = COORDINATED_UNIVERSAL_TIME_OFFSET ( 1, 0, .AHEAD. ) ;
#10 = CC_DESIGN_APPROVAL ( #241, ( #322 ) ) ;
#11 = EDGE_LOOP ( 'NONE', ( #34, #258, #251, #17 ) ) ;
#12 = ADVANCED_BREP_SHAPE_REPRESENTATION ( 'e7d3', ( #129, #140 ), #321 ) ;
#13 = APPROVAL_ROLE ( '' ) ;
#14 = DIRECTION ( 'NONE',  ( 1.000000000000000000, 0.000000000000000000, 0.000000000000000000 ) ) ;
#15 = EDGE_CURVE ( 'NONE', #4, #231, #117, .T. ) ;
#16 = APPLICATION_PROTOCOL_DEFINITION ( 'international standard', 'config_control_design', 1994, #37 ) ;
#17 = ORIENTED_EDGE ( 'NONE', *, *, #137, .F. ) ;
#18 = CYLINDRICAL_SURFACE ( 'NONE', #2, 0.7500000000000000000 ) ;
#19 = CARTESIAN_POINT ( 'NONE',  ( -0.7500000000000000000, 9.184850993605149670E-17, -100.0000000000000000 ) ) ;
#20 = ADVANCED_FACE ( 'NONE', ( #286 ), #18, .T. ) ;
#21 = CARTESIAN_POINT ( 'NONE',  ( -3.000000000000000000, 3.673940397442059868E-16, 0.000000000000000000 ) ) ;
#22 = DIRECTION ( 'NONE',  ( -0.000000000000000000, -0.000000000000000000, 1.000000000000000000 ) ) ;
#23 = CARTESIAN_POINT ( 'NONE',  ( 0.000000000000000000, 0.000000000000000000, 0.000000000000000000 ) ) ;
#24 = PLANE ( 'NONE',  #119 ) ;
#25 =( LENGTH_UNIT ( ) NAMED_UNIT ( * ) SI_UNIT ( .MILLI., .METRE. ) );
#26 = VECTOR ( 'NONE', #261, 1000.000000000000000 ) ;
#27 = CARTESIAN_POINT ( 'NONE',  ( 1.500000000000000000, 0.000000000000000000, -3.000000000000000444 ) ) ;
#28 = CC_DESIGN_PERSON_AND_ORGANIZATION_ASSIGNMENT ( #93, #336, ( #184 ) ) ;
#29 = DIRECTION ( 'NONE',  ( -0.000000000000000000, -0.000000000000000000, 1.000000000000000000 ) ) ;
#30 = LINE ( 'NONE', #221, #271 ) ;
#31 = LOCAL_TIME ( 14, 48, 31.00000000000000000, #40 ) ;
#32 = PRODUCT_RELATED_PRODUCT_CATEGORY ( 'detail', '', ( #184 ) ) ;
#33 = COORDINATED_UNIVERSAL_TIME_OFFSET ( 1, 0, .AHEAD. ) ;
#34 = ORIENTED_EDGE ( 'NONE', *, *, #171, .F. ) ;
#35 = DATE_TIME_ROLE ( 'classification_date' ) ;
#36 = DIRECTION ( 'NONE',  ( 1.000000000000000000, 0.000000000000000000, 0.000000000000000000 ) ) ;
#37 = APPLICATION_CONTEXT ( 'configuration controlled 3d designs of mechanical parts and assemblies' ) ;
#38 = AXIS2_PLACEMENT_3D ( 'NONE', #45, #39, #297 ) ;
#39 = DIRECTION ( 'NONE',  ( -0.000000000000000000, -0.000000000000000000, 1.000000000000000000 ) ) ;
#40 = COORDINATED_UNIVERSAL_TIME_OFFSET ( 1, 0, .AHEAD. ) ;
#41 = LOCAL_TIME ( 14, 48, 31.00000000000000000, #33 ) ;
#42 = DIRECTION ( 'NONE',  ( 1.000000000000000000, 0.000000000000000000, 0.000000000000000000 ) ) ;
#43 = EDGE_CURVE ( 'NONE', #157, #122, #8, .T. ) ;
#44 = CALENDAR_DATE ( 2024, 30, 9 ) ;
#45 = CARTESIAN_POINT ( 'NONE',  ( 0.000000000000000000, 0.000000000000000000, 0.000000000000000000 ) ) ;
#46 = EDGE_LOOP ( 'NONE', ( #236, #249, #142, #222 ) ) ;
#47 = DIRECTION ( 'NONE',  ( 1.000000000000000000, 0.000000000000000000, 0.000000000000000000 ) ) ;
#48 = APPROVAL_PERSON_ORGANIZATION ( #250, #295, #209 ) ;
#49 = DIRECTION ( 'NONE',  ( -0.000000000000000000, -0.000000000000000000, 1.000000000000000000 ) ) ;
#50 = LINE ( 'NONE', #262, #307 ) ;
#51 = DIRECTION ( 'NONE',  ( 1.000000000000000000, 0.000000000000000000, 0.000000000000000000 ) ) ;
#52 = CC_DESIGN_SECURITY_CLASSIFICATION ( #153, ( #185 ) ) ;
#53 = FACE_OUTER_BOUND ( 'NONE', #245, .T. ) ;
#54 = ORIENTED_EDGE ( 'NONE', *, *, #279, .F. ) ;
#55 = CARTESIAN_POINT ( 'NONE',  ( 0.000000000000000000, 0.000000000000000000, -100.0000000000000000 ) ) ;
#56 = CC_DESIGN_APPROVAL ( #212, ( #185 ) ) ;
#57 = DIRECTION ( 'NONE',  ( -0.000000000000000000, -0.000000000000000000, 1.000000000000000000 ) ) ;
#58 = DIRECTION ( 'NONE',  ( 1.000000000000000000, 0.000000000000000000, 0.000000000000000000 ) ) ;
#59 = EDGE_CURVE ( 'NONE', #330, #224, #326, .T. ) ;
#60 = FACE_OUTER_BOUND ( 'NONE', #274, .T. ) ;
#61 = AXIS2_PLACEMENT_3D ( 'NONE', #188, #187, #51 ) ;
#62 = PERSON_AND_ORGANIZATION ( #325, #169 ) ;
#63 = ORIENTED_EDGE ( 'NONE', *, *, #315, .F. ) ;
#64 = PERSON_AND_ORGANIZATION ( #325, #169 ) ;
#65 = CARTESIAN_POINT ( 'NONE',  ( 0.000000000000000000, 0.000000000000000000, -3.000000000000000444 ) ) ;
#66 = SHAPE_DEFINITION_REPRESENTATION ( #133, #12 ) ;
#67 = ORIENTED_EDGE ( 'NONE', *, *, #68, .F. ) ;
#68 = EDGE_CURVE ( 'NONE', #72, #99, #280, .T. ) ;
#69 = AXIS2_PLACEMENT_3D ( 'NONE', #348, #134, #240 ) ;
#70 = CARTESIAN_POINT ( 'NONE',  ( 0.000000000000000000, 0.000000000000000000, 0.000000000000000000 ) ) ;
#71 = CALENDAR_DATE ( 2024, 30, 9 ) ;
#72 = VERTEX_POINT ( 'NONE', #314 ) ;
#73 = ADVANCED_FACE ( 'NONE', ( #203 ), #342, .T. ) ;
#74 = DIRECTION ( 'NONE',  ( -0.000000000000000000, -0.000000000000000000, 1.000000000000000000 ) ) ;
#75 = DIRECTION ( 'NONE',  ( 1.000000000000000000, 0.000000000000000000, 0.000000000000000000 ) ) ;
#76 = AXIS2_PLACEMENT_3D ( 'NONE', #270, #57, #58 ) ;
#77 = CARTESIAN_POINT ( 'NONE',  ( 3.000000000000000000, 0.000000000000000000, -3.673940397442059868E-16 ) ) ;
#78 = CARTESIAN_POINT ( 'NONE',  ( -3.000000000000000000, 3.673940397442059868E-16, -3.000000000000000444 ) ) ;
#79 = ADVANCED_FACE ( 'NONE', ( #177 ), #180, .T. ) ;
#80 = DIRECTION ( 'NONE',  ( -0.5000000000000021094, 6.123233995736791920E-17, 0.8660254037844373753 ) ) ;
#81 = CARTESIAN_POINT ( 'NONE',  ( 0.000000000000000000, 0.000000000000000000, -3.000000000000000444 ) ) ;
#82 = VERTEX_POINT ( 'NONE', #111 ) ;
#83 = ADVANCED_FACE ( 'NONE', ( #296 ), #242, .T. ) ;
#84 = FACE_OUTER_BOUND ( 'NONE', #11, .T. ) ;
#85 = AXIS2_PLACEMENT_3D ( 'NONE', #239, #106, #324 ) ;
#86 = ORIENTED_EDGE ( 'NONE', *, *, #132, .T. ) ;
#87 = VECTOR ( 'NONE', #107, 1000.000000000000000 ) ;
#88 = VECTOR ( 'NONE', #22, 1000.000000000000000 ) ;
#89 = CC_DESIGN_APPROVAL ( #295, ( #153 ) ) ;
#90 = DIRECTION ( 'NONE',  ( -0.000000000000000000, -0.000000000000000000, 1.000000000000000000 ) ) ;
#91 = VERTEX_POINT ( 'NONE', #323 ) ;
#92 = ORIENTED_EDGE ( 'NONE', *, *, #355, .T. ) ;
#93 = PERSON_AND_ORGANIZATION ( #325, #169 ) ;
#94 = AXIS2_PLACEMENT_3D ( 'NONE', #96, #204, #154 ) ;
#95 = EDGE_LOOP ( 'NONE', ( #317, #206, #299, #199 ) ) ;
#96 = CARTESIAN_POINT ( 'NONE',  ( 0.000000000000000000, 0.000000000000000000, -3.673940397442059868E-16 ) ) ;
#97 = ADVANCED_FACE ( 'NONE', ( #162 ), #217, .T. ) ;
#98 = PERSON_AND_ORGANIZATION_ROLE ( 'creator' ) ;
#99 = VERTEX_POINT ( 'NONE', #77 ) ;
#100 = PERSON_AND_ORGANIZATION ( #325, #169 ) ;
#101 = ORIENTED_EDGE ( 'NONE', *, *, #220, .F. ) ;
#102 = APPROVAL_STATUS ( 'not_yet_approved' ) ;
#103 = ORIENTED_EDGE ( 'NONE', *, *, #118, .F. ) ;
#104 = CC_DESIGN_DATE_AND_TIME_ASSIGNMENT ( #228, #35, ( #153 ) ) ;
#105 = CARTESIAN_POINT ( 'NONE',  ( -1.500000000000000000, 1.836970198721029934E-16, -3.000000000000000444 ) ) ;
#106 = DIRECTION ( 'NONE',  ( 0.000000000000000000, 0.000000000000000000, -1.000000000000000000 ) ) ;
#107 = DIRECTION ( 'NONE',  ( -0.000000000000000000, -0.000000000000000000, 1.000000000000000000 ) ) ;
#108 = CIRCLE ( 'NONE', #353, 3.000000000000000000 ) ;
#109 = DESIGN_CONTEXT ( 'detailed design', #37, 'design' ) ;
#110 = ADVANCED_FACE ( 'NONE', ( #238 ), #131, .T. ) ;
#111 = CARTESIAN_POINT ( 'NONE',  ( -1.500000000000000000, 1.836970198721029934E-16, -50.00000000000000000 ) ) ;
#112 = CARTESIAN_POINT ( 'NONE',  ( -1.500000000000000000, 1.836970198721029934E-16, -50.00000000000000000 ) ) ;
#113 = DIRECTION ( 'NONE',  ( -0.000000000000000000, -0.000000000000000000, 1.000000000000000000 ) ) ;
#114 = CARTESIAN_POINT ( 'NONE',  ( -0.7500000000000000000, 9.184850993605149670E-17, -51.29903810567665090 ) ) ;
#115 = EDGE_LOOP ( 'NONE', ( #334, #144, #63, #181 ) ) ;
#116 = MECHANICAL_CONTEXT ( 'NONE', #265, 'mechanical' ) ;
#117 = LINE ( 'NONE', #312, #243 ) ;
#118 = EDGE_CURVE ( 'NONE', #231, #330, #347, .T. ) ;
#119 = AXIS2_PLACEMENT_3D ( 'NONE', #138, #136, #329 ) ;
#120 = ORIENTED_EDGE ( 'NONE', *, *, #304, .F. ) ;
#121 = CALENDAR_DATE ( 2024, 30, 9 ) ;
#122 = VERTEX_POINT ( 'NONE', #78 ) ;
#123 = DATE_AND_TIME ( #44, #208 ) ;
#124 = AXIS2_PLACEMENT_3D ( 'NONE', #150, #282, #36 ) ;
#125 = EDGE_LOOP ( 'NONE', ( #233, #196 ) ) ;
#126 = APPROVAL_PERSON_ORGANIZATION ( #311, #212, #155 ) ;
#127 = DIRECTION ( 'NONE',  ( -0.000000000000000000, -0.000000000000000000, 1.000000000000000000 ) ) ;
#128 = CARTESIAN_POINT ( 'NONE',  ( 0.000000000000000000, 0.000000000000000000, -50.00000000000000000 ) ) ;
#129 = MANIFOLD_SOLID_BREP ( 'Rotovat1', #234 ) ;
#130 = DIRECTION ( 'NONE',  ( 1.000000000000000000, 0.000000000000000000, 0.000000000000000000 ) ) ;
#131 = CONICAL_SURFACE ( 'NONE', #61, 1.500000000000000000, 0.5235987755983013692 ) ;
#132 = EDGE_CURVE ( 'NONE', #157, #99, #50, .T. ) ;
#133 = PRODUCT_DEFINITION_SHAPE ( 'NONE', 'NONE',  #322 ) ;
#134 = DIRECTION ( 'NONE',  ( 0.000000000000000000, -0.000000000000000000, 1.000000000000000000 ) ) ;
#135 = CARTESIAN_POINT ( 'NONE',  ( -1.500000000000000000, 1.836970198721029934E-16, 0.000000000000000000 ) ) ;
#136 = DIRECTION ( 'NONE',  ( 0.000000000000000000, 0.000000000000000000, -1.000000000000000000 ) ) ;
#137 = EDGE_CURVE ( 'NONE', #224, #330, #158, .T. ) ;
#138 = CARTESIAN_POINT ( 'NONE',  ( 0.000000000000000000, -3.000000000000000000, -3.000000000000000444 ) ) ;
#139 = CIRCLE ( 'NONE', #338, 3.000000000000000000 ) ;
#140 = AXIS2_PLACEMENT_3D ( 'NONE', #6, #226, #255 ) ;
#141 = FACE_OUTER_BOUND ( 'NONE', #115, .T. ) ;
#142 = ORIENTED_EDGE ( 'NONE', *, *, #207, .F. ) ;
#143 =( NAMED_UNIT ( * ) SI_UNIT ( $, .STERADIAN. ) SOLID_ANGLE_UNIT ( ) );
#144 = ORIENTED_EDGE ( 'NONE', *, *, #200, .T. ) ;
#145 = EDGE_CURVE ( 'NONE', #91, #4, #290, .T. ) ;
#146 = ORIENTED_EDGE ( 'NONE', *, *, #304, .T. ) ;
#147 = CALENDAR_DATE ( 2024, 30, 9 ) ;
#148 = ORIENTED_EDGE ( 'NONE', *, *, #333, .F. ) ;
#149 = DATE_AND_TIME ( #71, #328 ) ;
#150 = CARTESIAN_POINT ( 'NONE',  ( 0.000000000000000000, 0.000000000000000000, -3.000000000000000444 ) ) ;
#151 = AXIS2_PLACEMENT_3D ( 'NONE', #189, #215, #75 ) ;
#152 = EDGE_LOOP ( 'NONE', ( #148, #302 ) ) ;
#153 = SECURITY_CLASSIFICATION ( '', '', #313 ) ;
#154 = DIRECTION ( 'NONE',  ( 1.000000000000000000, 0.000000000000000000, 0.000000000000000000 ) ) ;
#155 = APPROVAL_ROLE ( '' ) ;
#156 = CARTESIAN_POINT ( 'NONE',  ( 0.7500000000000000000, 0.000000000000000000, -51.29903810567665090 ) ) ;
#157 = VERTEX_POINT ( 'NONE', #160 ) ;
#158 = CIRCLE ( 'NONE', #283, 1.500000000000000000 ) ;
#159 = CIRCLE ( 'NONE', #291, 0.7500000000000000000 ) ;
#160 = CARTESIAN_POINT ( 'NONE',  ( 3.000000000000000000, 0.000000000000000000, -3.000000000000000444 ) ) ;
#161 = ADVANCED_FACE ( 'NONE', ( #327 ), #166, .T. ) ;
#162 = FACE_OUTER_BOUND ( 'NONE', #152, .T. ) ;
#163 = CARTESIAN_POINT ( 'NONE',  ( 0.000000000000000000, 0.000000000000000000, -3.000000000000000444 ) ) ;
#164 = APPROVAL_PERSON_ORGANIZATION ( #64, #241, #13 ) ;
#165 = EDGE_CURVE ( 'NONE', #99, #72, #139, .T. ) ;
#166 = PLANE ( 'NONE',  #69 ) ;
#167 = VERTEX_POINT ( 'NONE', #19 ) ;
#168 = CARTESIAN_POINT ( 'NONE',  ( 0.000000000000000000, 0.000000000000000000, -50.00000000000000000 ) ) ;
#169 = ORGANIZATION ( 'NEURÈENÝ', 'NEURÈENÝ', '' ) ;
#170 = ORIENTED_EDGE ( 'NONE', *, *, #43, .F. ) ;
#171 = EDGE_CURVE ( 'NONE', #82, #224, #183, .T. ) ;
#172 = DIRECTION ( 'NONE',  ( 1.000000000000000000, 0.000000000000000000, 0.000000000000000000 ) ) ;
#173 = ORIENTED_EDGE ( 'NONE', *, *, #59, .F. ) ;
#174 = PERSON_AND_ORGANIZATION_ROLE ( 'classification_officer' ) ;
#175 = ORIENTED_EDGE ( 'NONE', *, *, #137, .T. ) ;
#176 = DATE_AND_TIME ( #121, #31 ) ;
#177 = FACE_OUTER_BOUND ( 'NONE', #95, .T. ) ;
#178 = ORIENTED_EDGE ( 'NONE', *, *, #145, .T. ) ;
#179 = AXIS2_PLACEMENT_3D ( 'NONE', #190, #127, #346 ) ;
#180 = CYLINDRICAL_SURFACE ( 'NONE', #38, 3.000000000000000000 ) ;
#181 = ORIENTED_EDGE ( 'NONE', *, *, #15, .F. ) ;
#182 = VECTOR ( 'NONE', #216, 1000.000000000000000 ) ;
#183 = LINE ( 'NONE', #135, #87 ) ;
#184 = PRODUCT ( 'e7d3', 'e7d3', '', ( #116 ) ) ;
#185 = PRODUCT_DEFINITION_FORMATION_WITH_SPECIFIED_SOURCE ( 'LIBOVOLNÝ', '', #184, .NOT_KNOWN. ) ;
#186 = ADVANCED_FACE ( 'NONE', ( #53 ), #264, .T. ) ;
#187 = DIRECTION ( 'NONE',  ( -0.000000000000000000, -0.000000000000000000, 1.000000000000000000 ) ) ;
#188 = CARTESIAN_POINT ( 'NONE',  ( 0.000000000000000000, 0.000000000000000000, -50.00000000000000000 ) ) ;
#189 = CARTESIAN_POINT ( 'NONE',  ( 0.000000000000000000, 0.000000000000000000, 0.000000000000000000 ) ) ;
#190 = CARTESIAN_POINT ( 'NONE',  ( 0.000000000000000000, 0.000000000000000000, -51.29903810567665090 ) ) ;
#191 = DIRECTION ( 'NONE',  ( 1.000000000000000000, 0.000000000000000000, 0.000000000000000000 ) ) ;
#192 = ORIENTED_EDGE ( 'NONE', *, *, #200, .F. ) ;
#193 = DIRECTION ( 'NONE',  ( -0.000000000000000000, -0.000000000000000000, 1.000000000000000000 ) ) ;
#194 = DIRECTION ( 'NONE',  ( 1.000000000000000000, 0.000000000000000000, 0.000000000000000000 ) ) ;
#195 = CC_DESIGN_PERSON_AND_ORGANIZATION_ASSIGNMENT ( #257, #174, ( #153 ) ) ;
#196 = ORIENTED_EDGE ( 'NONE', *, *, #68, .T. ) ;
#197 = CONICAL_SURFACE ( 'NONE', #230, 1.500000000000000000, 0.5235987755983013692 ) ;
#198 = DIRECTION ( 'NONE',  ( 1.000000000000000000, 0.000000000000000000, 0.000000000000000000 ) ) ;
#199 = ORIENTED_EDGE ( 'NONE', *, *, #132, .F. ) ;
#200 = EDGE_CURVE ( 'NONE', #344, #82, #266, .T. ) ;
#201 = DATE_AND_TIME ( #147, #345 ) ;
#202 = DIRECTION ( 'NONE',  ( -0.000000000000000000, -0.000000000000000000, 1.000000000000000000 ) ) ;
#203 = FACE_OUTER_BOUND ( 'NONE', #337, .T. ) ;
#204 = DIRECTION ( 'NONE',  ( -0.000000000000000000, -0.000000000000000000, 1.000000000000000000 ) ) ;
#205 = PERSON_AND_ORGANIZATION_ROLE ( 'creator' ) ;
#206 = ORIENTED_EDGE ( 'NONE', *, *, #220, .T. ) ;
#207 = EDGE_CURVE ( 'NONE', #4, #344, #331, .T. ) ;
#208 = LOCAL_TIME ( 14, 48, 31.00000000000000000, #9 ) ;
#209 = APPROVAL_ROLE ( '' ) ;
#210 = ORIENTED_EDGE ( 'NONE', *, *, #15, .T. ) ;
#211 = DIRECTION ( 'NONE',  ( -0.000000000000000000, -0.000000000000000000, 1.000000000000000000 ) ) ;
#212 = APPROVAL ( #306, 'NEURÈENÝ' ) ;
#213 = DIRECTION ( 'NONE',  ( -0.000000000000000000, -0.000000000000000000, 1.000000000000000000 ) ) ;
#214 = CIRCLE ( 'NONE', #253, 0.7500000000000000000 ) ;
#215 = DIRECTION ( 'NONE',  ( -0.000000000000000000, -0.000000000000000000, 1.000000000000000000 ) ) ;
#216 = DIRECTION ( 'NONE',  ( -0.000000000000000000, -0.000000000000000000, 1.000000000000000000 ) ) ;
#217 = PLANE ( 'NONE',  #85 ) ;
#218 = AXIS2_PLACEMENT_3D ( 'NONE', #65, #229, #42 ) ;
#219 = AXIS2_PLACEMENT_3D ( 'NONE', #332, #29, #172 ) ;
#220 = EDGE_CURVE ( 'NONE', #122, #72, #237, .T. ) ;
#221 = CARTESIAN_POINT ( 'NONE',  ( -0.7500000000000000000, 9.184850993605149670E-17, 0.000000000000000000 ) ) ;
#222 = ORIENTED_EDGE ( 'NONE', *, *, #145, .F. ) ;
#223 = APPLICATION_PROTOCOL_DEFINITION ( 'international standard', 'config_control_design', 1994, #265 ) ;
#224 = VERTEX_POINT ( 'NONE', #105 ) ;
#225 = CC_DESIGN_PERSON_AND_ORGANIZATION_ASSIGNMENT ( #341, #98, ( #185 ) ) ;
#226 = DIRECTION ( 'NONE',  ( 0.000000000000000000, 0.000000000000000000, 1.000000000000000000 ) ) ;
#227 = CARTESIAN_POINT ( 'NONE',  ( 0.000000000000000000, 0.000000000000000000, 0.000000000000000000 ) ) ;
#228 = DATE_AND_TIME ( #275, #41 ) ;
#229 = DIRECTION ( 'NONE',  ( -0.000000000000000000, -0.000000000000000000, 1.000000000000000000 ) ) ;
#230 = AXIS2_PLACEMENT_3D ( 'NONE', #168, #193, #194 ) ;
#231 = VERTEX_POINT ( 'NONE', #318 ) ;
#232 = EDGE_CURVE ( 'NONE', #82, #231, #273, .T. ) ;
#233 = ORIENTED_EDGE ( 'NONE', *, *, #165, .T. ) ;
#234 = CLOSED_SHELL ( 'NONE', ( #79, #73, #263, #83, #97, #20, #110, #244, #352, #186, #161 ) ) ;
#235 = APPROVAL_DATE_TIME ( #176, #212 ) ;
#236 = ORIENTED_EDGE ( 'NONE', *, *, #333, .T. ) ;
#237 = LINE ( 'NONE', #21, #26 ) ;
#238 = FACE_OUTER_BOUND ( 'NONE', #354, .T. ) ;
#239 = CARTESIAN_POINT ( 'NONE',  ( 0.000000000000000000, 0.000000000000000000, -100.0000000000000000 ) ) ;
#240 = DIRECTION ( 'NONE',  ( 1.000000000000000000, 0.000000000000000000, 0.000000000000000000 ) ) ;
#241 = APPROVAL ( #285, 'NEURÈENÝ' ) ;
#242 = CYLINDRICAL_SURFACE ( 'NONE', #151, 0.7500000000000000000 ) ;
#243 = VECTOR ( 'NONE', #259, 1000.000000000000227 ) ;
#244 = ADVANCED_FACE ( 'NONE', ( #84 ), #1, .T. ) ;
#245 = EDGE_LOOP ( 'NONE', ( #101, #92, #86, #67 ) ) ;
#246 = DIRECTION ( 'NONE',  ( -0.000000000000000000, -0.000000000000000000, 1.000000000000000000 ) ) ;
#247 = CIRCLE ( 'NONE', #76, 1.500000000000000000 ) ;
#248 = DATE_TIME_ROLE ( 'creation_date' ) ;
#249 = ORIENTED_EDGE ( 'NONE', *, *, #279, .T. ) ;
#250 = PERSON_AND_ORGANIZATION ( #325, #169 ) ;
#251 = ORIENTED_EDGE ( 'NONE', *, *, #118, .T. ) ;
#252 = ORIENTED_EDGE ( 'NONE', *, *, #171, .T. ) ;
#253 = AXIS2_PLACEMENT_3D ( 'NONE', #55, #246, #191 ) ;
#254 = CC_DESIGN_PERSON_AND_ORGANIZATION_ASSIGNMENT ( #100, #343, ( #185 ) ) ;
#255 = DIRECTION ( 'NONE',  ( 1.000000000000000000, 0.000000000000000000, 0.000000000000000000 ) ) ;
#256 = ORIENTED_EDGE ( 'NONE', *, *, #268, .T. ) ;
#257 = PERSON_AND_ORGANIZATION ( #325, #169 ) ;
#258 = ORIENTED_EDGE ( 'NONE', *, *, #232, .T. ) ;
#259 = DIRECTION ( 'NONE',  ( 0.5000000000000021094, 0.000000000000000000, 0.8660254037844373753 ) ) ;
#260 = CARTESIAN_POINT ( 'NONE',  ( 0.000000000000000000, 0.000000000000000000, -3.673940397442059868E-16 ) ) ;
#261 = DIRECTION ( 'NONE',  ( -0.000000000000000000, -0.000000000000000000, 1.000000000000000000 ) ) ;
#262 = CARTESIAN_POINT ( 'NONE',  ( 3.000000000000000000, 0.000000000000000000, 0.000000000000000000 ) ) ;
#263 = ADVANCED_FACE ( 'NONE', ( #141 ), #197, .T. ) ;
#264 = CYLINDRICAL_SURFACE ( 'NONE', #320, 3.000000000000000000 ) ;
#265 = APPLICATION_CONTEXT ( 'configuration controlled 3d designs of mechanical parts and assemblies' ) ;
#266 = LINE ( 'NONE', #112, #269 ) ;
#267 =( NAMED_UNIT ( * ) PLANE_ANGLE_UNIT ( ) SI_UNIT ( $, .RADIAN. ) );
#268 = EDGE_CURVE ( 'NONE', #167, #91, #159, .T. ) ;
#269 = VECTOR ( 'NONE', #80, 1000.000000000000227 ) ;
#270 = CARTESIAN_POINT ( 'NONE',  ( 0.000000000000000000, 0.000000000000000000, -50.00000000000000000 ) ) ;
#271 = VECTOR ( 'NONE', #113, 1000.000000000000000 ) ;
#272 = DIRECTION ( 'NONE',  ( 1.000000000000000000, 0.000000000000000000, 0.000000000000000000 ) ) ;
#273 = CIRCLE ( 'NONE', #3, 1.500000000000000000 ) ;
#274 = EDGE_LOOP ( 'NONE', ( #170, #339 ) ) ;
#275 = CALENDAR_DATE ( 2024, 30, 9 ) ;
#276 = DIRECTION ( 'NONE',  ( 1.000000000000000000, 0.000000000000000000, 0.000000000000000000 ) ) ;
#277 = APPROVAL_DATE_TIME ( #149, #295 ) ;
#278 = EDGE_LOOP ( 'NONE', ( #54, #256, #178, #120 ) ) ;
#279 = EDGE_CURVE ( 'NONE', #167, #344, #30, .T. ) ;
#280 = CIRCLE ( 'NONE', #94, 3.000000000000000000 ) ;
#281 = COORDINATED_UNIVERSAL_TIME_OFFSET ( 1, 0, .AHEAD. ) ;
#282 = DIRECTION ( 'NONE',  ( -0.000000000000000000, -0.000000000000000000, 1.000000000000000000 ) ) ;
#283 = AXIS2_PLACEMENT_3D ( 'NONE', #163, #213, #47 ) ;
#284 = CIRCLE ( 'NONE', #349, 0.7500000000000000000 ) ;
#285 = APPROVAL_STATUS ( 'not_yet_approved' ) ;
#286 = FACE_OUTER_BOUND ( 'NONE', #278, .T. ) ;
#287 = CC_DESIGN_PERSON_AND_ORGANIZATION_ASSIGNMENT ( #62, #205, ( #322 ) ) ;
#288 = ORIENTED_EDGE ( 'NONE', *, *, #232, .F. ) ;
#289 = AXIS2_PLACEMENT_3D ( 'NONE', #70, #310, #14 ) ;
#290 = LINE ( 'NONE', #319, #88 ) ;
#291 = AXIS2_PLACEMENT_3D ( 'NONE', #301, #303, #335 ) ;
#292 = DIRECTION ( 'NONE',  ( 1.000000000000000000, 0.000000000000000000, 0.000000000000000000 ) ) ;
#293 = UNCERTAINTY_MEASURE_WITH_UNIT (LENGTH_MEASURE( 1.000000000000000082E-05 ), #25, 'distance_accuracy_value', 'NONE');
#294 = CARTESIAN_POINT ( 'NONE',  ( 1.500000000000000000, 0.000000000000000000, 0.000000000000000000 ) ) ;
#295 = APPROVAL ( #102, 'NEURÈENÝ' ) ;
#296 = FACE_OUTER_BOUND ( 'NONE', #46, .T. ) ;
#297 = DIRECTION ( 'NONE',  ( 1.000000000000000000, 0.000000000000000000, 0.000000000000000000 ) ) ;
#298 = DIRECTION ( 'NONE',  ( -0.000000000000000000, -0.000000000000000000, 1.000000000000000000 ) ) ;
#299 = ORIENTED_EDGE ( 'NONE', *, *, #165, .F. ) ;
#300 = CARTESIAN_POINT ( 'NONE',  ( 0.000000000000000000, 0.000000000000000000, -51.29903810567665090 ) ) ;
#301 = CARTESIAN_POINT ( 'NONE',  ( 0.000000000000000000, 0.000000000000000000, -100.0000000000000000 ) ) ;
#302 = ORIENTED_EDGE ( 'NONE', *, *, #268, .F. ) ;
#303 = DIRECTION ( 'NONE',  ( -0.000000000000000000, -0.000000000000000000, 1.000000000000000000 ) ) ;
#304 = EDGE_CURVE ( 'NONE', #344, #4, #284, .T. ) ;
#305 = FACE_BOUND ( 'NONE', #7, .T. ) ;
#306 = APPROVAL_STATUS ( 'not_yet_approved' ) ;
#307 = VECTOR ( 'NONE', #211, 1000.000000000000000 ) ;
#308 = ORIENTED_EDGE ( 'NONE', *, *, #315, .T. ) ;
#309 = APPROVAL_DATE_TIME ( #201, #241 ) ;
#310 = DIRECTION ( 'NONE',  ( -0.000000000000000000, -0.000000000000000000, 1.000000000000000000 ) ) ;
#311 = PERSON_AND_ORGANIZATION ( #325, #169 ) ;
#312 = CARTESIAN_POINT ( 'NONE',  ( 1.500000000000000000, 0.000000000000000000, -50.00000000000000000 ) ) ;
#313 = SECURITY_CLASSIFICATION_LEVEL ( 'unclassified' ) ;
#314 = CARTESIAN_POINT ( 'NONE',  ( -3.000000000000000000, 3.673940397442059868E-16, -3.673940397442059868E-16 ) ) ;
#315 = EDGE_CURVE ( 'NONE', #231, #82, #247, .T. ) ;
#316 = COORDINATED_UNIVERSAL_TIME_OFFSET ( 1, 0, .AHEAD. ) ;
#317 = ORIENTED_EDGE ( 'NONE', *, *, #43, .T. ) ;
#318 = CARTESIAN_POINT ( 'NONE',  ( 1.500000000000000000, 0.000000000000000000, -50.00000000000000000 ) ) ;
#319 = CARTESIAN_POINT ( 'NONE',  ( 0.7500000000000000000, 0.000000000000000000, 0.000000000000000000 ) ) ;
#320 = AXIS2_PLACEMENT_3D ( 'NONE', #23, #49, #351 ) ;
#321 =( GEOMETRIC_REPRESENTATION_CONTEXT ( 3 ) GLOBAL_UNCERTAINTY_ASSIGNED_CONTEXT ( ( #293 ) ) GLOBAL_UNIT_ASSIGNED_CONTEXT ( ( #25, #267, #143 ) ) REPRESENTATION_CONTEXT ( 'NONE', 'WORKASPACE' ) );
#322 = PRODUCT_DEFINITION ( 'NEZNÁMÝ', '', #185, #109 ) ;
#323 = CARTESIAN_POINT ( 'NONE',  ( 0.7500000000000000000, 0.000000000000000000, -100.0000000000000000 ) ) ;
#324 = DIRECTION ( 'NONE',  ( -1.000000000000000000, 0.000000000000000000, -0.000000000000000000 ) ) ;
#325 = PERSON ( 'NEURÈENÝ', 'NEURÈENÝ', 'NEURÈENÝ', ('NEURÈENÝ'), ('NEURÈENÝ'), ('NEURÈENÝ') ) ;
#326 = CIRCLE ( 'NONE', #218, 1.500000000000000000 ) ;
#327 = FACE_OUTER_BOUND ( 'NONE', #125, .T. ) ;
#328 = LOCAL_TIME ( 14, 48, 31.00000000000000000, #316 ) ;
#329 = DIRECTION ( 'NONE',  ( -1.000000000000000000, 0.000000000000000000, -0.000000000000000000 ) ) ;
#330 = VERTEX_POINT ( 'NONE', #27 ) ;
#331 = CIRCLE ( 'NONE', #179, 0.7500000000000000000 ) ;
#332 = CARTESIAN_POINT ( 'NONE',  ( 0.000000000000000000, 0.000000000000000000, 0.000000000000000000 ) ) ;
#333 = EDGE_CURVE ( 'NONE', #91, #167, #214, .T. ) ;
#334 = ORIENTED_EDGE ( 'NONE', *, *, #207, .T. ) ;
#335 = DIRECTION ( 'NONE',  ( 1.000000000000000000, 0.000000000000000000, 0.000000000000000000 ) ) ;
#336 = PERSON_AND_ORGANIZATION_ROLE ( 'design_owner' ) ;
#337 = EDGE_LOOP ( 'NONE', ( #308, #252, #173, #103 ) ) ;
#338 = AXIS2_PLACEMENT_3D ( 'NONE', #260, #350, #292 ) ;
#339 = ORIENTED_EDGE ( 'NONE', *, *, #355, .F. ) ;
#340 = ORIENTED_EDGE ( 'NONE', *, *, #59, .T. ) ;
#341 = PERSON_AND_ORGANIZATION ( #325, #169 ) ;
#342 = CYLINDRICAL_SURFACE ( 'NONE', #289, 1.500000000000000000 ) ;
#343 = PERSON_AND_ORGANIZATION_ROLE ( 'design_supplier' ) ;
#344 = VERTEX_POINT ( 'NONE', #114 ) ;
#345 = LOCAL_TIME ( 14, 48, 31.00000000000000000, #281 ) ;
#346 = DIRECTION ( 'NONE',  ( 1.000000000000000000, 0.000000000000000000, 0.000000000000000000 ) ) ;
#347 = LINE ( 'NONE', #294, #182 ) ;
#348 = CARTESIAN_POINT ( 'NONE',  ( 0.000000000000000000, 0.000000000000000000, -1.836970198721029934E-16 ) ) ;
#349 = AXIS2_PLACEMENT_3D ( 'NONE', #300, #90, #198 ) ;
#350 = DIRECTION ( 'NONE',  ( -0.000000000000000000, -0.000000000000000000, 1.000000000000000000 ) ) ;
#351 = DIRECTION ( 'NONE',  ( 1.000000000000000000, 0.000000000000000000, 0.000000000000000000 ) ) ;
#352 = ADVANCED_FACE ( 'NONE', ( #305, #60 ), #24, .T. ) ;
#353 = AXIS2_PLACEMENT_3D ( 'NONE', #81, #298, #272 ) ;
#354 = EDGE_LOOP ( 'NONE', ( #192, #146, #210, #288 ) ) ;
#355 = EDGE_CURVE ( 'NONE', #122, #157, #108, .T. ) ;
ENDSEC;
END-ISO-10303-21;
