ISO-10303-21;
HEADER;
FILE_DESCRIPTION (( 'STEP AP203' ),
    '1' );
FILE_NAME ('6c62.STEP',
    '2022-06-20T09:46:04',
    ( '' ),
    ( '' ),
    'SwSTEP 2.0',
    'SolidWorks 2019',
    '' );
FILE_SCHEMA (( 'CONFIG_CONTROL_DESIGN' ));
ENDSEC;

DATA;
#1 = DIRECTION ( 'NONE',  ( -1.000000000000000000, 0.000000000000000000, 0.000000000000000000 ) ) ;
#2 = CARTESIAN_POINT ( 'NONE',  ( 0.000000000000000000, 0.000000000000000000, 0.000000000000000000 ) ) ;
#3 = ORIENTED_EDGE ( 'NONE', *, *, #102, .T. ) ;
#4 = CYLINDRICAL_SURFACE ( 'NONE', #105, 7.000000000000000000 ) ;
#5 = EDGE_CURVE ( 'NONE', #45, #290, #237, .T. ) ;
#6 = CARTESIAN_POINT ( 'NONE',  ( 7.000000000000000000, 8.572527594031473190E-16, 0.000000000000000000 ) ) ;
#7 = EDGE_CURVE ( 'NONE', #152, #14, #260, .T. ) ;
#8 =( LENGTH_UNIT ( ) NAMED_UNIT ( * ) SI_UNIT ( .MILLI., .METRE. ) );
#9 = DIRECTION ( 'NONE',  ( 1.000000000000000000, 0.000000000000000000, 0.000000000000000000 ) ) ;
#10 = PRODUCT_DEFINITION_FORMATION_WITH_SPECIFIED_SOURCE ( 'LIBOVOLNÝ', '', #88, .NOT_KNOWN. ) ;
#11 = CC_DESIGN_DATE_AND_TIME_ASSIGNMENT ( #156, #42, ( #112 ) ) ;
#12 = DIRECTION ( 'NONE',  ( 0.000000000000000000, 0.000000000000000000, 1.000000000000000000 ) ) ;
#13 = AXIS2_PLACEMENT_3D ( 'NONE', #209, #217, #1 ) ;
#14 = VERTEX_POINT ( 'NONE', #307 ) ;
#15 = DIRECTION ( 'NONE',  ( 0.000000000000000000, 0.000000000000000000, 1.000000000000000000 ) ) ;
#16 = EDGE_LOOP ( 'NONE', ( #186, #231, #57, #225 ) ) ;
#17 = ADVANCED_FACE ( 'NONE', ( #63 ), #4, .T. ) ;
#18 = ADVANCED_FACE ( 'NONE', ( #215 ), #21, .T. ) ;
#19 = TOROIDAL_SURFACE ( 'NONE', #206, 4.299999999999998934, 0.2000000000000000111 ) ;
#20 = ORIENTED_EDGE ( 'NONE', *, *, #274, .F. ) ;
#21 = CYLINDRICAL_SURFACE ( 'NONE', #13, 4.099999999999999645 ) ;
#22 = AXIS2_PLACEMENT_3D ( 'NONE', #146, #46, #238 ) ;
#23 = FACE_OUTER_BOUND ( 'NONE', #26, .T. ) ;
#24 = FACE_OUTER_BOUND ( 'NONE', #95, .T. ) ;
#25 = CC_DESIGN_APPROVAL ( #211, ( #79 ) ) ;
#26 = EDGE_LOOP ( 'NONE', ( #180, #108 ) ) ;
#27 = ORIENTED_EDGE ( 'NONE', *, *, #179, .F. ) ;
#28 = AXIS2_PLACEMENT_3D ( 'NONE', #185, #208, #93 ) ;
#29 = CARTESIAN_POINT ( 'NONE',  ( 0.000000000000000000, 0.000000000000000000, 5.000000000000000000 ) ) ;
#30 = ADVANCED_FACE ( 'NONE', ( #51 ), #284, .F. ) ;
#31 = AXIS2_PLACEMENT_3D ( 'NONE', #195, #266, #210 ) ;
#32 = PERSON_AND_ORGANIZATION_ROLE ( 'creator' ) ;
#33 = PERSON_AND_ORGANIZATION ( #91, #287 ) ;
#34 = PERSON_AND_ORGANIZATION ( #91, #287 ) ;
#35 = LOCAL_TIME ( 11, 46, 4.000000000000000000, #171 ) ;
#36 = CALENDAR_DATE ( 2022, 20, 6 ) ;
#37 = DIRECTION ( 'NONE',  ( 1.000000000000000000, 0.000000000000000000, -0.000000000000000000 ) ) ;
#38 = VERTEX_POINT ( 'NONE', #289 ) ;
#39 = EDGE_CURVE ( 'NONE', #256, #84, #226, .T. ) ;
#40 = DIRECTION ( 'NONE',  ( 1.000000000000000000, 0.000000000000000000, 0.000000000000000000 ) ) ;
#41 = CC_DESIGN_SECURITY_CLASSIFICATION ( #112, ( #10 ) ) ;
#42 = DATE_TIME_ROLE ( 'classification_date' ) ;
#43 = APPROVAL_STATUS ( 'not_yet_approved' ) ;
#44 = ORIENTED_EDGE ( 'NONE', *, *, #179, .T. ) ;
#45 = VERTEX_POINT ( 'NONE', #285 ) ;
#46 = DIRECTION ( 'NONE',  ( 0.000000000000000000, 0.000000000000000000, 1.000000000000000000 ) ) ;
#47 = EDGE_CURVE ( 'NONE', #142, #84, #264, .T. ) ;
#48 = ORIENTED_EDGE ( 'NONE', *, *, #5, .F. ) ;
#49 = DIRECTION ( 'NONE',  ( 0.000000000000000000, 0.000000000000000000, 1.000000000000000000 ) ) ;
#50 = AXIS2_PLACEMENT_3D ( 'NONE', #118, #214, #94 ) ;
#51 = FACE_OUTER_BOUND ( 'NONE', #193, .T. ) ;
#52 = CC_DESIGN_DATE_AND_TIME_ASSIGNMENT ( #130, #55, ( #79 ) ) ;
#53 =( NAMED_UNIT ( * ) SI_UNIT ( $, .STERADIAN. ) SOLID_ANGLE_UNIT ( ) );
#54 = AXIS2_PLACEMENT_3D ( 'NONE', #134, #230, #168 ) ;
#55 = DATE_TIME_ROLE ( 'creation_date' ) ;
#56 = CARTESIAN_POINT ( 'NONE',  ( -4.099999999999999645, 0.000000000000000000, 1004.999999999999886 ) ) ;
#57 = ORIENTED_EDGE ( 'NONE', *, *, #155, .F. ) ;
#58 = ADVANCED_FACE ( 'NONE', ( #24 ), #117, .T. ) ;
#59 = CALENDAR_DATE ( 2022, 20, 6 ) ;
#60 = CARTESIAN_POINT ( 'NONE',  ( 0.000000000000000000, 0.000000000000000000, 5.199999999999982414 ) ) ;
#61 = EDGE_LOOP ( 'NONE', ( #96, #3 ) ) ;
#62 = DESIGN_CONTEXT ( 'detailed design', #161, 'design' ) ;
#63 = FACE_OUTER_BOUND ( 'NONE', #113, .T. ) ;
#64 = PERSON_AND_ORGANIZATION ( #91, #287 ) ;
#65 = ORIENTED_EDGE ( 'NONE', *, *, #198, .F. ) ;
#66 = CIRCLE ( 'NONE', #124, 7.000000000000000000 ) ;
#67 = EDGE_CURVE ( 'NONE', #152, #204, #100, .T. ) ;
#68 = DIRECTION ( 'NONE',  ( 0.000000000000000000, 0.000000000000000000, 1.000000000000000000 ) ) ;
#69 = EDGE_CURVE ( 'NONE', #45, #152, #201, .T. ) ;
#70 = DIRECTION ( 'NONE',  ( -1.000000000000000000, 0.000000000000000000, 0.000000000000000000 ) ) ;
#71 = DIRECTION ( 'NONE',  ( 0.000000000000000000, 0.000000000000000000, 1.000000000000000000 ) ) ;
#72 = ORIENTED_EDGE ( 'NONE', *, *, #39, .T. ) ;
#73 = LINE ( 'NONE', #192, #234 ) ;
#74 = LOCAL_TIME ( 11, 46, 4.000000000000000000, #125 ) ;
#75 = CYLINDRICAL_SURFACE ( 'NONE', #223, 7.000000000000000000 ) ;
#76 = CARTESIAN_POINT ( 'NONE',  ( 0.000000000000000000, 0.000000000000000000, 1004.999999999999886 ) ) ;
#77 = PERSON_AND_ORGANIZATION ( #91, #287 ) ;
#78 = CIRCLE ( 'NONE', #212, 4.099999999999999645 ) ;
#79 = PRODUCT_DEFINITION ( 'NEZNÁMÝ', '', #10, #62 ) ;
#80 = AXIS2_PLACEMENT_3D ( 'NONE', #269, #239, #121 ) ;
#81 = DIRECTION ( 'NONE',  ( -1.000000000000000000, 0.000000000000000000, 0.000000000000000000 ) ) ;
#82 = ORIENTED_EDGE ( 'NONE', *, *, #5, .T. ) ;
#83 = DIRECTION ( 'NONE',  ( 0.000000000000000000, 0.000000000000000000, 1.000000000000000000 ) ) ;
#84 = VERTEX_POINT ( 'NONE', #272 ) ;
#85 = CC_DESIGN_APPROVAL ( #175, ( #112 ) ) ;
#86 = DIRECTION ( 'NONE',  ( 1.000000000000000000, 0.000000000000000000, 0.000000000000000000 ) ) ;
#87 = ORIENTED_EDGE ( 'NONE', *, *, #47, .T. ) ;
#88 = PRODUCT ( '6c62', '6c62', '', ( #248 ) ) ;
#89 = AXIS2_PLACEMENT_3D ( 'NONE', #160, #68, #261 ) ;
#90 = DIRECTION ( 'NONE',  ( -0.000000000000000000, -0.000000000000000000, -1.000000000000000000 ) ) ;
#91 = PERSON ( 'NEURÈENÝ', 'NEURÈENÝ', 'NEURÈENÝ', ('NEURÈENÝ'), ('NEURÈENÝ'), ('NEURÈENÝ') ) ;
#92 = VERTEX_POINT ( 'NONE', #220 ) ;
#93 = DIRECTION ( 'NONE',  ( 0.000000000000000000, 0.000000000000000000, -1.000000000000000000 ) ) ;
#94 = DIRECTION ( 'NONE',  ( -1.000000000000000000, 1.224646799147353454E-16, 0.000000000000000000 ) ) ;
#95 = EDGE_LOOP ( 'NONE', ( #235, #27, #131, #109 ) ) ;
#96 = ORIENTED_EDGE ( 'NONE', *, *, #198, .T. ) ;
#97 = AXIS2_PLACEMENT_3D ( 'NONE', #298, #251, #9 ) ;
#98 = DIRECTION ( 'NONE',  ( 0.000000000000000000, 0.000000000000000000, 1.000000000000000000 ) ) ;
#99 = FACE_OUTER_BOUND ( 'NONE', #240, .T. ) ;
#100 = CIRCLE ( 'NONE', #138, 4.099999999999999645 ) ;
#101 = PERSON_AND_ORGANIZATION ( #91, #287 ) ;
#102 = EDGE_CURVE ( 'NONE', #92, #142, #148, .T. ) ;
#103 = APPROVAL_DATE_TIME ( #222, #306 ) ;
#104 = CC_DESIGN_PERSON_AND_ORGANIZATION_ASSIGNMENT ( #101, #32, ( #79 ) ) ;
#105 = AXIS2_PLACEMENT_3D ( 'NONE', #120, #90, #271 ) ;
#106 = DIRECTION ( 'NONE',  ( -0.000000000000000000, -0.000000000000000000, -1.000000000000000000 ) ) ;
#107 = APPLICATION_CONTEXT ( 'configuration controlled 3d designs of mechanical parts and assemblies' ) ;
#108 = ORIENTED_EDGE ( 'NONE', *, *, #39, .F. ) ;
#109 = ORIENTED_EDGE ( 'NONE', *, *, #295, .T. ) ;
#110 = DATE_AND_TIME ( #205, #280 ) ;
#111 = PERSON_AND_ORGANIZATION_ROLE ( 'classification_officer' ) ;
#112 = SECURITY_CLASSIFICATION ( '', '', #135 ) ;
#113 = EDGE_LOOP ( 'NONE', ( #303, #65, #87, #116 ) ) ;
#114 = SHAPE_DEFINITION_REPRESENTATION ( #263, #219 ) ;
#115 = CARTESIAN_POINT ( 'NONE',  ( 0.000000000000000000, 0.000000000000000000, 5.000000000000000000 ) ) ;
#116 = ORIENTED_EDGE ( 'NONE', *, *, #273, .T. ) ;
#117 = CYLINDRICAL_SURFACE ( 'NONE', #282, 4.099999999999999645 ) ;
#118 = CARTESIAN_POINT ( 'NONE',  ( -4.299999999999998934, 5.265981236333617484E-16, 5.199999999999982414 ) ) ;
#119 = AXIS2_PLACEMENT_3D ( 'NONE', #297, #83, #86 ) ;
#120 = CARTESIAN_POINT ( 'NONE',  ( 0.000000000000000000, 0.000000000000000000, 5.000000000000000000 ) ) ;
#121 = DIRECTION ( 'NONE',  ( 1.000000000000000000, 0.000000000000000000, 0.000000000000000000 ) ) ;
#122 = DIRECTION ( 'NONE',  ( -0.000000000000000000, -0.000000000000000000, -1.000000000000000000 ) ) ;
#123 = PLANE ( 'NONE',  #31 ) ;
#124 = AXIS2_PLACEMENT_3D ( 'NONE', #2, #71, #187 ) ;
#125 = COORDINATED_UNIVERSAL_TIME_OFFSET ( 1, 0, .AHEAD. ) ;
#126 = ADVANCED_FACE ( 'NONE', ( #203 ), #75, .T. ) ;
#127 = MANIFOLD_SOLID_BREP ( 'Zaoblit1', #216 ) ;
#128 = APPROVAL_STATUS ( 'not_yet_approved' ) ;
#129 = CIRCLE ( 'NONE', #301, 4.299999999999998934 ) ;
#130 = DATE_AND_TIME ( #275, #74 ) ;
#131 = ORIENTED_EDGE ( 'NONE', *, *, #202, .T. ) ;
#132 =( NAMED_UNIT ( * ) PLANE_ANGLE_UNIT ( ) SI_UNIT ( $, .RADIAN. ) );
#133 = VECTOR ( 'NONE', #106, 1000.000000000000000 ) ;
#134 = CARTESIAN_POINT ( 'NONE',  ( 0.000000000000000000, 0.000000000000000000, 5.000000000000000000 ) ) ;
#135 = SECURITY_CLASSIFICATION_LEVEL ( 'unclassified' ) ;
#136 = ADVANCED_FACE ( 'NONE', ( #178 ), #19, .F. ) ;
#137 = APPROVAL_ROLE ( '' ) ;
#138 = AXIS2_PLACEMENT_3D ( 'NONE', #164, #98, #243 ) ;
#139 = ORIENTED_EDGE ( 'NONE', *, *, #102, .F. ) ;
#140 = COORDINATED_UNIVERSAL_TIME_OFFSET ( 1, 0, .AHEAD. ) ;
#141 = CIRCLE ( 'NONE', #50, 0.1999999999999996503 ) ;
#142 = VERTEX_POINT ( 'NONE', #293 ) ;
#143 = ORIENTED_EDGE ( 'NONE', *, *, #189, .T. ) ;
#144 = ORIENTED_EDGE ( 'NONE', *, *, #155, .T. ) ;
#145 = LOCAL_TIME ( 11, 46, 4.000000000000000000, #247 ) ;
#146 = CARTESIAN_POINT ( 'NONE',  ( 0.000000000000000000, 0.000000000000000000, 5.199999999999982414 ) ) ;
#147 = CARTESIAN_POINT ( 'NONE',  ( 0.000000000000000000, 0.000000000000000000, 0.000000000000000000 ) ) ;
#148 = CIRCLE ( 'NONE', #119, 7.000000000000000000 ) ;
#149 = APPROVAL_ROLE ( '' ) ;
#150 = PLANE ( 'NONE',  #153 ) ;
#151 = DIRECTION ( 'NONE',  ( 1.000000000000000000, 0.000000000000000000, 0.000000000000000000 ) ) ;
#152 = VERTEX_POINT ( 'NONE', #252 ) ;
#153 = AXIS2_PLACEMENT_3D ( 'NONE', #197, #12, #37 ) ;
#154 = DIRECTION ( 'NONE',  ( 0.000000000000000000, 0.000000000000000000, 1.000000000000000000 ) ) ;
#155 = EDGE_CURVE ( 'NONE', #14, #38, #270, .T. ) ;
#156 = DATE_AND_TIME ( #59, #194 ) ;
#157 = EDGE_CURVE ( 'NONE', #38, #14, #129, .T. ) ;
#158 = CIRCLE ( 'NONE', #97, 4.099999999999999645 ) ;
#159 = COORDINATED_UNIVERSAL_TIME_OFFSET ( 1, 0, .AHEAD. ) ;
#160 = CARTESIAN_POINT ( 'NONE',  ( 0.000000000000000000, 0.000000000000000000, 0.000000000000000000 ) ) ;
#161 = APPLICATION_CONTEXT ( 'configuration controlled 3d designs of mechanical parts and assemblies' ) ;
#162 = ORIENTED_EDGE ( 'NONE', *, *, #67, .T. ) ;
#163 = CARTESIAN_POINT ( 'NONE',  ( -7.000000000000000000, 0.000000000000000000, 5.000000000000000000 ) ) ;
#164 = CARTESIAN_POINT ( 'NONE',  ( 0.000000000000000000, 0.000000000000000000, 5.199999999999982414 ) ) ;
#165 = EDGE_LOOP ( 'NONE', ( #144, #236 ) ) ;
#166 = PLANE ( 'NONE',  #183 ) ;
#167 =( GEOMETRIC_REPRESENTATION_CONTEXT ( 3 ) GLOBAL_UNCERTAINTY_ASSIGNED_CONTEXT ( ( #259 ) ) GLOBAL_UNIT_ASSIGNED_CONTEXT ( ( #8, #132, #53 ) ) REPRESENTATION_CONTEXT ( 'NONE', 'WORKASPACE' ) );
#168 = DIRECTION ( 'NONE',  ( 1.000000000000000000, 0.000000000000000000, 0.000000000000000000 ) ) ;
#169 = DIRECTION ( 'NONE',  ( 0.000000000000000000, 0.000000000000000000, 1.000000000000000000 ) ) ;
#170 = FACE_BOUND ( 'NONE', #165, .T. ) ;
#171 = COORDINATED_UNIVERSAL_TIME_OFFSET ( 1, 0, .AHEAD. ) ;
#172 = APPROVAL_PERSON_ORGANIZATION ( #33, #306, #276 ) ;
#173 = DATE_AND_TIME ( #36, #35 ) ;
#174 = FACE_OUTER_BOUND ( 'NONE', #61, .T. ) ;
#175 = APPROVAL ( #43, 'NEURÈENÝ' ) ;
#176 = ORIENTED_EDGE ( 'NONE', *, *, #47, .F. ) ;
#177 = APPROVAL_PERSON_ORGANIZATION ( #77, #211, #149 ) ;
#178 = FACE_OUTER_BOUND ( 'NONE', #16, .T. ) ;
#179 = EDGE_CURVE ( 'NONE', #290, #45, #78, .T. ) ;
#180 = ORIENTED_EDGE ( 'NONE', *, *, #273, .F. ) ;
#181 = PERSON_AND_ORGANIZATION ( #91, #287 ) ;
#182 = LINE ( 'NONE', #232, #299 ) ;
#183 = AXIS2_PLACEMENT_3D ( 'NONE', #147, #49, #242 ) ;
#184 = DIRECTION ( 'NONE',  ( -0.000000000000000000, -0.000000000000000000, -1.000000000000000000 ) ) ;
#185 = CARTESIAN_POINT ( 'NONE',  ( 4.299999999999998934, 0.000000000000000000, 5.199999999999982414 ) ) ;
#186 = ORIENTED_EDGE ( 'NONE', *, *, #295, .F. ) ;
#187 = DIRECTION ( 'NONE',  ( 1.000000000000000000, 0.000000000000000000, 0.000000000000000000 ) ) ;
#188 = DIRECTION ( 'NONE',  ( -0.000000000000000000, -0.000000000000000000, -1.000000000000000000 ) ) ;
#189 = EDGE_CURVE ( 'NONE', #92, #256, #182, .T. ) ;
#190 = ORIENTED_EDGE ( 'NONE', *, *, #67, .F. ) ;
#191 = PRODUCT_RELATED_PRODUCT_CATEGORY ( 'detail', '', ( #88 ) ) ;
#192 = CARTESIAN_POINT ( 'NONE',  ( -4.099999999999999645, 0.000000000000000000, 1004.999999999999886 ) ) ;
#193 = EDGE_LOOP ( 'NONE', ( #20, #190, #253, #278 ) ) ;
#194 = LOCAL_TIME ( 11, 46, 4.000000000000000000, #159 ) ;
#195 = CARTESIAN_POINT ( 'NONE',  ( 0.000000000000000000, 0.000000000000000000, 1004.999999999999886 ) ) ;
#196 = VECTOR ( 'NONE', #267, 1000.000000000000000 ) ;
#197 = CARTESIAN_POINT ( 'NONE',  ( 0.000000000000000000, 0.000000000000000000, 5.000000000000000000 ) ) ;
#198 = EDGE_CURVE ( 'NONE', #142, #92, #292, .T. ) ;
#199 = PERSON_AND_ORGANIZATION ( #91, #287 ) ;
#200 = APPLICATION_PROTOCOL_DEFINITION ( 'international standard', 'config_control_design', 1994, #107 ) ;
#201 = LINE ( 'NONE', #255, #133 ) ;
#202 = EDGE_CURVE ( 'NONE', #290, #204, #73, .T. ) ;
#203 = FACE_OUTER_BOUND ( 'NONE', #281, .T. ) ;
#204 = VERTEX_POINT ( 'NONE', #291 ) ;
#205 = CALENDAR_DATE ( 2022, 20, 6 ) ;
#206 = AXIS2_PLACEMENT_3D ( 'NONE', #60, #154, #40 ) ;
#207 = CC_DESIGN_PERSON_AND_ORGANIZATION_ASSIGNMENT ( #64, #258, ( #10 ) ) ;
#208 = DIRECTION ( 'NONE',  ( 0.000000000000000000, -1.000000000000000000, 0.000000000000000000 ) ) ;
#209 = CARTESIAN_POINT ( 'NONE',  ( 0.000000000000000000, 0.000000000000000000, 1004.999999999999886 ) ) ;
#210 = DIRECTION ( 'NONE',  ( 1.000000000000000000, 0.000000000000000000, -0.000000000000000000 ) ) ;
#211 = APPROVAL ( #221, 'NEURÈENÝ' ) ;
#212 = AXIS2_PLACEMENT_3D ( 'NONE', #76, #169, #233 ) ;
#213 = CARTESIAN_POINT ( 'NONE',  ( 0.000000000000000000, 0.000000000000000000, 1004.999999999999886 ) ) ;
#214 = DIRECTION ( 'NONE',  ( 1.224646799147353207E-16, 1.000000000000000000, -0.000000000000000000 ) ) ;
#215 = FACE_OUTER_BOUND ( 'NONE', #228, .T. ) ;
#216 = CLOSED_SHELL ( 'NONE', ( #136, #18, #126, #17, #296, #246, #58, #265, #30 ) ) ;
#217 = DIRECTION ( 'NONE',  ( -0.000000000000000000, -0.000000000000000000, -1.000000000000000000 ) ) ;
#218 = CC_DESIGN_APPROVAL ( #306, ( #10 ) ) ;
#219 = ADVANCED_BREP_SHAPE_REPRESENTATION ( '6c62', ( #127, #283 ), #167 ) ;
#220 = CARTESIAN_POINT ( 'NONE',  ( 7.000000000000000000, 8.572527594031473190E-16, 5.000000000000000000 ) ) ;
#221 = APPROVAL_STATUS ( 'not_yet_approved' ) ;
#222 = DATE_AND_TIME ( #224, #145 ) ;
#223 = AXIS2_PLACEMENT_3D ( 'NONE', #241, #302, #81 ) ;
#224 = CALENDAR_DATE ( 2022, 20, 6 ) ;
#225 = ORIENTED_EDGE ( 'NONE', *, *, #7, .F. ) ;
#226 = CIRCLE ( 'NONE', #89, 7.000000000000000000 ) ;
#227 = APPLICATION_PROTOCOL_DEFINITION ( 'international standard', 'config_control_design', 1994, #161 ) ;
#228 = EDGE_LOOP ( 'NONE', ( #48, #249, #162, #288 ) ) ;
#229 = CC_DESIGN_PERSON_AND_ORGANIZATION_ASSIGNMENT ( #262, #111, ( #112 ) ) ;
#230 = DIRECTION ( 'NONE',  ( -0.000000000000000000, -0.000000000000000000, -1.000000000000000000 ) ) ;
#231 = ORIENTED_EDGE ( 'NONE', *, *, #274, .T. ) ;
#232 = CARTESIAN_POINT ( 'NONE',  ( 7.000000000000000000, 8.572527594031473190E-16, 5.000000000000000000 ) ) ;
#233 = DIRECTION ( 'NONE',  ( 1.000000000000000000, 0.000000000000000000, 0.000000000000000000 ) ) ;
#234 = VECTOR ( 'NONE', #268, 1000.000000000000000 ) ;
#235 = ORIENTED_EDGE ( 'NONE', *, *, #69, .F. ) ;
#236 = ORIENTED_EDGE ( 'NONE', *, *, #157, .T. ) ;
#237 = CIRCLE ( 'NONE', #80, 4.099999999999999645 ) ;
#238 = DIRECTION ( 'NONE',  ( 1.000000000000000000, 0.000000000000000000, 0.000000000000000000 ) ) ;
#239 = DIRECTION ( 'NONE',  ( 0.000000000000000000, 0.000000000000000000, 1.000000000000000000 ) ) ;
#240 = EDGE_LOOP ( 'NONE', ( #44, #82 ) ) ;
#241 = CARTESIAN_POINT ( 'NONE',  ( 0.000000000000000000, 0.000000000000000000, 5.000000000000000000 ) ) ;
#242 = DIRECTION ( 'NONE',  ( 1.000000000000000000, 0.000000000000000000, -0.000000000000000000 ) ) ;
#243 = DIRECTION ( 'NONE',  ( 1.000000000000000000, 0.000000000000000000, 0.000000000000000000 ) ) ;
#244 = APPROVAL_PERSON_ORGANIZATION ( #181, #175, #137 ) ;
#245 = PERSON_AND_ORGANIZATION_ROLE ( 'design_owner' ) ;
#246 = ADVANCED_FACE ( 'NONE', ( #23 ), #166, .F. ) ;
#247 = COORDINATED_UNIVERSAL_TIME_OFFSET ( 1, 0, .AHEAD. ) ;
#248 = MECHANICAL_CONTEXT ( 'NONE', #107, 'mechanical' ) ;
#249 = ORIENTED_EDGE ( 'NONE', *, *, #69, .T. ) ;
#250 = CC_DESIGN_PERSON_AND_ORGANIZATION_ASSIGNMENT ( #199, #300, ( #10 ) ) ;
#251 = DIRECTION ( 'NONE',  ( 0.000000000000000000, 0.000000000000000000, 1.000000000000000000 ) ) ;
#252 = CARTESIAN_POINT ( 'NONE',  ( 4.099999999999999645, 5.021051876504147385E-16, 5.199999999999982414 ) ) ;
#253 = ORIENTED_EDGE ( 'NONE', *, *, #7, .T. ) ;
#254 = DIRECTION ( 'NONE',  ( 1.000000000000000000, 0.000000000000000000, 0.000000000000000000 ) ) ;
#255 = CARTESIAN_POINT ( 'NONE',  ( 4.099999999999999645, 5.021051876504147385E-16, 1004.999999999999886 ) ) ;
#256 = VERTEX_POINT ( 'NONE', #6 ) ;
#257 = AXIS2_PLACEMENT_3D ( 'NONE', #115, #286, #254 ) ;
#258 = PERSON_AND_ORGANIZATION_ROLE ( 'design_supplier' ) ;
#259 = UNCERTAINTY_MEASURE_WITH_UNIT (LENGTH_MEASURE( 1.000000000000000082E-05 ), #8, 'distance_accuracy_value', 'NONE');
#260 = CIRCLE ( 'NONE', #28, 0.1999999999999996503 ) ;
#261 = DIRECTION ( 'NONE',  ( 1.000000000000000000, 0.000000000000000000, 0.000000000000000000 ) ) ;
#262 = PERSON_AND_ORGANIZATION ( #91, #287 ) ;
#263 = PRODUCT_DEFINITION_SHAPE ( 'NONE', 'NONE',  #79 ) ;
#264 = LINE ( 'NONE', #163, #196 ) ;
#265 = ADVANCED_FACE ( 'NONE', ( #99 ), #123, .T. ) ;
#266 = DIRECTION ( 'NONE',  ( 0.000000000000000000, 0.000000000000000000, 1.000000000000000000 ) ) ;
#267 = DIRECTION ( 'NONE',  ( -0.000000000000000000, -0.000000000000000000, -1.000000000000000000 ) ) ;
#268 = DIRECTION ( 'NONE',  ( -0.000000000000000000, -0.000000000000000000, -1.000000000000000000 ) ) ;
#269 = CARTESIAN_POINT ( 'NONE',  ( 0.000000000000000000, 0.000000000000000000, 1004.999999999999886 ) ) ;
#270 = CIRCLE ( 'NONE', #54, 4.299999999999998934 ) ;
#271 = DIRECTION ( 'NONE',  ( -1.000000000000000000, 0.000000000000000000, 0.000000000000000000 ) ) ;
#272 = CARTESIAN_POINT ( 'NONE',  ( -7.000000000000000000, 0.000000000000000000, 0.000000000000000000 ) ) ;
#273 = EDGE_CURVE ( 'NONE', #84, #256, #66, .T. ) ;
#274 = EDGE_CURVE ( 'NONE', #204, #38, #141, .T. ) ;
#275 = CALENDAR_DATE ( 2022, 20, 6 ) ;
#276 = APPROVAL_ROLE ( '' ) ;
#277 = CARTESIAN_POINT ( 'NONE',  ( 0.000000000000000000, 0.000000000000000000, 0.000000000000000000 ) ) ;
#278 = ORIENTED_EDGE ( 'NONE', *, *, #157, .F. ) ;
#279 = APPROVAL_DATE_TIME ( #173, #211 ) ;
#280 = LOCAL_TIME ( 11, 46, 4.000000000000000000, #140 ) ;
#281 = EDGE_LOOP ( 'NONE', ( #139, #143, #72, #176 ) ) ;
#282 = AXIS2_PLACEMENT_3D ( 'NONE', #213, #188, #70 ) ;
#283 = AXIS2_PLACEMENT_3D ( 'NONE', #277, #15, #151 ) ;
#284 = TOROIDAL_SURFACE ( 'NONE', #22, 4.299999999999998934, 0.2000000000000000111 ) ;
#285 = CARTESIAN_POINT ( 'NONE',  ( 4.099999999999999645, 5.021051876504147385E-16, 1004.999999999999886 ) ) ;
#286 = DIRECTION ( 'NONE',  ( 0.000000000000000000, 0.000000000000000000, 1.000000000000000000 ) ) ;
#287 = ORGANIZATION ( 'NEURÈENÝ', 'NEURÈENÝ', '' ) ;
#288 = ORIENTED_EDGE ( 'NONE', *, *, #202, .F. ) ;
#289 = CARTESIAN_POINT ( 'NONE',  ( -4.299999999999998934, 5.265981236333617484E-16, 4.999999999999991118 ) ) ;
#290 = VERTEX_POINT ( 'NONE', #56 ) ;
#291 = CARTESIAN_POINT ( 'NONE',  ( -4.099999999999999645, 0.000000000000000000, 5.199999999999982414 ) ) ;
#292 = CIRCLE ( 'NONE', #257, 7.000000000000000000 ) ;
#293 = CARTESIAN_POINT ( 'NONE',  ( -7.000000000000000000, 0.000000000000000000, 5.000000000000000000 ) ) ;
#294 = DIRECTION ( 'NONE',  ( 1.000000000000000000, 0.000000000000000000, 0.000000000000000000 ) ) ;
#295 = EDGE_CURVE ( 'NONE', #204, #152, #158, .T. ) ;
#296 = ADVANCED_FACE ( 'NONE', ( #170, #174 ), #150, .T. ) ;
#297 = CARTESIAN_POINT ( 'NONE',  ( 0.000000000000000000, 0.000000000000000000, 5.000000000000000000 ) ) ;
#298 = CARTESIAN_POINT ( 'NONE',  ( 0.000000000000000000, 0.000000000000000000, 5.199999999999982414 ) ) ;
#299 = VECTOR ( 'NONE', #184, 1000.000000000000000 ) ;
#300 = PERSON_AND_ORGANIZATION_ROLE ( 'creator' ) ;
#301 = AXIS2_PLACEMENT_3D ( 'NONE', #29, #122, #294 ) ;
#302 = DIRECTION ( 'NONE',  ( -0.000000000000000000, -0.000000000000000000, -1.000000000000000000 ) ) ;
#303 = ORIENTED_EDGE ( 'NONE', *, *, #189, .F. ) ;
#304 = CC_DESIGN_PERSON_AND_ORGANIZATION_ASSIGNMENT ( #34, #245, ( #88 ) ) ;
#305 = APPROVAL_DATE_TIME ( #110, #175 ) ;
#306 = APPROVAL ( #128, 'NEURÈENÝ' ) ;
#307 = CARTESIAN_POINT ( 'NONE',  ( 4.299999999999998934, 0.000000000000000000, 4.999999999999991118 ) ) ;
ENDSEC;
END-ISO-10303-21;
