ISO-10303-21;
HEADER;
FILE_DESCRIPTION (( 'STEP AP203' ),
    '1' );
FILE_NAME ('66da.STEP',
    '2022-06-20T10:09:16',
    ( '' ),
    ( '' ),
    'SwSTEP 2.0',
    'SolidWorks 2019',
    '' );
FILE_SCHEMA (( 'CONFIG_CONTROL_DESIGN' ));
ENDSEC;

DATA;
#1 = DIRECTION ( 'NONE',  ( -1.000000000000000000, 1.224646799147353207E-16, 0.000000000000000000 ) ) ;
#2 = CC_DESIGN_APPROVAL ( #153, ( #233 ) ) ;
#3 = DIRECTION ( 'NONE',  ( 0.000000000000000000, 0.000000000000000000, 1.000000000000000000 ) ) ;
#4 =( NAMED_UNIT ( * ) PLANE_ANGLE_UNIT ( ) SI_UNIT ( $, .RADIAN. ) );
#5 = DIRECTION ( 'NONE',  ( 0.000000000000000000, 0.000000000000000000, 1.000000000000000000 ) ) ;
#6 = VECTOR ( 'NONE', #75, 1000.000000000000000 ) ;
#7 = ORIENTED_EDGE ( 'NONE', *, *, #30, .F. ) ;
#8 = AXIS2_PLACEMENT_3D ( 'NONE', #191, #90, #23 ) ;
#9 = EDGE_CURVE ( 'NONE', #53, #230, #91, .T. ) ;
#10 = EDGE_LOOP ( 'NONE', ( #180, #154, #129, #102 ) ) ;
#11 = CC_DESIGN_APPROVAL ( #147, ( #89 ) ) ;
#12 = ORIENTED_EDGE ( 'NONE', *, *, #96, .F. ) ;
#13 = CARTESIAN_POINT ( 'NONE',  ( 2.200000000000000178, 0.000000000000000000, 3.199999999999980638 ) ) ;
#14 = APPROVAL_STATUS ( 'not_yet_approved' ) ;
#15 = VECTOR ( 'NONE', #87, 1000.000000000000000 ) ;
#16 = AXIS2_PLACEMENT_3D ( 'NONE', #69, #235, #161 ) ;
#17 = DIRECTION ( 'NONE',  ( 0.000000000000000000, 0.000000000000000000, 1.000000000000000000 ) ) ;
#18 = ADVANCED_FACE ( 'NONE', ( #237 ), #212, .T. ) ;
#19 = CARTESIAN_POINT ( 'NONE',  ( 0.000000000000000000, 0.000000000000000000, 3.199999999999980638 ) ) ;
#20 = CALENDAR_DATE ( 2022, 20, 6 ) ;
#21 = DIRECTION ( 'NONE',  ( 0.000000000000000000, 0.000000000000000000, 1.000000000000000000 ) ) ;
#22 = PERSON_AND_ORGANIZATION_ROLE ( 'creator' ) ;
#23 = DIRECTION ( 'NONE',  ( -1.000000000000000000, 0.000000000000000000, 0.000000000000000000 ) ) ;
#24 = DIRECTION ( 'NONE',  ( 1.000000000000000000, 0.000000000000000000, 0.000000000000000000 ) ) ;
#25 = VECTOR ( 'NONE', #40, 1000.000000000000000 ) ;
#26 = ADVANCED_FACE ( 'NONE', ( #94 ), #282, .F. ) ;
#27 = CARTESIAN_POINT ( 'NONE',  ( 4.000000000000000000, 4.898587196589412829E-16, 3.000000000000000000 ) ) ;
#28 = AXIS2_PLACEMENT_3D ( 'NONE', #209, #299, #86 ) ;
#29 = DIRECTION ( 'NONE',  ( 0.000000000000000000, 0.000000000000000000, 1.000000000000000000 ) ) ;
#30 = EDGE_CURVE ( 'NONE', #276, #131, #163, .T. ) ;
#31 = VERTEX_POINT ( 'NONE', #109 ) ;
#32 = ORIENTED_EDGE ( 'NONE', *, *, #96, .T. ) ;
#33 = ORIENTED_EDGE ( 'NONE', *, *, #144, .T. ) ;
#34 = VECTOR ( 'NONE', #42, 1000.000000000000000 ) ;
#35 = SECURITY_CLASSIFICATION_LEVEL ( 'unclassified' ) ;
#36 = AXIS2_PLACEMENT_3D ( 'NONE', #267, #3, #47 ) ;
#37 = FACE_OUTER_BOUND ( 'NONE', #273, .T. ) ;
#38 = COORDINATED_UNIVERSAL_TIME_OFFSET ( 1, 0, .AHEAD. ) ;
#39 = ADVANCED_FACE ( 'NONE', ( #159 ), #174, .F. ) ;
#40 = DIRECTION ( 'NONE',  ( -0.000000000000000000, -0.000000000000000000, -1.000000000000000000 ) ) ;
#41 = COORDINATED_UNIVERSAL_TIME_OFFSET ( 1, 0, .AHEAD. ) ;
#42 = DIRECTION ( 'NONE',  ( -0.000000000000000000, -0.000000000000000000, -1.000000000000000000 ) ) ;
#43 = COORDINATED_UNIVERSAL_TIME_OFFSET ( 1, 0, .AHEAD. ) ;
#44 = CARTESIAN_POINT ( 'NONE',  ( 0.000000000000000000, 0.000000000000000000, 3.000000000000000000 ) ) ;
#45 = ADVANCED_FACE ( 'NONE', ( #143 ), #215, .T. ) ;
#46 = CARTESIAN_POINT ( 'NONE',  ( 0.000000000000000000, 0.000000000000000000, 3.199999999999980638 ) ) ;
#47 = DIRECTION ( 'NONE',  ( 1.000000000000000000, 0.000000000000000000, 0.000000000000000000 ) ) ;
#48 = EDGE_CURVE ( 'NONE', #175, #31, #303, .T. ) ;
#49 = CARTESIAN_POINT ( 'NONE',  ( 0.000000000000000000, 0.000000000000000000, 0.000000000000000000 ) ) ;
#50 = AXIS2_PLACEMENT_3D ( 'NONE', #44, #183, #257 ) ;
#51 = CARTESIAN_POINT ( 'NONE',  ( 0.000000000000000000, 0.000000000000000000, 3.000000000000000000 ) ) ;
#52 = LOCAL_TIME ( 12, 9, 16.00000000000000000, #136 ) ;
#53 = VERTEX_POINT ( 'NONE', #112 ) ;
#54 = ORIENTED_EDGE ( 'NONE', *, *, #242, .T. ) ;
#55 = CIRCLE ( 'NONE', #130, 4.000000000000000000 ) ;
#56 = EDGE_CURVE ( 'NONE', #232, #104, #186, .T. ) ;
#57 = ADVANCED_BREP_SHAPE_REPRESENTATION ( '66da', ( #223, #28 ), #246 ) ;
#58 = EDGE_LOOP ( 'NONE', ( #126, #187, #82, #54 ) ) ;
#59 = CARTESIAN_POINT ( 'NONE',  ( -2.000000000000000000, 0.000000000000000000, 403.0000000000000000 ) ) ;
#60 = DATE_AND_TIME ( #20, #80 ) ;
#61 = EDGE_LOOP ( 'NONE', ( #274, #105 ) ) ;
#62 = DATE_AND_TIME ( #184, #52 ) ;
#63 = DIRECTION ( 'NONE',  ( 0.000000000000000000, 0.000000000000000000, 1.000000000000000000 ) ) ;
#64 = DATE_TIME_ROLE ( 'creation_date' ) ;
#65 = DIRECTION ( 'NONE',  ( 1.000000000000000000, 0.000000000000000000, 0.000000000000000000 ) ) ;
#66 = MECHANICAL_CONTEXT ( 'NONE', #95, 'mechanical' ) ;
#67 = AXIS2_PLACEMENT_3D ( 'NONE', #289, #167, #221 ) ;
#68 = APPROVAL_PERSON_ORGANIZATION ( #110, #147, #260 ) ;
#69 = CARTESIAN_POINT ( 'NONE',  ( 0.000000000000000000, 0.000000000000000000, 3.000000000000000000 ) ) ;
#70 = DIRECTION ( 'NONE',  ( 0.000000000000000000, 0.000000000000000000, 1.000000000000000000 ) ) ;
#71 =( LENGTH_UNIT ( ) NAMED_UNIT ( * ) SI_UNIT ( .MILLI., .METRE. ) );
#72 = ADVANCED_FACE ( 'NONE', ( #85 ), #210, .T. ) ;
#73 = AXIS2_PLACEMENT_3D ( 'NONE', #19, #135, #181 ) ;
#74 = CARTESIAN_POINT ( 'NONE',  ( 2.200000000000000178, 0.000000000000000000, 2.999999999999990674 ) ) ;
#75 = DIRECTION ( 'NONE',  ( -0.000000000000000000, -0.000000000000000000, -1.000000000000000000 ) ) ;
#76 = AXIS2_PLACEMENT_3D ( 'NONE', #247, #148, #225 ) ;
#77 = EDGE_LOOP ( 'NONE', ( #204, #254, #231, #7 ) ) ;
#78 = ORIENTED_EDGE ( 'NONE', *, *, #150, .F. ) ;
#79 = EDGE_LOOP ( 'NONE', ( #228, #33 ) ) ;
#80 = LOCAL_TIME ( 12, 9, 16.00000000000000000, #43 ) ;
#81 = ORIENTED_EDGE ( 'NONE', *, *, #144, .F. ) ;
#82 = ORIENTED_EDGE ( 'NONE', *, *, #30, .T. ) ;
#83 = APPROVAL_DATE_TIME ( #256, #147 ) ;
#84 = EDGE_CURVE ( 'NONE', #104, #53, #219, .T. ) ;
#85 = FACE_OUTER_BOUND ( 'NONE', #58, .T. ) ;
#86 = DIRECTION ( 'NONE',  ( 1.000000000000000000, 0.000000000000000000, 0.000000000000000000 ) ) ;
#87 = DIRECTION ( 'NONE',  ( -0.000000000000000000, -0.000000000000000000, -1.000000000000000000 ) ) ;
#88 = UNCERTAINTY_MEASURE_WITH_UNIT (LENGTH_MEASURE( 1.000000000000000082E-05 ), #71, 'distance_accuracy_value', 'NONE');
#89 = PRODUCT_DEFINITION ( 'NEZNÁMÝ', '', #233, #119 ) ;
#90 = DIRECTION ( 'NONE',  ( -0.000000000000000000, -0.000000000000000000, -1.000000000000000000 ) ) ;
#91 = CIRCLE ( 'NONE', #111, 4.000000000000000000 ) ;
#92 = CARTESIAN_POINT ( 'NONE',  ( -2.000000000000000000, 0.000000000000000000, 3.199999999999980638 ) ) ;
#93 = APPROVAL_PERSON_ORGANIZATION ( #217, #153, #298 ) ;
#94 = FACE_OUTER_BOUND ( 'NONE', #61, .T. ) ;
#95 = APPLICATION_CONTEXT ( 'configuration controlled 3d designs of mechanical parts and assemblies' ) ;
#96 = EDGE_CURVE ( 'NONE', #131, #132, #218, .T. ) ;
#97 = DIRECTION ( 'NONE',  ( 0.000000000000000000, 0.000000000000000000, 1.000000000000000000 ) ) ;
#98 = CIRCLE ( 'NONE', #201, 2.200000000000000178 ) ;
#99 = CC_DESIGN_DATE_AND_TIME_ASSIGNMENT ( #238, #281, ( #173 ) ) ;
#100 = DIRECTION ( 'NONE',  ( 0.000000000000000000, 0.000000000000000000, 1.000000000000000000 ) ) ;
#101 = CARTESIAN_POINT ( 'NONE',  ( 0.000000000000000000, 0.000000000000000000, 3.000000000000000000 ) ) ;
#102 = ORIENTED_EDGE ( 'NONE', *, *, #9, .T. ) ;
#103 = ADVANCED_FACE ( 'NONE', ( #37 ), #171, .F. ) ;
#104 = VERTEX_POINT ( 'NONE', #306 ) ;
#105 = ORIENTED_EDGE ( 'NONE', *, *, #216, .F. ) ;
#106 = AXIS2_PLACEMENT_3D ( 'NONE', #226, #70, #266 ) ;
#107 = EDGE_CURVE ( 'NONE', #31, #203, #178, .T. ) ;
#108 = EDGE_LOOP ( 'NONE', ( #151, #295 ) ) ;
#109 = CARTESIAN_POINT ( 'NONE',  ( 2.000000000000000000, 2.449293598294706414E-16, 3.199999999999980638 ) ) ;
#110 = PERSON_AND_ORGANIZATION ( #284, #145 ) ;
#111 = AXIS2_PLACEMENT_3D ( 'NONE', #280, #63, #65 ) ;
#112 = CARTESIAN_POINT ( 'NONE',  ( -4.000000000000000000, 0.000000000000000000, 0.000000000000000000 ) ) ;
#113 = PERSON_AND_ORGANIZATION_ROLE ( 'creator' ) ;
#114 = PLANE ( 'NONE',  #141 ) ;
#115 = SHAPE_DEFINITION_REPRESENTATION ( #227, #57 ) ;
#116 = DIRECTION ( 'NONE',  ( 1.000000000000000000, 0.000000000000000000, -0.000000000000000000 ) ) ;
#117 = PERSON_AND_ORGANIZATION_ROLE ( 'design_owner' ) ;
#118 = DIRECTION ( 'NONE',  ( -0.000000000000000000, -0.000000000000000000, -1.000000000000000000 ) ) ;
#119 = DESIGN_CONTEXT ( 'detailed design', #193, 'design' ) ;
#120 = DIRECTION ( 'NONE',  ( 1.000000000000000000, 0.000000000000000000, 0.000000000000000000 ) ) ;
#121 = APPROVAL ( #304, 'NEURÈENÝ' ) ;
#122 = FACE_OUTER_BOUND ( 'NONE', #108, .T. ) ;
#123 = AXIS2_PLACEMENT_3D ( 'NONE', #46, #165, #283 ) ;
#124 = AXIS2_PLACEMENT_3D ( 'NONE', #51, #125, #286 ) ;
#125 = DIRECTION ( 'NONE',  ( -0.000000000000000000, -0.000000000000000000, -1.000000000000000000 ) ) ;
#126 = ORIENTED_EDGE ( 'NONE', *, *, #48, .F. ) ;
#127 = PRODUCT ( '66da', '66da', '', ( #66 ) ) ;
#128 = ADVANCED_FACE ( 'NONE', ( #278, #142 ), #114, .T. ) ;
#129 = ORIENTED_EDGE ( 'NONE', *, *, #84, .T. ) ;
#130 = AXIS2_PLACEMENT_3D ( 'NONE', #49, #5, #192 ) ;
#131 = VERTEX_POINT ( 'NONE', #92 ) ;
#132 = VERTEX_POINT ( 'NONE', #168 ) ;
#133 = PRODUCT_RELATED_PRODUCT_CATEGORY ( 'detail', '', ( #127 ) ) ;
#134 = LOCAL_TIME ( 12, 9, 16.00000000000000000, #41 ) ;
#135 = DIRECTION ( 'NONE',  ( 0.000000000000000000, 0.000000000000000000, 1.000000000000000000 ) ) ;
#136 = COORDINATED_UNIVERSAL_TIME_OFFSET ( 1, 0, .AHEAD. ) ;
#137 = ORIENTED_EDGE ( 'NONE', *, *, #56, .T. ) ;
#138 = CALENDAR_DATE ( 2022, 20, 6 ) ;
#139 = AXIS2_PLACEMENT_3D ( 'NONE', #245, #17, #265 ) ;
#140 = PERSON_AND_ORGANIZATION ( #284, #145 ) ;
#141 = AXIS2_PLACEMENT_3D ( 'NONE', #244, #21, #116 ) ;
#142 = FACE_OUTER_BOUND ( 'NONE', #272, .T. ) ;
#143 = FACE_OUTER_BOUND ( 'NONE', #77, .T. ) ;
#144 = EDGE_CURVE ( 'NONE', #132, #203, #220, .T. ) ;
#145 = ORGANIZATION ( 'NEURÈENÝ', 'NEURÈENÝ', '' ) ;
#146 = CARTESIAN_POINT ( 'NONE',  ( -2.000000000000000000, 0.000000000000000000, 403.0000000000000000 ) ) ;
#147 = APPROVAL ( #240, 'NEURÈENÝ' ) ;
#148 = DIRECTION ( 'NONE',  ( 0.000000000000000000, 0.000000000000000000, 1.000000000000000000 ) ) ;
#149 = CIRCLE ( 'NONE', #241, 2.000000000000000000 ) ;
#150 = EDGE_CURVE ( 'NONE', #31, #131, #287, .T. ) ;
#151 = ORIENTED_EDGE ( 'NONE', *, *, #176, .T. ) ;
#152 = ORIENTED_EDGE ( 'NONE', *, *, #224, .F. ) ;
#153 = APPROVAL ( #14, 'NEURÈENÝ' ) ;
#154 = ORIENTED_EDGE ( 'NONE', *, *, #166, .F. ) ;
#155 = AXIS2_PLACEMENT_3D ( 'NONE', #300, #118, #259 ) ;
#156 = CARTESIAN_POINT ( 'NONE',  ( -2.200000000000000178, 2.694222958124177006E-16, 3.199999999999980638 ) ) ;
#157 = APPLICATION_PROTOCOL_DEFINITION ( 'international standard', 'config_control_design', 1994, #193 ) ;
#158 = CIRCLE ( 'NONE', #196, 4.000000000000000000 ) ;
#159 = FACE_OUTER_BOUND ( 'NONE', #206, .T. ) ;
#160 = COORDINATED_UNIVERSAL_TIME_OFFSET ( 1, 0, .AHEAD. ) ;
#161 = DIRECTION ( 'NONE',  ( -1.000000000000000000, 0.000000000000000000, 0.000000000000000000 ) ) ;
#162 = PERSON_AND_ORGANIZATION_ROLE ( 'design_supplier' ) ;
#163 = LINE ( 'NONE', #59, #25 ) ;
#164 = DATE_AND_TIME ( #138, #134 ) ;
#165 = DIRECTION ( 'NONE',  ( 0.000000000000000000, 0.000000000000000000, 1.000000000000000000 ) ) ;
#166 = EDGE_CURVE ( 'NONE', #104, #232, #158, .T. ) ;
#167 = DIRECTION ( 'NONE',  ( -0.000000000000000000, -0.000000000000000000, -1.000000000000000000 ) ) ;
#168 = CARTESIAN_POINT ( 'NONE',  ( -2.200000000000000178, 2.694222958124177006E-16, 2.999999999999990674 ) ) ;
#169 = CARTESIAN_POINT ( 'NONE',  ( 0.000000000000000000, 0.000000000000000000, 403.0000000000000000 ) ) ;
#170 = CC_DESIGN_PERSON_AND_ORGANIZATION_ASSIGNMENT ( #258, #117, ( #127 ) ) ;
#171 = TOROIDAL_SURFACE ( 'NONE', #73, 2.200000000000000178, 0.2000000000000000111 ) ;
#172 = FACE_OUTER_BOUND ( 'NONE', #275, .T. ) ;
#173 = SECURITY_CLASSIFICATION ( '', '', #35 ) ;
#174 = TOROIDAL_SURFACE ( 'NONE', #123, 2.200000000000000178, 0.2000000000000000111 ) ;
#175 = VERTEX_POINT ( 'NONE', #288 ) ;
#176 = EDGE_CURVE ( 'NONE', #276, #175, #302, .T. ) ;
#177 = ORIENTED_EDGE ( 'NONE', *, *, #107, .F. ) ;
#178 = CIRCLE ( 'NONE', #207, 0.2000000000000000944 ) ;
#179 = ORIENTED_EDGE ( 'NONE', *, *, #242, .F. ) ;
#180 = ORIENTED_EDGE ( 'NONE', *, *, #189, .F. ) ;
#181 = DIRECTION ( 'NONE',  ( 1.000000000000000000, 0.000000000000000000, 0.000000000000000000 ) ) ;
#182 = APPLICATION_PROTOCOL_DEFINITION ( 'international standard', 'config_control_design', 1994, #95 ) ;
#183 = DIRECTION ( 'NONE',  ( 0.000000000000000000, 0.000000000000000000, 1.000000000000000000 ) ) ;
#184 = CALENDAR_DATE ( 2022, 20, 6 ) ;
#185 = DIRECTION ( 'NONE',  ( 1.224646799147353207E-16, 1.000000000000000000, -0.000000000000000000 ) ) ;
#186 = CIRCLE ( 'NONE', #50, 4.000000000000000000 ) ;
#187 = ORIENTED_EDGE ( 'NONE', *, *, #176, .F. ) ;
#188 = APPROVAL_DATE_TIME ( #60, #121 ) ;
#189 = EDGE_CURVE ( 'NONE', #232, #230, #269, .T. ) ;
#190 = LOCAL_TIME ( 12, 9, 16.00000000000000000, #160 ) ;
#191 = CARTESIAN_POINT ( 'NONE',  ( 0.000000000000000000, 0.000000000000000000, 403.0000000000000000 ) ) ;
#192 = DIRECTION ( 'NONE',  ( 1.000000000000000000, 0.000000000000000000, 0.000000000000000000 ) ) ;
#193 = APPLICATION_CONTEXT ( 'configuration controlled 3d designs of mechanical parts and assemblies' ) ;
#194 = CYLINDRICAL_SURFACE ( 'NONE', #124, 4.000000000000000000 ) ;
#195 = CC_DESIGN_DATE_AND_TIME_ASSIGNMENT ( #62, #64, ( #89 ) ) ;
#196 = AXIS2_PLACEMENT_3D ( 'NONE', #101, #100, #198 ) ;
#197 = CARTESIAN_POINT ( 'NONE',  ( 0.000000000000000000, 0.000000000000000000, 3.000000000000000000 ) ) ;
#198 = DIRECTION ( 'NONE',  ( 1.000000000000000000, 0.000000000000000000, 0.000000000000000000 ) ) ;
#199 = AXIS2_PLACEMENT_3D ( 'NONE', #156, #185, #1 ) ;
#200 = CC_DESIGN_PERSON_AND_ORGANIZATION_ASSIGNMENT ( #279, #162, ( #233 ) ) ;
#201 = AXIS2_PLACEMENT_3D ( 'NONE', #197, #251, #24 ) ;
#202 = ORIENTED_EDGE ( 'NONE', *, *, #166, .T. ) ;
#203 = VERTEX_POINT ( 'NONE', #74 ) ;
#204 = ORIENTED_EDGE ( 'NONE', *, *, #305, .F. ) ;
#205 = LOCAL_TIME ( 12, 9, 16.00000000000000000, #38 ) ;
#206 = EDGE_LOOP ( 'NONE', ( #179, #32, #152, #177 ) ) ;
#207 = AXIS2_PLACEMENT_3D ( 'NONE', #13, #239, #307 ) ;
#208 = ORIENTED_EDGE ( 'NONE', *, *, #56, .F. ) ;
#209 = CARTESIAN_POINT ( 'NONE',  ( 0.000000000000000000, 0.000000000000000000, 0.000000000000000000 ) ) ;
#210 = CYLINDRICAL_SURFACE ( 'NONE', #155, 2.000000000000000000 ) ;
#211 = CALENDAR_DATE ( 2022, 20, 6 ) ;
#212 = CYLINDRICAL_SURFACE ( 'NONE', #16, 4.000000000000000000 ) ;
#213 = PERSON_AND_ORGANIZATION ( #284, #145 ) ;
#214 = AXIS2_PLACEMENT_3D ( 'NONE', #169, #97, #222 ) ;
#215 = CYLINDRICAL_SURFACE ( 'NONE', #8, 2.000000000000000000 ) ;
#216 = EDGE_CURVE ( 'NONE', #230, #53, #55, .T. ) ;
#217 = PERSON_AND_ORGANIZATION ( #284, #145 ) ;
#218 = CIRCLE ( 'NONE', #199, 0.2000000000000000944 ) ;
#219 = LINE ( 'NONE', #261, #34 ) ;
#220 = CIRCLE ( 'NONE', #67, 2.200000000000000178 ) ;
#221 = DIRECTION ( 'NONE',  ( 1.000000000000000000, 0.000000000000000000, 0.000000000000000000 ) ) ;
#222 = DIRECTION ( 'NONE',  ( 1.000000000000000000, 0.000000000000000000, -0.000000000000000000 ) ) ;
#223 = MANIFOLD_SOLID_BREP ( 'Zaoblit1', #290 ) ;
#224 = EDGE_CURVE ( 'NONE', #203, #132, #98, .T. ) ;
#225 = DIRECTION ( 'NONE',  ( 1.000000000000000000, 0.000000000000000000, 0.000000000000000000 ) ) ;
#226 = CARTESIAN_POINT ( 'NONE',  ( 0.000000000000000000, 0.000000000000000000, 403.0000000000000000 ) ) ;
#227 = PRODUCT_DEFINITION_SHAPE ( 'NONE', 'NONE',  #89 ) ;
#228 = ORIENTED_EDGE ( 'NONE', *, *, #224, .T. ) ;
#229 = CC_DESIGN_APPROVAL ( #121, ( #173 ) ) ;
#230 = VERTEX_POINT ( 'NONE', #250 ) ;
#231 = ORIENTED_EDGE ( 'NONE', *, *, #150, .T. ) ;
#232 = VERTEX_POINT ( 'NONE', #27 ) ;
#233 = PRODUCT_DEFINITION_FORMATION_WITH_SPECIFIED_SOURCE ( 'LIBOVOLNÝ', '', #127, .NOT_KNOWN. ) ;
#234 = PERSON_AND_ORGANIZATION ( #284, #145 ) ;
#235 = DIRECTION ( 'NONE',  ( -0.000000000000000000, -0.000000000000000000, -1.000000000000000000 ) ) ;
#236 = APPROVAL_DATE_TIME ( #164, #153 ) ;
#237 = FACE_OUTER_BOUND ( 'NONE', #10, .T. ) ;
#238 = DATE_AND_TIME ( #277, #190 ) ;
#239 = DIRECTION ( 'NONE',  ( 0.000000000000000000, -1.000000000000000000, 0.000000000000000000 ) ) ;
#240 = APPROVAL_STATUS ( 'not_yet_approved' ) ;
#241 = AXIS2_PLACEMENT_3D ( 'NONE', #285, #29, #120 ) ;
#242 = EDGE_CURVE ( 'NONE', #131, #31, #149, .T. ) ;
#243 = CC_DESIGN_SECURITY_CLASSIFICATION ( #173, ( #233 ) ) ;
#244 = CARTESIAN_POINT ( 'NONE',  ( 0.000000000000000000, 0.000000000000000000, 3.000000000000000000 ) ) ;
#245 = CARTESIAN_POINT ( 'NONE',  ( 0.000000000000000000, 0.000000000000000000, 0.000000000000000000 ) ) ;
#246 =( GEOMETRIC_REPRESENTATION_CONTEXT ( 3 ) GLOBAL_UNCERTAINTY_ASSIGNED_CONTEXT ( ( #88 ) ) GLOBAL_UNIT_ASSIGNED_CONTEXT ( ( #71, #4, #291 ) ) REPRESENTATION_CONTEXT ( 'NONE', 'WORKASPACE' ) );
#247 = CARTESIAN_POINT ( 'NONE',  ( 0.000000000000000000, 0.000000000000000000, 403.0000000000000000 ) ) ;
#248 = CC_DESIGN_PERSON_AND_ORGANIZATION_ASSIGNMENT ( #234, #301, ( #173 ) ) ;
#249 = CARTESIAN_POINT ( 'NONE',  ( 4.000000000000000000, 4.898587196589412829E-16, 3.000000000000000000 ) ) ;
#250 = CARTESIAN_POINT ( 'NONE',  ( 4.000000000000000000, 4.898587196589412829E-16, 0.000000000000000000 ) ) ;
#251 = DIRECTION ( 'NONE',  ( -0.000000000000000000, -0.000000000000000000, -1.000000000000000000 ) ) ;
#252 = CIRCLE ( 'NONE', #106, 2.000000000000000000 ) ;
#253 = CC_DESIGN_PERSON_AND_ORGANIZATION_ASSIGNMENT ( #264, #22, ( #89 ) ) ;
#254 = ORIENTED_EDGE ( 'NONE', *, *, #48, .T. ) ;
#255 = ORIENTED_EDGE ( 'NONE', *, *, #84, .F. ) ;
#256 = DATE_AND_TIME ( #211, #205 ) ;
#257 = DIRECTION ( 'NONE',  ( 1.000000000000000000, 0.000000000000000000, 0.000000000000000000 ) ) ;
#258 = PERSON_AND_ORGANIZATION ( #284, #145 ) ;
#259 = DIRECTION ( 'NONE',  ( -1.000000000000000000, 0.000000000000000000, 0.000000000000000000 ) ) ;
#260 = APPROVAL_ROLE ( '' ) ;
#261 = CARTESIAN_POINT ( 'NONE',  ( -4.000000000000000000, 0.000000000000000000, 3.000000000000000000 ) ) ;
#262 = APPROVAL_ROLE ( '' ) ;
#263 = CARTESIAN_POINT ( 'NONE',  ( 2.000000000000000000, 2.449293598294706414E-16, 403.0000000000000000 ) ) ;
#264 = PERSON_AND_ORGANIZATION ( #284, #145 ) ;
#265 = DIRECTION ( 'NONE',  ( 1.000000000000000000, 0.000000000000000000, -0.000000000000000000 ) ) ;
#266 = DIRECTION ( 'NONE',  ( 1.000000000000000000, 0.000000000000000000, 0.000000000000000000 ) ) ;
#267 = CARTESIAN_POINT ( 'NONE',  ( 0.000000000000000000, 0.000000000000000000, 3.199999999999980638 ) ) ;
#268 = APPROVAL_PERSON_ORGANIZATION ( #213, #121, #262 ) ;
#269 = LINE ( 'NONE', #249, #6 ) ;
#270 = ADVANCED_FACE ( 'NONE', ( #122 ), #271, .T. ) ;
#271 = PLANE ( 'NONE',  #214 ) ;
#272 = EDGE_LOOP ( 'NONE', ( #202, #137 ) ) ;
#273 = EDGE_LOOP ( 'NONE', ( #12, #78, #294, #81 ) ) ;
#274 = ORIENTED_EDGE ( 'NONE', *, *, #9, .F. ) ;
#275 = EDGE_LOOP ( 'NONE', ( #208, #297, #292, #255 ) ) ;
#276 = VERTEX_POINT ( 'NONE', #146 ) ;
#277 = CALENDAR_DATE ( 2022, 20, 6 ) ;
#278 = FACE_BOUND ( 'NONE', #79, .T. ) ;
#279 = PERSON_AND_ORGANIZATION ( #284, #145 ) ;
#280 = CARTESIAN_POINT ( 'NONE',  ( 0.000000000000000000, 0.000000000000000000, 0.000000000000000000 ) ) ;
#281 = DATE_TIME_ROLE ( 'classification_date' ) ;
#282 = PLANE ( 'NONE',  #139 ) ;
#283 = DIRECTION ( 'NONE',  ( 1.000000000000000000, 0.000000000000000000, 0.000000000000000000 ) ) ;
#284 = PERSON ( 'NEURÈENÝ', 'NEURÈENÝ', 'NEURÈENÝ', ('NEURÈENÝ'), ('NEURÈENÝ'), ('NEURÈENÝ') ) ;
#285 = CARTESIAN_POINT ( 'NONE',  ( 0.000000000000000000, 0.000000000000000000, 3.199999999999980638 ) ) ;
#286 = DIRECTION ( 'NONE',  ( -1.000000000000000000, 0.000000000000000000, 0.000000000000000000 ) ) ;
#287 = CIRCLE ( 'NONE', #36, 2.000000000000000000 ) ;
#288 = CARTESIAN_POINT ( 'NONE',  ( 2.000000000000000000, 2.449293598294706414E-16, 403.0000000000000000 ) ) ;
#289 = CARTESIAN_POINT ( 'NONE',  ( 0.000000000000000000, 0.000000000000000000, 3.000000000000000000 ) ) ;
#290 = CLOSED_SHELL ( 'NONE', ( #39, #45, #293, #18, #128, #26, #72, #270, #103 ) ) ;
#291 =( NAMED_UNIT ( * ) SI_UNIT ( $, .STERADIAN. ) SOLID_ANGLE_UNIT ( ) );
#292 = ORIENTED_EDGE ( 'NONE', *, *, #216, .T. ) ;
#293 = ADVANCED_FACE ( 'NONE', ( #172 ), #194, .T. ) ;
#294 = ORIENTED_EDGE ( 'NONE', *, *, #107, .T. ) ;
#295 = ORIENTED_EDGE ( 'NONE', *, *, #305, .T. ) ;
#296 = CC_DESIGN_PERSON_AND_ORGANIZATION_ASSIGNMENT ( #140, #113, ( #233 ) ) ;
#297 = ORIENTED_EDGE ( 'NONE', *, *, #189, .T. ) ;
#298 = APPROVAL_ROLE ( '' ) ;
#299 = DIRECTION ( 'NONE',  ( 0.000000000000000000, 0.000000000000000000, 1.000000000000000000 ) ) ;
#300 = CARTESIAN_POINT ( 'NONE',  ( 0.000000000000000000, 0.000000000000000000, 403.0000000000000000 ) ) ;
#301 = PERSON_AND_ORGANIZATION_ROLE ( 'classification_officer' ) ;
#302 = CIRCLE ( 'NONE', #76, 2.000000000000000000 ) ;
#303 = LINE ( 'NONE', #263, #15 ) ;
#304 = APPROVAL_STATUS ( 'not_yet_approved' ) ;
#305 = EDGE_CURVE ( 'NONE', #175, #276, #252, .T. ) ;
#306 = CARTESIAN_POINT ( 'NONE',  ( -4.000000000000000000, 0.000000000000000000, 3.000000000000000000 ) ) ;
#307 = DIRECTION ( 'NONE',  ( 0.000000000000000000, 0.000000000000000000, -1.000000000000000000 ) ) ;
ENDSEC;
END-ISO-10303-21;
