ISO-10303-21;
HEADER;
FILE_DESCRIPTION (( 'STEP AP203' ),
    '1' );
FILE_NAME ('4d06.STEP',
    '2022-06-20T10:10:48',
    ( '' ),
    ( '' ),
    'SwSTEP 2.0',
    'SolidWorks 2019',
    '' );
FILE_SCHEMA (( 'CONFIG_CONTROL_DESIGN' ));
ENDSEC;

DATA;
#1 = DIRECTION ( 'NONE',  ( 0.000000000000000000, 0.000000000000000000, 1.000000000000000000 ) ) ;
#2 = CIRCLE ( 'NONE', #90, 1.750000000000000000 ) ;
#3 = ORIENTED_EDGE ( 'NONE', *, *, #77, .F. ) ;
#4 = DIRECTION ( 'NONE',  ( 0.000000000000000000, 0.000000000000000000, 1.000000000000000000 ) ) ;
#5 = PERSON_AND_ORGANIZATION_ROLE ( 'design_owner' ) ;
#6 = CARTESIAN_POINT ( 'NONE',  ( -3.500000000000000444, 0.000000000000000000, 3.000000000000000000 ) ) ;
#7 = UNCERTAINTY_MEASURE_WITH_UNIT (LENGTH_MEASURE( 1.000000000000000082E-05 ), #290, 'distance_accuracy_value', 'NONE');
#8 = CALENDAR_DATE ( 2022, 20, 6 ) ;
#9 = CC_DESIGN_APPROVAL ( #36, ( #247 ) ) ;
#10 = CC_DESIGN_PERSON_AND_ORGANIZATION_ASSIGNMENT ( #12, #175, ( #247 ) ) ;
#11 = MECHANICAL_CONTEXT ( 'NONE', #164, 'mechanical' ) ;
#12 = PERSON_AND_ORGANIZATION ( #35, #153 ) ;
#13 = FACE_OUTER_BOUND ( 'NONE', #158, .T. ) ;
#14 = TOROIDAL_SURFACE ( 'NONE', #103, 1.950000000000000178, 0.2000000000000000111 ) ;
#15 = FACE_BOUND ( 'NONE', #26, .T. ) ;
#16 = EDGE_LOOP ( 'NONE', ( #275, #155 ) ) ;
#17 = AXIS2_PLACEMENT_3D ( 'NONE', #207, #306, #130 ) ;
#18 = DIRECTION ( 'NONE',  ( 0.000000000000000000, 0.000000000000000000, 1.000000000000000000 ) ) ;
#19 = CARTESIAN_POINT ( 'NONE',  ( 0.000000000000000000, 0.000000000000000000, 3.000000000000000000 ) ) ;
#20 = ADVANCED_BREP_SHAPE_REPRESENTATION ( '4d06', ( #125, #167 ), #292 ) ;
#21 = PRODUCT ( '4d06', '4d06', '', ( #11 ) ) ;
#22 = AXIS2_PLACEMENT_3D ( 'NONE', #230, #45, #253 ) ;
#23 = ORIENTED_EDGE ( 'NONE', *, *, #43, .T. ) ;
#24 = ORIENTED_EDGE ( 'NONE', *, *, #272, .F. ) ;
#25 = CARTESIAN_POINT ( 'NONE',  ( -1.950000000000000178, 2.388061258337339136E-16, 3.199999999999980638 ) ) ;
#26 = EDGE_LOOP ( 'NONE', ( #59, #265 ) ) ;
#27 = VECTOR ( 'NONE', #226, 1000.000000000000000 ) ;
#28 = DATE_TIME_ROLE ( 'creation_date' ) ;
#29 = DIRECTION ( 'NONE',  ( 1.000000000000000000, 0.000000000000000000, 0.000000000000000000 ) ) ;
#30 = CARTESIAN_POINT ( 'NONE',  ( 0.000000000000000000, 0.000000000000000000, 0.000000000000000000 ) ) ;
#31 = DIRECTION ( 'NONE',  ( -0.000000000000000000, -0.000000000000000000, -1.000000000000000000 ) ) ;
#32 = DESIGN_CONTEXT ( 'detailed design', #179, 'design' ) ;
#33 = PRODUCT_DEFINITION_FORMATION_WITH_SPECIFIED_SOURCE ( 'LIBOVOLNÝ', '', #21, .NOT_KNOWN. ) ;
#34 = APPROVAL_STATUS ( 'not_yet_approved' ) ;
#35 = PERSON ( 'NEURÈENÝ', 'NEURÈENÝ', 'NEURÈENÝ', ('NEURÈENÝ'), ('NEURÈENÝ'), ('NEURÈENÝ') ) ;
#36 = APPROVAL ( #34, 'NEURÈENÝ' ) ;
#37 = CARTESIAN_POINT ( 'NONE',  ( 1.750000000000000000, 2.143131898507868297E-16, 503.0000000000000000 ) ) ;
#38 = CIRCLE ( 'NONE', #136, 3.500000000000000444 ) ;
#39 = VERTEX_POINT ( 'NONE', #117 ) ;
#40 = CARTESIAN_POINT ( 'NONE',  ( 0.000000000000000000, 0.000000000000000000, 3.000000000000000000 ) ) ;
#41 = PERSON_AND_ORGANIZATION ( #35, #153 ) ;
#42 = CARTESIAN_POINT ( 'NONE',  ( 0.000000000000000000, 0.000000000000000000, 503.0000000000000000 ) ) ;
#43 = EDGE_CURVE ( 'NONE', #110, #138, #239, .T. ) ;
#44 = AXIS2_PLACEMENT_3D ( 'NONE', #298, #123, #243 ) ;
#45 = DIRECTION ( 'NONE',  ( -0.000000000000000000, -0.000000000000000000, -1.000000000000000000 ) ) ;
#46 = ORIENTED_EDGE ( 'NONE', *, *, #159, .F. ) ;
#47 = EDGE_LOOP ( 'NONE', ( #131, #213, #210, #49 ) ) ;
#48 = CARTESIAN_POINT ( 'NONE',  ( 0.000000000000000000, 0.000000000000000000, 3.199999999999980638 ) ) ;
#49 = ORIENTED_EDGE ( 'NONE', *, *, #126, .F. ) ;
#50 = APPROVAL ( #271, 'NEURÈENÝ' ) ;
#51 = VECTOR ( 'NONE', #87, 1000.000000000000000 ) ;
#52 = VERTEX_POINT ( 'NONE', #197 ) ;
#53 = FACE_OUTER_BOUND ( 'NONE', #180, .T. ) ;
#54 = DIRECTION ( 'NONE',  ( 0.000000000000000000, 0.000000000000000000, 1.000000000000000000 ) ) ;
#55 = AXIS2_PLACEMENT_3D ( 'NONE', #95, #305, #250 ) ;
#56 = EDGE_CURVE ( 'NONE', #217, #137, #75, .T. ) ;
#57 = DIRECTION ( 'NONE',  ( 0.000000000000000000, 0.000000000000000000, 1.000000000000000000 ) ) ;
#58 = CIRCLE ( 'NONE', #223, 3.500000000000000444 ) ;
#59 = ORIENTED_EDGE ( 'NONE', *, *, #272, .T. ) ;
#60 = CARTESIAN_POINT ( 'NONE',  ( 0.000000000000000000, 0.000000000000000000, 0.000000000000000000 ) ) ;
#61 = ADVANCED_FACE ( 'NONE', ( #224 ), #205, .T. ) ;
#62 = DATE_TIME_ROLE ( 'classification_date' ) ;
#63 = CARTESIAN_POINT ( 'NONE',  ( -1.750000000000000000, 0.000000000000000000, 503.0000000000000000 ) ) ;
#64 = CIRCLE ( 'NONE', #17, 1.750000000000000000 ) ;
#65 = CARTESIAN_POINT ( 'NONE',  ( -1.750000000000000000, 0.000000000000000000, 3.199999999999980638 ) ) ;
#66 = DIRECTION ( 'NONE',  ( 1.000000000000000000, 0.000000000000000000, 0.000000000000000000 ) ) ;
#67 = ORIENTED_EDGE ( 'NONE', *, *, #43, .F. ) ;
#68 = LOCAL_TIME ( 12, 10, 48.00000000000000000, #82 ) ;
#69 = FACE_OUTER_BOUND ( 'NONE', #16, .T. ) ;
#70 = ORIENTED_EDGE ( 'NONE', *, *, #77, .T. ) ;
#71 = EDGE_CURVE ( 'NONE', #52, #110, #135, .T. ) ;
#72 = DIRECTION ( 'NONE',  ( 1.000000000000000000, 0.000000000000000000, 0.000000000000000000 ) ) ;
#73 = ORIENTED_EDGE ( 'NONE', *, *, #262, .T. ) ;
#74 = PERSON_AND_ORGANIZATION ( #35, #153 ) ;
#75 = CIRCLE ( 'NONE', #150, 0.1999999999999998723 ) ;
#76 = CIRCLE ( 'NONE', #270, 3.500000000000000444 ) ;
#77 = EDGE_CURVE ( 'NONE', #91, #39, #231, .T. ) ;
#78 = PERSON_AND_ORGANIZATION ( #35, #153 ) ;
#79 =( NAMED_UNIT ( * ) PLANE_ANGLE_UNIT ( ) SI_UNIT ( $, .RADIAN. ) );
#80 = DATE_AND_TIME ( #173, #182 ) ;
#81 = CIRCLE ( 'NONE', #236, 1.950000000000000178 ) ;
#82 = COORDINATED_UNIVERSAL_TIME_OFFSET ( 1, 0, .AHEAD. ) ;
#83 = CC_DESIGN_DATE_AND_TIME_ASSIGNMENT ( #229, #62, ( #133 ) ) ;
#84 = DIRECTION ( 'NONE',  ( 1.000000000000000000, 0.000000000000000000, 0.000000000000000000 ) ) ;
#85 = CALENDAR_DATE ( 2022, 20, 6 ) ;
#86 = VECTOR ( 'NONE', #233, 1000.000000000000000 ) ;
#87 = DIRECTION ( 'NONE',  ( -0.000000000000000000, -0.000000000000000000, -1.000000000000000000 ) ) ;
#88 = ORIENTED_EDGE ( 'NONE', *, *, #101, .T. ) ;
#89 = EDGE_CURVE ( 'NONE', #137, #39, #199, .T. ) ;
#90 = AXIS2_PLACEMENT_3D ( 'NONE', #154, #57, #282 ) ;
#91 = VERTEX_POINT ( 'NONE', #295 ) ;
#92 = CARTESIAN_POINT ( 'NONE',  ( 0.000000000000000000, 0.000000000000000000, 503.0000000000000000 ) ) ;
#93 = EDGE_LOOP ( 'NONE', ( #242, #141 ) ) ;
#94 = APPROVAL_ROLE ( '' ) ;
#95 = CARTESIAN_POINT ( 'NONE',  ( 0.000000000000000000, 0.000000000000000000, 3.000000000000000000 ) ) ;
#96 = CC_DESIGN_PERSON_AND_ORGANIZATION_ASSIGNMENT ( #277, #156, ( #133 ) ) ;
#97 = APPROVAL_DATE_TIME ( #127, #36 ) ;
#98 = AXIS2_PLACEMENT_3D ( 'NONE', #294, #119, #142 ) ;
#99 = CARTESIAN_POINT ( 'NONE',  ( 0.000000000000000000, 0.000000000000000000, 3.000000000000000000 ) ) ;
#100 = DATE_AND_TIME ( #169, #152 ) ;
#101 = EDGE_CURVE ( 'NONE', #52, #186, #273, .T. ) ;
#102 = PERSON_AND_ORGANIZATION ( #35, #153 ) ;
#103 = AXIS2_PLACEMENT_3D ( 'NONE', #48, #286, #118 ) ;
#104 = SHAPE_DEFINITION_REPRESENTATION ( #279, #20 ) ;
#105 = FACE_OUTER_BOUND ( 'NONE', #93, .T. ) ;
#106 = PRODUCT_RELATED_PRODUCT_CATEGORY ( 'detail', '', ( #21 ) ) ;
#107 = PLANE ( 'NONE',  #163 ) ;
#108 = LOCAL_TIME ( 12, 10, 48.00000000000000000, #208 ) ;
#109 = PERSON_AND_ORGANIZATION ( #35, #153 ) ;
#110 = VERTEX_POINT ( 'NONE', #6 ) ;
#111 = ADVANCED_FACE ( 'NONE', ( #13 ), #221, .T. ) ;
#112 = CARTESIAN_POINT ( 'NONE',  ( 1.750000000000000000, 2.143131898507868297E-16, 503.0000000000000000 ) ) ;
#113 = EDGE_CURVE ( 'NONE', #91, #217, #2, .T. ) ;
#114 = ORIENTED_EDGE ( 'NONE', *, *, #300, .F. ) ;
#115 = CLOSED_SHELL ( 'NONE', ( #249, #225, #111, #61, #176, #284, #171, #266, #259 ) ) ;
#116 = CARTESIAN_POINT ( 'NONE',  ( 0.000000000000000000, 0.000000000000000000, 3.199999999999980638 ) ) ;
#117 = CARTESIAN_POINT ( 'NONE',  ( 1.950000000000000178, 0.000000000000000000, 2.999999999999990674 ) ) ;
#118 = DIRECTION ( 'NONE',  ( 1.000000000000000000, 0.000000000000000000, 0.000000000000000000 ) ) ;
#119 = DIRECTION ( 'NONE',  ( 0.000000000000000000, 0.000000000000000000, 1.000000000000000000 ) ) ;
#120 = CARTESIAN_POINT ( 'NONE',  ( 1.950000000000000178, 0.000000000000000000, 3.199999999999980638 ) ) ;
#121 =( NAMED_UNIT ( * ) SI_UNIT ( $, .STERADIAN. ) SOLID_ANGLE_UNIT ( ) );
#122 = APPROVAL_PERSON_ORGANIZATION ( #74, #36, #94 ) ;
#123 = DIRECTION ( 'NONE',  ( -0.000000000000000000, -0.000000000000000000, -1.000000000000000000 ) ) ;
#124 = DIRECTION ( 'NONE',  ( 1.000000000000000000, 0.000000000000000000, 0.000000000000000000 ) ) ;
#125 = MANIFOLD_SOLID_BREP ( 'Zaoblit1', #115 ) ;
#126 = EDGE_CURVE ( 'NONE', #195, #217, #189, .T. ) ;
#127 = DATE_AND_TIME ( #8, #291 ) ;
#128 = APPROVAL_ROLE ( '' ) ;
#129 = TOROIDAL_SURFACE ( 'NONE', #204, 1.950000000000000178, 0.2000000000000000111 ) ;
#130 = DIRECTION ( 'NONE',  ( 1.000000000000000000, 0.000000000000000000, 0.000000000000000000 ) ) ;
#131 = ORIENTED_EDGE ( 'NONE', *, *, #188, .F. ) ;
#132 = CYLINDRICAL_SURFACE ( 'NONE', #22, 1.750000000000000000 ) ;
#133 = SECURITY_CLASSIFICATION ( '', '', #304 ) ;
#134 = DIRECTION ( 'NONE',  ( 1.000000000000000000, 0.000000000000000000, -0.000000000000000000 ) ) ;
#135 = CIRCLE ( 'NONE', #303, 3.500000000000000444 ) ;
#136 = AXIS2_PLACEMENT_3D ( 'NONE', #60, #151, #256 ) ;
#137 = VERTEX_POINT ( 'NONE', #161 ) ;
#138 = VERTEX_POINT ( 'NONE', #181 ) ;
#139 = DIRECTION ( 'NONE',  ( -1.000000000000000000, 0.000000000000000000, 0.000000000000000000 ) ) ;
#140 = ORIENTED_EDGE ( 'NONE', *, *, #296, .F. ) ;
#141 = ORIENTED_EDGE ( 'NONE', *, *, #71, .T. ) ;
#142 = DIRECTION ( 'NONE',  ( 1.000000000000000000, 0.000000000000000000, 0.000000000000000000 ) ) ;
#143 = CC_DESIGN_APPROVAL ( #301, ( #133 ) ) ;
#144 = CARTESIAN_POINT ( 'NONE',  ( 0.000000000000000000, 0.000000000000000000, 3.000000000000000000 ) ) ;
#145 = DIRECTION ( 'NONE',  ( 0.000000000000000000, 0.000000000000000000, 1.000000000000000000 ) ) ;
#146 = CARTESIAN_POINT ( 'NONE',  ( 3.500000000000000444, 4.286263797015737088E-16, 3.000000000000000000 ) ) ;
#147 = DIRECTION ( 'NONE',  ( -0.000000000000000000, -0.000000000000000000, -1.000000000000000000 ) ) ;
#148 = DATE_AND_TIME ( #85, #108 ) ;
#149 = CC_DESIGN_DATE_AND_TIME_ASSIGNMENT ( #80, #28, ( #247 ) ) ;
#150 = AXIS2_PLACEMENT_3D ( 'NONE', #25, #289, #178 ) ;
#151 = DIRECTION ( 'NONE',  ( 0.000000000000000000, 0.000000000000000000, 1.000000000000000000 ) ) ;
#152 = LOCAL_TIME ( 12, 10, 48.00000000000000000, #174 ) ;
#153 = ORGANIZATION ( 'NEURÈENÝ', 'NEURÈENÝ', '' ) ;
#154 = CARTESIAN_POINT ( 'NONE',  ( 0.000000000000000000, 0.000000000000000000, 3.199999999999980638 ) ) ;
#155 = ORIENTED_EDGE ( 'NONE', *, *, #188, .T. ) ;
#156 = PERSON_AND_ORGANIZATION_ROLE ( 'classification_officer' ) ;
#157 = CYLINDRICAL_SURFACE ( 'NONE', #241, 1.750000000000000000 ) ;
#158 = EDGE_LOOP ( 'NONE', ( #254, #88, #73, #67 ) ) ;
#159 = EDGE_CURVE ( 'NONE', #138, #186, #38, .T. ) ;
#160 = PERSON_AND_ORGANIZATION_ROLE ( 'creator' ) ;
#161 = CARTESIAN_POINT ( 'NONE',  ( -1.950000000000000178, 2.388061258337339136E-16, 2.999999999999990674 ) ) ;
#162 = ORIENTED_EDGE ( 'NONE', *, *, #113, .F. ) ;
#163 = AXIS2_PLACEMENT_3D ( 'NONE', #40, #18, #134 ) ;
#164 = APPLICATION_CONTEXT ( 'configuration controlled 3d designs of mechanical parts and assemblies' ) ;
#165 = CARTESIAN_POINT ( 'NONE',  ( -3.500000000000000444, 0.000000000000000000, 3.000000000000000000 ) ) ;
#166 = CC_DESIGN_PERSON_AND_ORGANIZATION_ASSIGNMENT ( #187, #160, ( #33 ) ) ;
#167 = AXIS2_PLACEMENT_3D ( 'NONE', #177, #54, #219 ) ;
#168 = PLANE ( 'NONE',  #172 ) ;
#169 = CALENDAR_DATE ( 2022, 20, 6 ) ;
#170 = ORIENTED_EDGE ( 'NONE', *, *, #218, .F. ) ;
#171 = ADVANCED_FACE ( 'NONE', ( #227 ), #132, .T. ) ;
#172 = AXIS2_PLACEMENT_3D ( 'NONE', #92, #198, #260 ) ;
#173 = CALENDAR_DATE ( 2022, 20, 6 ) ;
#174 = COORDINATED_UNIVERSAL_TIME_OFFSET ( 1, 0, .AHEAD. ) ;
#175 = PERSON_AND_ORGANIZATION_ROLE ( 'creator' ) ;
#176 = ADVANCED_FACE ( 'NONE', ( #15, #105 ), #107, .T. ) ;
#177 = CARTESIAN_POINT ( 'NONE',  ( 0.000000000000000000, 0.000000000000000000, 0.000000000000000000 ) ) ;
#178 = DIRECTION ( 'NONE',  ( -1.000000000000000000, 1.224646799147354686E-16, 0.000000000000000000 ) ) ;
#179 = APPLICATION_CONTEXT ( 'configuration controlled 3d designs of mechanical parts and assemblies' ) ;
#180 = EDGE_LOOP ( 'NONE', ( #46, #237 ) ) ;
#181 = CARTESIAN_POINT ( 'NONE',  ( -3.500000000000000444, 0.000000000000000000, 0.000000000000000000 ) ) ;
#182 = LOCAL_TIME ( 12, 10, 48.00000000000000000, #200 ) ;
#183 = VERTEX_POINT ( 'NONE', #112 ) ;
#184 = CALENDAR_DATE ( 2022, 20, 6 ) ;
#185 = FACE_OUTER_BOUND ( 'NONE', #47, .T. ) ;
#186 = VERTEX_POINT ( 'NONE', #252 ) ;
#187 = PERSON_AND_ORGANIZATION ( #35, #153 ) ;
#188 = EDGE_CURVE ( 'NONE', #183, #195, #64, .T. ) ;
#189 = LINE ( 'NONE', #63, #86 ) ;
#190 = EDGE_LOOP ( 'NONE', ( #170, #140, #264, #258 ) ) ;
#191 = CARTESIAN_POINT ( 'NONE',  ( -1.750000000000000000, 0.000000000000000000, 503.0000000000000000 ) ) ;
#192 = ORIENTED_EDGE ( 'NONE', *, *, #89, .F. ) ;
#193 = APPROVAL_PERSON_ORGANIZATION ( #78, #50, #203 ) ;
#194 = DIRECTION ( 'NONE',  ( -0.000000000000000000, -0.000000000000000000, -1.000000000000000000 ) ) ;
#195 = VERTEX_POINT ( 'NONE', #191 ) ;
#196 = AXIS2_PLACEMENT_3D ( 'NONE', #144, #147, #246 ) ;
#197 = CARTESIAN_POINT ( 'NONE',  ( 3.500000000000000444, 4.286263797015737088E-16, 3.000000000000000000 ) ) ;
#198 = DIRECTION ( 'NONE',  ( 0.000000000000000000, 0.000000000000000000, 1.000000000000000000 ) ) ;
#199 = CIRCLE ( 'NONE', #44, 1.950000000000000178 ) ;
#200 = COORDINATED_UNIVERSAL_TIME_OFFSET ( 1, 0, .AHEAD. ) ;
#201 = APPROVAL_DATE_TIME ( #100, #50 ) ;
#202 = COORDINATED_UNIVERSAL_TIME_OFFSET ( 1, 0, .AHEAD. ) ;
#203 = APPROVAL_ROLE ( '' ) ;
#204 = AXIS2_PLACEMENT_3D ( 'NONE', #116, #1, #240 ) ;
#205 = CYLINDRICAL_SURFACE ( 'NONE', #196, 3.500000000000000444 ) ;
#206 = CARTESIAN_POINT ( 'NONE',  ( 0.000000000000000000, 0.000000000000000000, 3.000000000000000000 ) ) ;
#207 = CARTESIAN_POINT ( 'NONE',  ( 0.000000000000000000, 0.000000000000000000, 503.0000000000000000 ) ) ;
#208 = COORDINATED_UNIVERSAL_TIME_OFFSET ( 1, 0, .AHEAD. ) ;
#209 = CC_DESIGN_APPROVAL ( #50, ( #33 ) ) ;
#210 = ORIENTED_EDGE ( 'NONE', *, *, #113, .T. ) ;
#211 = ORIENTED_EDGE ( 'NONE', *, *, #101, .F. ) ;
#212 = DIRECTION ( 'NONE',  ( -0.000000000000000000, -0.000000000000000000, -1.000000000000000000 ) ) ;
#213 = ORIENTED_EDGE ( 'NONE', *, *, #218, .T. ) ;
#214 = AXIS2_PLACEMENT_3D ( 'NONE', #30, #145, #267 ) ;
#215 = FACE_OUTER_BOUND ( 'NONE', #263, .T. ) ;
#216 = EDGE_LOOP ( 'NONE', ( #114, #287, #24, #3 ) ) ;
#217 = VERTEX_POINT ( 'NONE', #65 ) ;
#218 = EDGE_CURVE ( 'NONE', #183, #91, #228, .T. ) ;
#219 = DIRECTION ( 'NONE',  ( 1.000000000000000000, 0.000000000000000000, 0.000000000000000000 ) ) ;
#220 = APPLICATION_PROTOCOL_DEFINITION ( 'international standard', 'config_control_design', 1994, #179 ) ;
#221 = CYLINDRICAL_SURFACE ( 'NONE', #55, 3.500000000000000444 ) ;
#222 = EDGE_CURVE ( 'NONE', #110, #52, #58, .T. ) ;
#223 = AXIS2_PLACEMENT_3D ( 'NONE', #206, #302, #84 ) ;
#224 = FACE_OUTER_BOUND ( 'NONE', #307, .T. ) ;
#225 = ADVANCED_FACE ( 'NONE', ( #185 ), #157, .T. ) ;
#226 = DIRECTION ( 'NONE',  ( -0.000000000000000000, -0.000000000000000000, -1.000000000000000000 ) ) ;
#227 = FACE_OUTER_BOUND ( 'NONE', #190, .T. ) ;
#228 = LINE ( 'NONE', #37, #27 ) ;
#229 = DATE_AND_TIME ( #184, #68 ) ;
#230 = CARTESIAN_POINT ( 'NONE',  ( 0.000000000000000000, 0.000000000000000000, 503.0000000000000000 ) ) ;
#231 = CIRCLE ( 'NONE', #288, 0.2000000000000000944 ) ;
#232 = APPROVAL_STATUS ( 'not_yet_approved' ) ;
#233 = DIRECTION ( 'NONE',  ( -0.000000000000000000, -0.000000000000000000, -1.000000000000000000 ) ) ;
#234 = CC_DESIGN_PERSON_AND_ORGANIZATION_ASSIGNMENT ( #109, #281, ( #33 ) ) ;
#235 = CARTESIAN_POINT ( 'NONE',  ( 0.000000000000000000, 0.000000000000000000, 0.000000000000000000 ) ) ;
#236 = AXIS2_PLACEMENT_3D ( 'NONE', #19, #194, #124 ) ;
#237 = ORIENTED_EDGE ( 'NONE', *, *, #262, .F. ) ;
#238 = CC_DESIGN_PERSON_AND_ORGANIZATION_ASSIGNMENT ( #102, #5, ( #21 ) ) ;
#239 = LINE ( 'NONE', #165, #51 ) ;
#240 = DIRECTION ( 'NONE',  ( 1.000000000000000000, 0.000000000000000000, 0.000000000000000000 ) ) ;
#241 = AXIS2_PLACEMENT_3D ( 'NONE', #42, #212, #139 ) ;
#242 = ORIENTED_EDGE ( 'NONE', *, *, #222, .T. ) ;
#243 = DIRECTION ( 'NONE',  ( 1.000000000000000000, 0.000000000000000000, 0.000000000000000000 ) ) ;
#244 = DIRECTION ( 'NONE',  ( 0.000000000000000000, 0.000000000000000000, 1.000000000000000000 ) ) ;
#245 = APPROVAL_PERSON_ORGANIZATION ( #41, #301, #128 ) ;
#246 = DIRECTION ( 'NONE',  ( -1.000000000000000000, 0.000000000000000000, 0.000000000000000000 ) ) ;
#247 = PRODUCT_DEFINITION ( 'NEZNÁMÝ', '', #33, #32 ) ;
#248 = PLANE ( 'NONE',  #214 ) ;
#249 = ADVANCED_FACE ( 'NONE', ( #261 ), #129, .F. ) ;
#250 = DIRECTION ( 'NONE',  ( -1.000000000000000000, 0.000000000000000000, 0.000000000000000000 ) ) ;
#251 = CIRCLE ( 'NONE', #98, 1.750000000000000000 ) ;
#252 = CARTESIAN_POINT ( 'NONE',  ( 3.500000000000000444, 4.286263797015737088E-16, 0.000000000000000000 ) ) ;
#253 = DIRECTION ( 'NONE',  ( -1.000000000000000000, 0.000000000000000000, 0.000000000000000000 ) ) ;
#254 = ORIENTED_EDGE ( 'NONE', *, *, #71, .F. ) ;
#255 = APPROVAL_DATE_TIME ( #148, #301 ) ;
#256 = DIRECTION ( 'NONE',  ( 1.000000000000000000, 0.000000000000000000, 0.000000000000000000 ) ) ;
#257 = CC_DESIGN_SECURITY_CLASSIFICATION ( #133, ( #33 ) ) ;
#258 = ORIENTED_EDGE ( 'NONE', *, *, #300, .T. ) ;
#259 = ADVANCED_FACE ( 'NONE', ( #215 ), #14, .F. ) ;
#260 = DIRECTION ( 'NONE',  ( 1.000000000000000000, 0.000000000000000000, -0.000000000000000000 ) ) ;
#261 = FACE_OUTER_BOUND ( 'NONE', #216, .T. ) ;
#262 = EDGE_CURVE ( 'NONE', #186, #138, #76, .T. ) ;
#263 = EDGE_LOOP ( 'NONE', ( #280, #162, #70, #192 ) ) ;
#264 = ORIENTED_EDGE ( 'NONE', *, *, #126, .T. ) ;
#265 = ORIENTED_EDGE ( 'NONE', *, *, #89, .T. ) ;
#266 = ADVANCED_FACE ( 'NONE', ( #69 ), #168, .T. ) ;
#267 = DIRECTION ( 'NONE',  ( 1.000000000000000000, 0.000000000000000000, -0.000000000000000000 ) ) ;
#268 = DIRECTION ( 'NONE',  ( 0.000000000000000000, 0.000000000000000000, -1.000000000000000000 ) ) ;
#269 = APPLICATION_PROTOCOL_DEFINITION ( 'international standard', 'config_control_design', 1994, #164 ) ;
#270 = AXIS2_PLACEMENT_3D ( 'NONE', #235, #4, #66 ) ;
#271 = APPROVAL_STATUS ( 'not_yet_approved' ) ;
#272 = EDGE_CURVE ( 'NONE', #39, #137, #81, .T. ) ;
#273 = LINE ( 'NONE', #146, #299 ) ;
#274 = DIRECTION ( 'NONE',  ( 0.000000000000000000, 0.000000000000000000, 1.000000000000000000 ) ) ;
#275 = ORIENTED_EDGE ( 'NONE', *, *, #296, .T. ) ;
#276 = AXIS2_PLACEMENT_3D ( 'NONE', #297, #244, #72 ) ;
#277 = PERSON_AND_ORGANIZATION ( #35, #153 ) ;
#278 = ORIENTED_EDGE ( 'NONE', *, *, #222, .F. ) ;
#279 = PRODUCT_DEFINITION_SHAPE ( 'NONE', 'NONE',  #247 ) ;
#280 = ORIENTED_EDGE ( 'NONE', *, *, #56, .F. ) ;
#281 = PERSON_AND_ORGANIZATION_ROLE ( 'design_supplier' ) ;
#282 = DIRECTION ( 'NONE',  ( 1.000000000000000000, 0.000000000000000000, 0.000000000000000000 ) ) ;
#283 = CIRCLE ( 'NONE', #276, 1.750000000000000000 ) ;
#284 = ADVANCED_FACE ( 'NONE', ( #53 ), #248, .F. ) ;
#285 = ORIENTED_EDGE ( 'NONE', *, *, #159, .T. ) ;
#286 = DIRECTION ( 'NONE',  ( 0.000000000000000000, 0.000000000000000000, 1.000000000000000000 ) ) ;
#287 = ORIENTED_EDGE ( 'NONE', *, *, #56, .T. ) ;
#288 = AXIS2_PLACEMENT_3D ( 'NONE', #120, #293, #268 ) ;
#289 = DIRECTION ( 'NONE',  ( 1.224646799147353207E-16, 1.000000000000000000, -0.000000000000000000 ) ) ;
#290 =( LENGTH_UNIT ( ) NAMED_UNIT ( * ) SI_UNIT ( .MILLI., .METRE. ) );
#291 = LOCAL_TIME ( 12, 10, 48.00000000000000000, #202 ) ;
#292 =( GEOMETRIC_REPRESENTATION_CONTEXT ( 3 ) GLOBAL_UNCERTAINTY_ASSIGNED_CONTEXT ( ( #7 ) ) GLOBAL_UNIT_ASSIGNED_CONTEXT ( ( #290, #79, #121 ) ) REPRESENTATION_CONTEXT ( 'NONE', 'WORKASPACE' ) );
#293 = DIRECTION ( 'NONE',  ( 0.000000000000000000, -1.000000000000000000, 0.000000000000000000 ) ) ;
#294 = CARTESIAN_POINT ( 'NONE',  ( 0.000000000000000000, 0.000000000000000000, 503.0000000000000000 ) ) ;
#295 = CARTESIAN_POINT ( 'NONE',  ( 1.750000000000000000, 2.143131898507868297E-16, 3.199999999999980638 ) ) ;
#296 = EDGE_CURVE ( 'NONE', #195, #183, #251, .T. ) ;
#297 = CARTESIAN_POINT ( 'NONE',  ( 0.000000000000000000, 0.000000000000000000, 3.199999999999980638 ) ) ;
#298 = CARTESIAN_POINT ( 'NONE',  ( 0.000000000000000000, 0.000000000000000000, 3.000000000000000000 ) ) ;
#299 = VECTOR ( 'NONE', #31, 1000.000000000000000 ) ;
#300 = EDGE_CURVE ( 'NONE', #217, #91, #283, .T. ) ;
#301 = APPROVAL ( #232, 'NEURÈENÝ' ) ;
#302 = DIRECTION ( 'NONE',  ( 0.000000000000000000, 0.000000000000000000, 1.000000000000000000 ) ) ;
#303 = AXIS2_PLACEMENT_3D ( 'NONE', #99, #274, #29 ) ;
#304 = SECURITY_CLASSIFICATION_LEVEL ( 'unclassified' ) ;
#305 = DIRECTION ( 'NONE',  ( -0.000000000000000000, -0.000000000000000000, -1.000000000000000000 ) ) ;
#306 = DIRECTION ( 'NONE',  ( 0.000000000000000000, 0.000000000000000000, 1.000000000000000000 ) ) ;
#307 = EDGE_LOOP ( 'NONE', ( #211, #278, #23, #285 ) ) ;
ENDSEC;
END-ISO-10303-21;
