ISO-10303-21;
HEADER;
FILE_DESCRIPTION (( 'STEP AP203' ),
    '1' );
FILE_NAME ('02be.STEP',
    '2022-06-20T09:42:57',
    ( '' ),
    ( '' ),
    'SwSTEP 2.0',
    'SolidWorks 2019',
    '' );
FILE_SCHEMA (( 'CONFIG_CONTROL_DESIGN' ));
ENDSEC;

DATA;
#1 = CARTESIAN_POINT ( 'NONE',  ( 0.000000000000000000, 0.000000000000000000, 0.000000000000000000 ) ) ;
#2 = CARTESIAN_POINT ( 'NONE',  ( -4.700000000000000178, 5.755839955992559655E-16, 4.999999999999991118 ) ) ;
#3 = CC_DESIGN_APPROVAL ( #101, ( #53 ) ) ;
#4 = CIRCLE ( 'NONE', #38, 7.000000000000000000 ) ;
#5 = FACE_OUTER_BOUND ( 'NONE', #202, .T. ) ;
#6 = CARTESIAN_POINT ( 'NONE',  ( 0.000000000000000000, 0.000000000000000000, 505.0000000000000000 ) ) ;
#7 = APPROVAL ( #293, 'NEURÈENÝ' ) ;
#8 = PERSON_AND_ORGANIZATION ( #294, #145 ) ;
#9 = DIRECTION ( 'NONE',  ( 1.000000000000000000, 0.000000000000000000, 0.000000000000000000 ) ) ;
#10 = SECURITY_CLASSIFICATION_LEVEL ( 'unclassified' ) ;
#11 = DESIGN_CONTEXT ( 'detailed design', #239, 'design' ) ;
#12 = PERSON_AND_ORGANIZATION ( #294, #145 ) ;
#13 = CC_DESIGN_APPROVAL ( #110, ( #297 ) ) ;
#14 = CIRCLE ( 'NONE', #167, 4.500000000000000888 ) ;
#15 = SHAPE_DEFINITION_REPRESENTATION ( #273, #222 ) ;
#16 = CARTESIAN_POINT ( 'NONE',  ( 0.000000000000000000, 0.000000000000000000, 5.199999999999982414 ) ) ;
#17 = FACE_OUTER_BOUND ( 'NONE', #33, .T. ) ;
#18 = AXIS2_PLACEMENT_3D ( 'NONE', #257, #117, #232 ) ;
#19 = VERTEX_POINT ( 'NONE', #115 ) ;
#20 = CARTESIAN_POINT ( 'NONE',  ( 0.000000000000000000, 0.000000000000000000, 5.000000000000000000 ) ) ;
#21 = CARTESIAN_POINT ( 'NONE',  ( 7.000000000000000000, 8.572527594031473190E-16, 5.000000000000000000 ) ) ;
#22 = AXIS2_PLACEMENT_3D ( 'NONE', #128, #34, #9 ) ;
#23 = VECTOR ( 'NONE', #27, 1000.000000000000000 ) ;
#24 = DIRECTION ( 'NONE',  ( -0.000000000000000000, -0.000000000000000000, -1.000000000000000000 ) ) ;
#25 = DIRECTION ( 'NONE',  ( 1.000000000000000000, 0.000000000000000000, 0.000000000000000000 ) ) ;
#26 = DIRECTION ( 'NONE',  ( 1.000000000000000000, 0.000000000000000000, 0.000000000000000000 ) ) ;
#27 = DIRECTION ( 'NONE',  ( -0.000000000000000000, -0.000000000000000000, -1.000000000000000000 ) ) ;
#28 = VECTOR ( 'NONE', #68, 1000.000000000000000 ) ;
#29 = DIRECTION ( 'NONE',  ( 1.000000000000000000, 0.000000000000000000, 0.000000000000000000 ) ) ;
#30 = EDGE_CURVE ( 'NONE', #83, #190, #87, .T. ) ;
#31 = DATE_TIME_ROLE ( 'creation_date' ) ;
#32 = PERSON_AND_ORGANIZATION_ROLE ( 'design_supplier' ) ;
#33 = EDGE_LOOP ( 'NONE', ( #113, #278, #136, #231 ) ) ;
#34 = DIRECTION ( 'NONE',  ( 0.000000000000000000, 0.000000000000000000, 1.000000000000000000 ) ) ;
#35 = ORIENTED_EDGE ( 'NONE', *, *, #158, .F. ) ;
#36 = APPROVAL_DATE_TIME ( #62, #7 ) ;
#37 = ORIENTED_EDGE ( 'NONE', *, *, #175, .T. ) ;
#38 = AXIS2_PLACEMENT_3D ( 'NONE', #1, #96, #25 ) ;
#39 = ORIENTED_EDGE ( 'NONE', *, *, #240, .F. ) ;
#40 = CLOSED_SHELL ( 'NONE', ( #287, #88, #111, #230, #150, #95, #276, #170, #168 ) ) ;
#41 = EDGE_CURVE ( 'NONE', #19, #190, #134, .T. ) ;
#42 = LINE ( 'NONE', #284, #28 ) ;
#43 = DIRECTION ( 'NONE',  ( -1.000000000000000000, 1.224646799147353454E-16, 0.000000000000000000 ) ) ;
#44 = AXIS2_PLACEMENT_3D ( 'NONE', #266, #163, #144 ) ;
#45 = EDGE_CURVE ( 'NONE', #105, #148, #42, .T. ) ;
#46 = DIRECTION ( 'NONE',  ( 1.000000000000000000, 0.000000000000000000, 0.000000000000000000 ) ) ;
#47 = FACE_OUTER_BOUND ( 'NONE', #256, .T. ) ;
#48 = DIRECTION ( 'NONE',  ( 1.000000000000000000, 0.000000000000000000, 0.000000000000000000 ) ) ;
#49 = DIRECTION ( 'NONE',  ( -0.000000000000000000, -0.000000000000000000, -1.000000000000000000 ) ) ;
#50 = LINE ( 'NONE', #97, #23 ) ;
#51 = DIRECTION ( 'NONE',  ( -0.000000000000000000, -0.000000000000000000, -1.000000000000000000 ) ) ;
#52 = VECTOR ( 'NONE', #169, 1000.000000000000000 ) ;
#53 = PRODUCT_DEFINITION_FORMATION_WITH_SPECIFIED_SOURCE ( 'LIBOVOLNÝ', '', #215, .NOT_KNOWN. ) ;
#54 = EDGE_CURVE ( 'NONE', #190, #19, #298, .T. ) ;
#55 = AXIS2_PLACEMENT_3D ( 'NONE', #204, #70, #260 ) ;
#56 = CC_DESIGN_PERSON_AND_ORGANIZATION_ASSIGNMENT ( #245, #221, ( #297 ) ) ;
#57 = CARTESIAN_POINT ( 'NONE',  ( 4.500000000000000888, 5.510910596163089556E-16, 505.0000000000000000 ) ) ;
#58 = PERSON_AND_ORGANIZATION_ROLE ( 'creator' ) ;
#59 = ORIENTED_EDGE ( 'NONE', *, *, #41, .T. ) ;
#60 = CALENDAR_DATE ( 2022, 20, 6 ) ;
#61 = AXIS2_PLACEMENT_3D ( 'NONE', #118, #307, #94 ) ;
#62 = DATE_AND_TIME ( #177, #274 ) ;
#63 = ORIENTED_EDGE ( 'NONE', *, *, #76, .T. ) ;
#64 = COORDINATED_UNIVERSAL_TIME_OFFSET ( 1, 0, .AHEAD. ) ;
#65 = ORIENTED_EDGE ( 'NONE', *, *, #30, .T. ) ;
#66 = CC_DESIGN_DATE_AND_TIME_ASSIGNMENT ( #201, #135, ( #183 ) ) ;
#67 = AXIS2_PLACEMENT_3D ( 'NONE', #264, #242, #216 ) ;
#68 = DIRECTION ( 'NONE',  ( -0.000000000000000000, -0.000000000000000000, -1.000000000000000000 ) ) ;
#69 = ORIENTED_EDGE ( 'NONE', *, *, #45, .F. ) ;
#70 = DIRECTION ( 'NONE',  ( 0.000000000000000000, 0.000000000000000000, 1.000000000000000000 ) ) ;
#71 = APPROVAL_PERSON_ORGANIZATION ( #228, #101, #152 ) ;
#72 = CIRCLE ( 'NONE', #18, 4.500000000000000888 ) ;
#73 = DIRECTION ( 'NONE',  ( 0.000000000000000000, 0.000000000000000000, 1.000000000000000000 ) ) ;
#74 = DIRECTION ( 'NONE',  ( 1.000000000000000000, 0.000000000000000000, 0.000000000000000000 ) ) ;
#75 = CARTESIAN_POINT ( 'NONE',  ( -4.500000000000000888, 0.000000000000000000, 505.0000000000000000 ) ) ;
#76 = EDGE_CURVE ( 'NONE', #83, #151, #149, .T. ) ;
#77 = DIRECTION ( 'NONE',  ( 0.000000000000000000, 0.000000000000000000, 1.000000000000000000 ) ) ;
#78 = CARTESIAN_POINT ( 'NONE',  ( 0.000000000000000000, 0.000000000000000000, 5.000000000000000000 ) ) ;
#79 = DIRECTION ( 'NONE',  ( 0.000000000000000000, 0.000000000000000000, -1.000000000000000000 ) ) ;
#80 = CIRCLE ( 'NONE', #253, 4.500000000000000888 ) ;
#81 = CARTESIAN_POINT ( 'NONE',  ( -7.000000000000000000, 0.000000000000000000, 0.000000000000000000 ) ) ;
#82 = PERSON_AND_ORGANIZATION ( #294, #145 ) ;
#83 = VERTEX_POINT ( 'NONE', #157 ) ;
#84 = UNCERTAINTY_MEASURE_WITH_UNIT (LENGTH_MEASURE( 1.000000000000000082E-05 ), #123, 'distance_accuracy_value', 'NONE');
#85 = APPROVAL_DATE_TIME ( #129, #101 ) ;
#86 = EDGE_LOOP ( 'NONE', ( #133, #35, #301, #63 ) ) ;
#87 = CIRCLE ( 'NONE', #109, 0.1999999999999996503 ) ;
#88 = ADVANCED_FACE ( 'NONE', ( #261 ), #142, .T. ) ;
#89 = CARTESIAN_POINT ( 'NONE',  ( 0.000000000000000000, 0.000000000000000000, 5.199999999999982414 ) ) ;
#90 = ORIENTED_EDGE ( 'NONE', *, *, #306, .T. ) ;
#91 = CARTESIAN_POINT ( 'NONE',  ( 0.000000000000000000, 0.000000000000000000, 5.000000000000000000 ) ) ;
#92 = ORIENTED_EDGE ( 'NONE', *, *, #175, .F. ) ;
#93 = CIRCLE ( 'NONE', #234, 0.1999999999999996503 ) ;
#94 = DIRECTION ( 'NONE',  ( -1.000000000000000000, 0.000000000000000000, 0.000000000000000000 ) ) ;
#95 = ADVANCED_FACE ( 'NONE', ( #47 ), #114, .F. ) ;
#96 = DIRECTION ( 'NONE',  ( 0.000000000000000000, 0.000000000000000000, 1.000000000000000000 ) ) ;
#97 = CARTESIAN_POINT ( 'NONE',  ( -7.000000000000000000, 0.000000000000000000, 5.000000000000000000 ) ) ;
#98 = LOCAL_TIME ( 11, 42, 57.00000000000000000, #64 ) ;
#99 = CIRCLE ( 'NONE', #165, 7.000000000000000000 ) ;
#100 = CARTESIAN_POINT ( 'NONE',  ( 4.700000000000000178, 0.000000000000000000, 5.199999999999982414 ) ) ;
#101 = APPROVAL ( #171, 'NEURÈENÝ' ) ;
#102 = PLANE ( 'NONE',  #188 ) ;
#103 = LINE ( 'NONE', #291, #52 ) ;
#104 = COORDINATED_UNIVERSAL_TIME_OFFSET ( 1, 0, .AHEAD. ) ;
#105 = VERTEX_POINT ( 'NONE', #21 ) ;
#106 = CALENDAR_DATE ( 2022, 20, 6 ) ;
#107 = APPROVAL_ROLE ( '' ) ;
#108 = ORIENTED_EDGE ( 'NONE', *, *, #240, .T. ) ;
#109 = AXIS2_PLACEMENT_3D ( 'NONE', #156, #258, #43 ) ;
#110 = APPROVAL ( #277, 'NEURÈENÝ' ) ;
#111 = ADVANCED_FACE ( 'NONE', ( #302 ), #137, .T. ) ;
#112 = MECHANICAL_CONTEXT ( 'NONE', #218, 'mechanical' ) ;
#113 = ORIENTED_EDGE ( 'NONE', *, *, #30, .F. ) ;
#114 = PLANE ( 'NONE',  #55 ) ;
#115 = CARTESIAN_POINT ( 'NONE',  ( 4.700000000000000178, 0.000000000000000000, 4.999999999999991118 ) ) ;
#116 = EDGE_LOOP ( 'NONE', ( #191, #205, #108, #182 ) ) ;
#117 = DIRECTION ( 'NONE',  ( 0.000000000000000000, 0.000000000000000000, 1.000000000000000000 ) ) ;
#118 = CARTESIAN_POINT ( 'NONE',  ( 0.000000000000000000, 0.000000000000000000, 5.000000000000000000 ) ) ;
#119 = EDGE_CURVE ( 'NONE', #151, #83, #14, .T. ) ;
#120 = TOROIDAL_SURFACE ( 'NONE', #67, 4.700000000000000178, 0.2000000000000000111 ) ;
#121 = CC_DESIGN_PERSON_AND_ORGANIZATION_ASSIGNMENT ( #147, #246, ( #183 ) ) ;
#122 = DIRECTION ( 'NONE',  ( 1.000000000000000000, 0.000000000000000000, 0.000000000000000000 ) ) ;
#123 =( LENGTH_UNIT ( ) NAMED_UNIT ( * ) SI_UNIT ( .MILLI., .METRE. ) );
#124 = CC_DESIGN_PERSON_AND_ORGANIZATION_ASSIGNMENT ( #82, #32, ( #53 ) ) ;
#125 = CARTESIAN_POINT ( 'NONE',  ( 0.000000000000000000, 0.000000000000000000, 5.000000000000000000 ) ) ;
#126 = LOCAL_TIME ( 11, 42, 57.00000000000000000, #131 ) ;
#127 = DIRECTION ( 'NONE',  ( 0.000000000000000000, 0.000000000000000000, 1.000000000000000000 ) ) ;
#128 = CARTESIAN_POINT ( 'NONE',  ( 0.000000000000000000, 0.000000000000000000, 0.000000000000000000 ) ) ;
#129 = DATE_AND_TIME ( #173, #189 ) ;
#130 = ORIENTED_EDGE ( 'NONE', *, *, #41, .F. ) ;
#131 = COORDINATED_UNIVERSAL_TIME_OFFSET ( 1, 0, .AHEAD. ) ;
#132 = ORIENTED_EDGE ( 'NONE', *, *, #251, .T. ) ;
#133 = ORIENTED_EDGE ( 'NONE', *, *, #187, .F. ) ;
#134 = CIRCLE ( 'NONE', #279, 4.700000000000000178 ) ;
#135 = DATE_TIME_ROLE ( 'classification_date' ) ;
#136 = ORIENTED_EDGE ( 'NONE', *, *, #233, .T. ) ;
#137 = CYLINDRICAL_SURFACE ( 'NONE', #61, 7.000000000000000000 ) ;
#138 = DIRECTION ( 'NONE',  ( -0.000000000000000000, -0.000000000000000000, -1.000000000000000000 ) ) ;
#139 = CARTESIAN_POINT ( 'NONE',  ( 7.000000000000000000, 8.572527594031473190E-16, 0.000000000000000000 ) ) ;
#140 = EDGE_LOOP ( 'NONE', ( #174, #286, #153, #250 ) ) ;
#141 = CC_DESIGN_PERSON_AND_ORGANIZATION_ASSIGNMENT ( #8, #58, ( #53 ) ) ;
#142 = CYLINDRICAL_SURFACE ( 'NONE', #259, 4.500000000000000888 ) ;
#143 = DIRECTION ( 'NONE',  ( 0.000000000000000000, 0.000000000000000000, 1.000000000000000000 ) ) ;
#144 = DIRECTION ( 'NONE',  ( 1.000000000000000000, 0.000000000000000000, 0.000000000000000000 ) ) ;
#145 = ORGANIZATION ( 'NEURÈENÝ', 'NEURÈENÝ', '' ) ;
#146 = DIRECTION ( 'NONE',  ( 0.000000000000000000, 0.000000000000000000, 1.000000000000000000 ) ) ;
#147 = PERSON_AND_ORGANIZATION ( #294, #145 ) ;
#148 = VERTEX_POINT ( 'NONE', #139 ) ;
#149 = CIRCLE ( 'NONE', #227, 4.500000000000000888 ) ;
#150 = ADVANCED_FACE ( 'NONE', ( #184, #280 ), #236, .T. ) ;
#151 = VERTEX_POINT ( 'NONE', #305 ) ;
#152 = APPROVAL_ROLE ( '' ) ;
#153 = ORIENTED_EDGE ( 'NONE', *, *, #119, .T. ) ;
#154 = VECTOR ( 'NONE', #51, 1000.000000000000000 ) ;
#155 = DIRECTION ( 'NONE',  ( 1.000000000000000000, 0.000000000000000000, -0.000000000000000000 ) ) ;
#156 = CARTESIAN_POINT ( 'NONE',  ( -4.700000000000000178, 5.755839955992559655E-16, 5.199999999999982414 ) ) ;
#157 = CARTESIAN_POINT ( 'NONE',  ( -4.500000000000000888, 0.000000000000000000, 5.199999999999982414 ) ) ;
#158 = EDGE_CURVE ( 'NONE', #272, #180, #72, .T. ) ;
#159 = DIRECTION ( 'NONE',  ( 0.000000000000000000, 0.000000000000000000, 1.000000000000000000 ) ) ;
#160 = DIRECTION ( 'NONE',  ( 1.000000000000000000, 0.000000000000000000, 0.000000000000000000 ) ) ;
#161 = FACE_OUTER_BOUND ( 'NONE', #185, .T. ) ;
#162 = DIRECTION ( 'NONE',  ( 0.000000000000000000, -1.000000000000000000, 0.000000000000000000 ) ) ;
#163 = DIRECTION ( 'NONE',  ( 0.000000000000000000, 0.000000000000000000, 1.000000000000000000 ) ) ;
#164 = CARTESIAN_POINT ( 'NONE',  ( -4.500000000000000888, 0.000000000000000000, 505.0000000000000000 ) ) ;
#165 = AXIS2_PLACEMENT_3D ( 'NONE', #241, #143, #26 ) ;
#166 = APPROVAL_PERSON_ORGANIZATION ( #12, #110, #292 ) ;
#167 = AXIS2_PLACEMENT_3D ( 'NONE', #89, #159, #46 ) ;
#168 = ADVANCED_FACE ( 'NONE', ( #17 ), #120, .F. ) ;
#169 = DIRECTION ( 'NONE',  ( -0.000000000000000000, -0.000000000000000000, -1.000000000000000000 ) ) ;
#170 = ADVANCED_FACE ( 'NONE', ( #303 ), #102, .T. ) ;
#171 = APPROVAL_STATUS ( 'not_yet_approved' ) ;
#172 = VERTEX_POINT ( 'NONE', #210 ) ;
#173 = CALENDAR_DATE ( 2022, 20, 6 ) ;
#174 = ORIENTED_EDGE ( 'NONE', *, *, #285, .F. ) ;
#175 = EDGE_CURVE ( 'NONE', #172, #105, #238, .T. ) ;
#176 = TOROIDAL_SURFACE ( 'NONE', #44, 4.700000000000000178, 0.2000000000000000111 ) ;
#177 = CALENDAR_DATE ( 2022, 20, 6 ) ;
#178 = ORIENTED_EDGE ( 'NONE', *, *, #158, .T. ) ;
#179 = PERSON_AND_ORGANIZATION ( #294, #145 ) ;
#180 = VERTEX_POINT ( 'NONE', #57 ) ;
#181 = APPLICATION_PROTOCOL_DEFINITION ( 'international standard', 'config_control_design', 1994, #218 ) ;
#182 = ORIENTED_EDGE ( 'NONE', *, *, #229, .F. ) ;
#183 = SECURITY_CLASSIFICATION ( '', '', #10 ) ;
#184 = FACE_BOUND ( 'NONE', #197, .T. ) ;
#185 = EDGE_LOOP ( 'NONE', ( #223, #65, #130, #249 ) ) ;
#186 = ORIENTED_EDGE ( 'NONE', *, *, #229, .T. ) ;
#187 = EDGE_CURVE ( 'NONE', #180, #151, #103, .T. ) ;
#188 = AXIS2_PLACEMENT_3D ( 'NONE', #6, #77, #209 ) ;
#189 = LOCAL_TIME ( 11, 42, 57.00000000000000000, #217 ) ;
#190 = VERTEX_POINT ( 'NONE', #2 ) ;
#191 = ORIENTED_EDGE ( 'NONE', *, *, #306, .F. ) ;
#192 = LINE ( 'NONE', #75, #154 ) ;
#193 = CARTESIAN_POINT ( 'NONE',  ( 0.000000000000000000, 0.000000000000000000, 505.0000000000000000 ) ) ;
#194 = CARTESIAN_POINT ( 'NONE',  ( 0.000000000000000000, 0.000000000000000000, 5.000000000000000000 ) ) ;
#195 = CC_DESIGN_DATE_AND_TIME_ASSIGNMENT ( #199, #31, ( #297 ) ) ;
#196 = DIRECTION ( 'NONE',  ( -1.000000000000000000, 0.000000000000000000, 0.000000000000000000 ) ) ;
#197 = EDGE_LOOP ( 'NONE', ( #59, #208 ) ) ;
#198 = PERSON_AND_ORGANIZATION ( #294, #145 ) ;
#199 = DATE_AND_TIME ( #248, #98 ) ;
#200 = AXIS2_PLACEMENT_3D ( 'NONE', #125, #146, #29 ) ;
#201 = DATE_AND_TIME ( #106, #226 ) ;
#202 = EDGE_LOOP ( 'NONE', ( #69, #92, #186, #132 ) ) ;
#203 =( NAMED_UNIT ( * ) SI_UNIT ( $, .STERADIAN. ) SOLID_ANGLE_UNIT ( ) );
#204 = CARTESIAN_POINT ( 'NONE',  ( 0.000000000000000000, 0.000000000000000000, 0.000000000000000000 ) ) ;
#205 = ORIENTED_EDGE ( 'NONE', *, *, #45, .T. ) ;
#206 = DIRECTION ( 'NONE',  ( -1.000000000000000000, 0.000000000000000000, 0.000000000000000000 ) ) ;
#207 =( GEOMETRIC_REPRESENTATION_CONTEXT ( 3 ) GLOBAL_UNCERTAINTY_ASSIGNED_CONTEXT ( ( #84 ) ) GLOBAL_UNIT_ASSIGNED_CONTEXT ( ( #123, #299, #203 ) ) REPRESENTATION_CONTEXT ( 'NONE', 'WORKASPACE' ) );
#208 = ORIENTED_EDGE ( 'NONE', *, *, #54, .T. ) ;
#209 = DIRECTION ( 'NONE',  ( 1.000000000000000000, 0.000000000000000000, -0.000000000000000000 ) ) ;
#210 = CARTESIAN_POINT ( 'NONE',  ( -7.000000000000000000, 0.000000000000000000, 5.000000000000000000 ) ) ;
#211 = DIRECTION ( 'NONE',  ( -1.000000000000000000, 0.000000000000000000, 0.000000000000000000 ) ) ;
#212 = AXIS2_PLACEMENT_3D ( 'NONE', #78, #127, #122 ) ;
#213 = DIRECTION ( 'NONE',  ( 1.000000000000000000, 0.000000000000000000, 0.000000000000000000 ) ) ;
#214 = EDGE_CURVE ( 'NONE', #272, #83, #192, .T. ) ;
#215 = PRODUCT ( '02be', '02be', '', ( #112 ) ) ;
#216 = DIRECTION ( 'NONE',  ( 1.000000000000000000, 0.000000000000000000, 0.000000000000000000 ) ) ;
#217 = COORDINATED_UNIVERSAL_TIME_OFFSET ( 1, 0, .AHEAD. ) ;
#218 = APPLICATION_CONTEXT ( 'configuration controlled 3d designs of mechanical parts and assemblies' ) ;
#219 = CC_DESIGN_SECURITY_CLASSIFICATION ( #183, ( #53 ) ) ;
#220 = ORIENTED_EDGE ( 'NONE', *, *, #285, .T. ) ;
#221 = PERSON_AND_ORGANIZATION_ROLE ( 'creator' ) ;
#222 = ADVANCED_BREP_SHAPE_REPRESENTATION ( '02be', ( #268, #22 ), #207 ) ;
#223 = ORIENTED_EDGE ( 'NONE', *, *, #76, .F. ) ;
#224 = APPLICATION_PROTOCOL_DEFINITION ( 'international standard', 'config_control_design', 1994, #239 ) ;
#225 = AXIS2_PLACEMENT_3D ( 'NONE', #194, #24, #211 ) ;
#226 = LOCAL_TIME ( 11, 42, 57.00000000000000000, #104 ) ;
#227 = AXIS2_PLACEMENT_3D ( 'NONE', #16, #304, #160 ) ;
#228 = PERSON_AND_ORGANIZATION ( #294, #145 ) ;
#229 = EDGE_CURVE ( 'NONE', #172, #281, #50, .T. ) ;
#230 = ADVANCED_FACE ( 'NONE', ( #5 ), #288, .T. ) ;
#231 = ORIENTED_EDGE ( 'NONE', *, *, #54, .F. ) ;
#232 = DIRECTION ( 'NONE',  ( 1.000000000000000000, 0.000000000000000000, 0.000000000000000000 ) ) ;
#233 = EDGE_CURVE ( 'NONE', #151, #19, #93, .T. ) ;
#234 = AXIS2_PLACEMENT_3D ( 'NONE', #100, #162, #79 ) ;
#235 = CARTESIAN_POINT ( 'NONE',  ( 0.000000000000000000, 0.000000000000000000, 505.0000000000000000 ) ) ;
#236 = PLANE ( 'NONE',  #289 ) ;
#237 = CARTESIAN_POINT ( 'NONE',  ( 0.000000000000000000, 0.000000000000000000, 5.000000000000000000 ) ) ;
#238 = CIRCLE ( 'NONE', #200, 7.000000000000000000 ) ;
#239 = APPLICATION_CONTEXT ( 'configuration controlled 3d designs of mechanical parts and assemblies' ) ;
#240 = EDGE_CURVE ( 'NONE', #148, #281, #99, .T. ) ;
#241 = CARTESIAN_POINT ( 'NONE',  ( 0.000000000000000000, 0.000000000000000000, 0.000000000000000000 ) ) ;
#242 = DIRECTION ( 'NONE',  ( 0.000000000000000000, 0.000000000000000000, 1.000000000000000000 ) ) ;
#243 = CIRCLE ( 'NONE', #212, 7.000000000000000000 ) ;
#244 = FACE_OUTER_BOUND ( 'NONE', #86, .T. ) ;
#245 = PERSON_AND_ORGANIZATION ( #294, #145 ) ;
#246 = PERSON_AND_ORGANIZATION_ROLE ( 'classification_officer' ) ;
#247 = CC_DESIGN_APPROVAL ( #7, ( #183 ) ) ;
#248 = CALENDAR_DATE ( 2022, 20, 6 ) ;
#249 = ORIENTED_EDGE ( 'NONE', *, *, #233, .F. ) ;
#250 = ORIENTED_EDGE ( 'NONE', *, *, #214, .F. ) ;
#251 = EDGE_CURVE ( 'NONE', #281, #148, #4, .T. ) ;
#252 = EDGE_LOOP ( 'NONE', ( #37, #90 ) ) ;
#253 = AXIS2_PLACEMENT_3D ( 'NONE', #290, #269, #213 ) ;
#254 = APPROVAL_PERSON_ORGANIZATION ( #198, #7, #107 ) ;
#255 = AXIS2_PLACEMENT_3D ( 'NONE', #91, #138, #74 ) ;
#256 = EDGE_LOOP ( 'NONE', ( #296, #39 ) ) ;
#257 = CARTESIAN_POINT ( 'NONE',  ( 0.000000000000000000, 0.000000000000000000, 505.0000000000000000 ) ) ;
#258 = DIRECTION ( 'NONE',  ( 1.224646799147353207E-16, 1.000000000000000000, -0.000000000000000000 ) ) ;
#259 = AXIS2_PLACEMENT_3D ( 'NONE', #235, #282, #206 ) ;
#260 = DIRECTION ( 'NONE',  ( 1.000000000000000000, 0.000000000000000000, -0.000000000000000000 ) ) ;
#261 = FACE_OUTER_BOUND ( 'NONE', #140, .T. ) ;
#262 = DIRECTION ( 'NONE',  ( -0.000000000000000000, -0.000000000000000000, -1.000000000000000000 ) ) ;
#263 = PRODUCT_RELATED_PRODUCT_CATEGORY ( 'detail', '', ( #215 ) ) ;
#264 = CARTESIAN_POINT ( 'NONE',  ( 0.000000000000000000, 0.000000000000000000, 5.199999999999982414 ) ) ;
#265 = CC_DESIGN_PERSON_AND_ORGANIZATION_ASSIGNMENT ( #179, #270, ( #215 ) ) ;
#266 = CARTESIAN_POINT ( 'NONE',  ( 0.000000000000000000, 0.000000000000000000, 5.199999999999982414 ) ) ;
#267 = CYLINDRICAL_SURFACE ( 'NONE', #283, 4.500000000000000888 ) ;
#268 = MANIFOLD_SOLID_BREP ( 'Zaoblit1', #40 ) ;
#269 = DIRECTION ( 'NONE',  ( 0.000000000000000000, 0.000000000000000000, 1.000000000000000000 ) ) ;
#270 = PERSON_AND_ORGANIZATION_ROLE ( 'design_owner' ) ;
#271 = EDGE_LOOP ( 'NONE', ( #178, #220 ) ) ;
#272 = VERTEX_POINT ( 'NONE', #164 ) ;
#273 = PRODUCT_DEFINITION_SHAPE ( 'NONE', 'NONE',  #297 ) ;
#274 = LOCAL_TIME ( 11, 42, 57.00000000000000000, #295 ) ;
#275 = APPROVAL_DATE_TIME ( #300, #110 ) ;
#276 = ADVANCED_FACE ( 'NONE', ( #244 ), #267, .T. ) ;
#277 = APPROVAL_STATUS ( 'not_yet_approved' ) ;
#278 = ORIENTED_EDGE ( 'NONE', *, *, #119, .F. ) ;
#279 = AXIS2_PLACEMENT_3D ( 'NONE', #237, #262, #48 ) ;
#280 = FACE_OUTER_BOUND ( 'NONE', #252, .T. ) ;
#281 = VERTEX_POINT ( 'NONE', #81 ) ;
#282 = DIRECTION ( 'NONE',  ( -0.000000000000000000, -0.000000000000000000, -1.000000000000000000 ) ) ;
#283 = AXIS2_PLACEMENT_3D ( 'NONE', #193, #49, #196 ) ;
#284 = CARTESIAN_POINT ( 'NONE',  ( 7.000000000000000000, 8.572527594031473190E-16, 5.000000000000000000 ) ) ;
#285 = EDGE_CURVE ( 'NONE', #180, #272, #80, .T. ) ;
#286 = ORIENTED_EDGE ( 'NONE', *, *, #187, .T. ) ;
#287 = ADVANCED_FACE ( 'NONE', ( #161 ), #176, .F. ) ;
#288 = CYLINDRICAL_SURFACE ( 'NONE', #225, 7.000000000000000000 ) ;
#289 = AXIS2_PLACEMENT_3D ( 'NONE', #20, #73, #155 ) ;
#290 = CARTESIAN_POINT ( 'NONE',  ( 0.000000000000000000, 0.000000000000000000, 505.0000000000000000 ) ) ;
#291 = CARTESIAN_POINT ( 'NONE',  ( 4.500000000000000888, 5.510910596163089556E-16, 505.0000000000000000 ) ) ;
#292 = APPROVAL_ROLE ( '' ) ;
#293 = APPROVAL_STATUS ( 'not_yet_approved' ) ;
#294 = PERSON ( 'NEURÈENÝ', 'NEURÈENÝ', 'NEURÈENÝ', ('NEURÈENÝ'), ('NEURÈENÝ'), ('NEURÈENÝ') ) ;
#295 = COORDINATED_UNIVERSAL_TIME_OFFSET ( 1, 0, .AHEAD. ) ;
#296 = ORIENTED_EDGE ( 'NONE', *, *, #251, .F. ) ;
#297 = PRODUCT_DEFINITION ( 'NEZNÁMÝ', '', #53, #11 ) ;
#298 = CIRCLE ( 'NONE', #255, 4.700000000000000178 ) ;
#299 =( NAMED_UNIT ( * ) PLANE_ANGLE_UNIT ( ) SI_UNIT ( $, .RADIAN. ) );
#300 = DATE_AND_TIME ( #60, #126 ) ;
#301 = ORIENTED_EDGE ( 'NONE', *, *, #214, .T. ) ;
#302 = FACE_OUTER_BOUND ( 'NONE', #116, .T. ) ;
#303 = FACE_OUTER_BOUND ( 'NONE', #271, .T. ) ;
#304 = DIRECTION ( 'NONE',  ( 0.000000000000000000, 0.000000000000000000, 1.000000000000000000 ) ) ;
#305 = CARTESIAN_POINT ( 'NONE',  ( 4.500000000000000888, 5.510910596163089556E-16, 5.199999999999982414 ) ) ;
#306 = EDGE_CURVE ( 'NONE', #105, #172, #243, .T. ) ;
#307 = DIRECTION ( 'NONE',  ( -0.000000000000000000, -0.000000000000000000, -1.000000000000000000 ) ) ;
ENDSEC;
END-ISO-10303-21;
