ISO-10303-21;
HEADER;
FILE_DESCRIPTION (( 'STEP AP203' ),
    '1' );
FILE_NAME ('8e44.STEP',
    '2022-06-20T09:55:17',
    ( '' ),
    ( '' ),
    'SwSTEP 2.0',
    'SolidWorks 2019',
    '' );
FILE_SCHEMA (( 'CONFIG_CONTROL_DESIGN' ));
ENDSEC;

DATA;
#1 = AXIS2_PLACEMENT_3D ( 'NONE', #269, #76, #151 ) ;
#2 = DIRECTION ( 'NONE',  ( 0.000000000000000000, 0.000000000000000000, 1.000000000000000000 ) ) ;
#3 = APPROVAL_PERSON_ORGANIZATION ( #107, #191, #273 ) ;
#4 = LINE ( 'NONE', #26, #71 ) ;
#5 = CALENDAR_DATE ( 2022, 20, 6 ) ;
#6 = DIRECTION ( 'NONE',  ( 0.000000000000000000, 0.000000000000000000, 1.000000000000000000 ) ) ;
#7 = CARTESIAN_POINT ( 'NONE',  ( 0.000000000000000000, 0.000000000000000000, 5.000000000000000000 ) ) ;
#8 = CARTESIAN_POINT ( 'NONE',  ( 0.000000000000000000, 0.000000000000000000, 5.000000000000000000 ) ) ;
#9 = PERSON_AND_ORGANIZATION_ROLE ( 'creator' ) ;
#10 = CARTESIAN_POINT ( 'NONE',  ( 0.000000000000000000, 0.000000000000000000, 5.199999999999982414 ) ) ;
#11 = DIRECTION ( 'NONE',  ( 0.000000000000000000, 0.000000000000000000, 1.000000000000000000 ) ) ;
#12 = AXIS2_PLACEMENT_3D ( 'NONE', #62, #92, #276 ) ;
#13 = CYLINDRICAL_SURFACE ( 'NONE', #158, 3.100000000000000089 ) ;
#14 =( NAMED_UNIT ( * ) SI_UNIT ( $, .STERADIAN. ) SOLID_ANGLE_UNIT ( ) );
#15 = CARTESIAN_POINT ( 'NONE',  ( 0.000000000000000000, 0.000000000000000000, 805.0000000000000000 ) ) ;
#16 = ORIENTED_EDGE ( 'NONE', *, *, #217, .T. ) ;
#17 = EDGE_CURVE ( 'NONE', #288, #232, #277, .T. ) ;
#18 = AXIS2_PLACEMENT_3D ( 'NONE', #174, #66, #279 ) ;
#19 = EDGE_LOOP ( 'NONE', ( #75, #47 ) ) ;
#20 = ORIENTED_EDGE ( 'NONE', *, *, #213, .F. ) ;
#21 = EDGE_CURVE ( 'NONE', #120, #285, #138, .T. ) ;
#22 = TOROIDAL_SURFACE ( 'NONE', #27, 3.299999999999999822, 0.2000000000000000111 ) ;
#23 = CYLINDRICAL_SURFACE ( 'NONE', #119, 6.000000000000000888 ) ;
#24 = ORIENTED_EDGE ( 'NONE', *, *, #117, .F. ) ;
#25 = APPROVAL ( #61, 'NEURÈENÝ' ) ;
#26 = CARTESIAN_POINT ( 'NONE',  ( 3.100000000000000089, 3.796405077356794918E-16, 805.0000000000000000 ) ) ;
#27 = AXIS2_PLACEMENT_3D ( 'NONE', #63, #254, #35 ) ;
#28 = PLANE ( 'NONE',  #118 ) ;
#29 = DIRECTION ( 'NONE',  ( 1.000000000000000000, 0.000000000000000000, 0.000000000000000000 ) ) ;
#30 = DIRECTION ( 'NONE',  ( 1.000000000000000000, 0.000000000000000000, 0.000000000000000000 ) ) ;
#31 = APPLICATION_CONTEXT ( 'configuration controlled 3d designs of mechanical parts and assemblies' ) ;
#32 = COORDINATED_UNIVERSAL_TIME_OFFSET ( 1, 0, .AHEAD. ) ;
#33 = EDGE_CURVE ( 'NONE', #100, #232, #296, .T. ) ;
#34 = VECTOR ( 'NONE', #177, 1000.000000000000000 ) ;
#35 = DIRECTION ( 'NONE',  ( 1.000000000000000000, 0.000000000000000000, 0.000000000000000000 ) ) ;
#36 = CALENDAR_DATE ( 2022, 20, 6 ) ;
#37 = DIRECTION ( 'NONE',  ( -0.000000000000000000, -0.000000000000000000, -1.000000000000000000 ) ) ;
#38 = AXIS2_PLACEMENT_3D ( 'NONE', #244, #124, #223 ) ;
#39 = APPROVAL_STATUS ( 'not_yet_approved' ) ;
#40 = DIRECTION ( 'NONE',  ( 0.000000000000000000, 0.000000000000000000, 1.000000000000000000 ) ) ;
#41 = ORIENTED_EDGE ( 'NONE', *, *, #33, .T. ) ;
#42 = CALENDAR_DATE ( 2022, 20, 6 ) ;
#43 = FACE_OUTER_BOUND ( 'NONE', #19, .T. ) ;
#44 = ORIENTED_EDGE ( 'NONE', *, *, #33, .F. ) ;
#45 = CIRCLE ( 'NONE', #87, 6.000000000000000888 ) ;
#46 = CC_DESIGN_APPROVAL ( #191, ( #304 ) ) ;
#47 = ORIENTED_EDGE ( 'NONE', *, *, #17, .F. ) ;
#48 = ORIENTED_EDGE ( 'NONE', *, *, #213, .T. ) ;
#49 = EDGE_LOOP ( 'NONE', ( #185, #73, #98, #137 ) ) ;
#50 = UNCERTAINTY_MEASURE_WITH_UNIT (LENGTH_MEASURE( 1.000000000000000082E-05 ), #88, 'distance_accuracy_value', 'NONE');
#51 = CIRCLE ( 'NONE', #106, 6.000000000000000888 ) ;
#52 = AXIS2_PLACEMENT_3D ( 'NONE', #225, #173, #239 ) ;
#53 = CARTESIAN_POINT ( 'NONE',  ( 0.000000000000000000, 0.000000000000000000, 805.0000000000000000 ) ) ;
#54 = CARTESIAN_POINT ( 'NONE',  ( 0.000000000000000000, 0.000000000000000000, 5.000000000000000000 ) ) ;
#55 = EDGE_CURVE ( 'NONE', #122, #120, #4, .T. ) ;
#56 = CARTESIAN_POINT ( 'NONE',  ( 0.000000000000000000, 0.000000000000000000, 0.000000000000000000 ) ) ;
#57 = COORDINATED_UNIVERSAL_TIME_OFFSET ( 1, 0, .AHEAD. ) ;
#58 = DIRECTION ( 'NONE',  ( 1.000000000000000000, 0.000000000000000000, 0.000000000000000000 ) ) ;
#59 = PLANE ( 'NONE',  #18 ) ;
#60 = CARTESIAN_POINT ( 'NONE',  ( 0.000000000000000000, 0.000000000000000000, 805.0000000000000000 ) ) ;
#61 = APPROVAL_STATUS ( 'not_yet_approved' ) ;
#62 = CARTESIAN_POINT ( 'NONE',  ( 0.000000000000000000, 0.000000000000000000, 5.000000000000000000 ) ) ;
#63 = CARTESIAN_POINT ( 'NONE',  ( 0.000000000000000000, 0.000000000000000000, 5.199999999999982414 ) ) ;
#64 = CARTESIAN_POINT ( 'NONE',  ( 0.000000000000000000, 0.000000000000000000, 805.0000000000000000 ) ) ;
#65 = EDGE_CURVE ( 'NONE', #232, #288, #45, .T. ) ;
#66 = DIRECTION ( 'NONE',  ( 0.000000000000000000, 0.000000000000000000, 1.000000000000000000 ) ) ;
#67 = CIRCLE ( 'NONE', #113, 6.000000000000000888 ) ;
#68 = APPROVAL_ROLE ( '' ) ;
#69 = EDGE_LOOP ( 'NONE', ( #212, #74 ) ) ;
#70 = EDGE_LOOP ( 'NONE', ( #48, #16 ) ) ;
#71 = VECTOR ( 'NONE', #79, 1000.000000000000000 ) ;
#72 = APPROVAL_PERSON_ORGANIZATION ( #201, #25, #125 ) ;
#73 = ORIENTED_EDGE ( 'NONE', *, *, #55, .T. ) ;
#74 = ORIENTED_EDGE ( 'NONE', *, *, #147, .T. ) ;
#75 = ORIENTED_EDGE ( 'NONE', *, *, #65, .F. ) ;
#76 = DIRECTION ( 'NONE',  ( 0.000000000000000000, 0.000000000000000000, 1.000000000000000000 ) ) ;
#77 = AXIS2_PLACEMENT_3D ( 'NONE', #15, #37, #134 ) ;
#78 = CARTESIAN_POINT ( 'NONE',  ( 6.000000000000000888, 7.347880794884120722E-16, 5.000000000000000000 ) ) ;
#79 = DIRECTION ( 'NONE',  ( -0.000000000000000000, -0.000000000000000000, -1.000000000000000000 ) ) ;
#80 = TOROIDAL_SURFACE ( 'NONE', #256, 3.299999999999999822, 0.2000000000000000111 ) ;
#81 = DIRECTION ( 'NONE',  ( 0.000000000000000000, 0.000000000000000000, 1.000000000000000000 ) ) ;
#82 = LOCAL_TIME ( 11, 55, 17.00000000000000000, #32 ) ;
#83 = EDGE_CURVE ( 'NONE', #285, #262, #240, .T. ) ;
#84 = DIRECTION ( 'NONE',  ( 0.000000000000000000, 0.000000000000000000, 1.000000000000000000 ) ) ;
#85 = APPROVAL_DATE_TIME ( #243, #191 ) ;
#86 = PRODUCT_DEFINITION_SHAPE ( 'NONE', 'NONE',  #304 ) ;
#87 = AXIS2_PLACEMENT_3D ( 'NONE', #56, #2, #30 ) ;
#88 =( LENGTH_UNIT ( ) NAMED_UNIT ( * ) SI_UNIT ( .MILLI., .METRE. ) );
#89 = SECURITY_CLASSIFICATION_LEVEL ( 'unclassified' ) ;
#90 = CC_DESIGN_DATE_AND_TIME_ASSIGNMENT ( #110, #156, ( #304 ) ) ;
#91 = AXIS2_PLACEMENT_3D ( 'NONE', #10, #11, #159 ) ;
#92 = DIRECTION ( 'NONE',  ( -0.000000000000000000, -0.000000000000000000, -1.000000000000000000 ) ) ;
#93 = COORDINATED_UNIVERSAL_TIME_OFFSET ( 1, 0, .AHEAD. ) ;
#94 = DIRECTION ( 'NONE',  ( -1.000000000000000000, 0.000000000000000000, 0.000000000000000000 ) ) ;
#95 = ADVANCED_FACE ( 'NONE', ( #102 ), #80, .F. ) ;
#96 = SHAPE_DEFINITION_REPRESENTATION ( #86, #219 ) ;
#97 = VERTEX_POINT ( 'NONE', #196 ) ;
#98 = ORIENTED_EDGE ( 'NONE', *, *, #21, .T. ) ;
#99 = ORIENTED_EDGE ( 'NONE', *, *, #217, .F. ) ;
#100 = VERTEX_POINT ( 'NONE', #172 ) ;
#101 = CLOSED_SHELL ( 'NONE', ( #297, #282, #231, #171, #111, #293, #266, #155, #95 ) ) ;
#102 = FACE_OUTER_BOUND ( 'NONE', #145, .T. ) ;
#103 = CARTESIAN_POINT ( 'NONE',  ( 0.000000000000000000, 0.000000000000000000, 5.199999999999982414 ) ) ;
#104 = ORIENTED_EDGE ( 'NONE', *, *, #250, .T. ) ;
#105 = CIRCLE ( 'NONE', #52, 0.1999999999999996503 ) ;
#106 = AXIS2_PLACEMENT_3D ( 'NONE', #152, #6, #272 ) ;
#107 = PERSON_AND_ORGANIZATION ( #220, #229 ) ;
#108 = ORIENTED_EDGE ( 'NONE', *, *, #17, .T. ) ;
#109 = LOCAL_TIME ( 11, 55, 17.00000000000000000, #57 ) ;
#110 = DATE_AND_TIME ( #175, #214 ) ;
#111 = ADVANCED_FACE ( 'NONE', ( #149, #218 ), #28, .T. ) ;
#112 = PERSON_AND_ORGANIZATION ( #220, #229 ) ;
#113 = AXIS2_PLACEMENT_3D ( 'NONE', #281, #40, #162 ) ;
#114 = CARTESIAN_POINT ( 'NONE',  ( 0.000000000000000000, 0.000000000000000000, 805.0000000000000000 ) ) ;
#115 = ORIENTED_EDGE ( 'NONE', *, *, #238, .T. ) ;
#116 = AXIS2_PLACEMENT_3D ( 'NONE', #64, #302, #203 ) ;
#117 = EDGE_CURVE ( 'NONE', #141, #122, #197, .T. ) ;
#118 = AXIS2_PLACEMENT_3D ( 'NONE', #7, #81, #271 ) ;
#119 = AXIS2_PLACEMENT_3D ( 'NONE', #54, #307, #189 ) ;
#120 = VERTEX_POINT ( 'NONE', #168 ) ;
#121 = ORIENTED_EDGE ( 'NONE', *, *, #55, .F. ) ;
#122 = VERTEX_POINT ( 'NONE', #126 ) ;
#123 = PERSON_AND_ORGANIZATION_ROLE ( 'classification_officer' ) ;
#124 = DIRECTION ( 'NONE',  ( 1.224646799147353207E-16, 1.000000000000000000, -0.000000000000000000 ) ) ;
#125 = APPROVAL_ROLE ( '' ) ;
#126 = CARTESIAN_POINT ( 'NONE',  ( 3.100000000000000089, 3.796405077356794918E-16, 805.0000000000000000 ) ) ;
#127 = MECHANICAL_CONTEXT ( 'NONE', #274, 'mechanical' ) ;
#128 = CARTESIAN_POINT ( 'NONE',  ( -3.100000000000000089, 0.000000000000000000, 805.0000000000000000 ) ) ;
#129 = APPROVAL_DATE_TIME ( #153, #25 ) ;
#130 = DIRECTION ( 'NONE',  ( -0.000000000000000000, -0.000000000000000000, -1.000000000000000000 ) ) ;
#131 = DIRECTION ( 'NONE',  ( 1.000000000000000000, 0.000000000000000000, 0.000000000000000000 ) ) ;
#132 = FACE_OUTER_BOUND ( 'NONE', #284, .T. ) ;
#133 = VECTOR ( 'NONE', #194, 1000.000000000000000 ) ;
#134 = DIRECTION ( 'NONE',  ( -1.000000000000000000, 0.000000000000000000, 0.000000000000000000 ) ) ;
#135 = EDGE_CURVE ( 'NONE', #120, #97, #105, .T. ) ;
#136 = DATE_TIME_ROLE ( 'classification_date' ) ;
#137 = ORIENTED_EDGE ( 'NONE', *, *, #164, .F. ) ;
#138 = CIRCLE ( 'NONE', #1, 3.100000000000000089 ) ;
#139 = ORIENTED_EDGE ( 'NONE', *, *, #135, .F. ) ;
#140 = CC_DESIGN_PERSON_AND_ORGANIZATION_ASSIGNMENT ( #202, #198, ( #304 ) ) ;
#141 = VERTEX_POINT ( 'NONE', #192 ) ;
#142 = CC_DESIGN_PERSON_AND_ORGANIZATION_ASSIGNMENT ( #278, #123, ( #221 ) ) ;
#143 = APPLICATION_PROTOCOL_DEFINITION ( 'international standard', 'config_control_design', 1994, #274 ) ;
#144 = ORIENTED_EDGE ( 'NONE', *, *, #83, .T. ) ;
#145 = EDGE_LOOP ( 'NONE', ( #233, #165, #188, #99 ) ) ;
#146 = DIRECTION ( 'NONE',  ( 1.000000000000000000, 0.000000000000000000, -0.000000000000000000 ) ) ;
#147 = EDGE_CURVE ( 'NONE', #211, #100, #51, .T. ) ;
#148 = DIRECTION ( 'NONE',  ( 1.000000000000000000, 0.000000000000000000, 0.000000000000000000 ) ) ;
#149 = FACE_BOUND ( 'NONE', #70, .T. ) ;
#150 = AXIS2_PLACEMENT_3D ( 'NONE', #60, #245, #146 ) ;
#151 = DIRECTION ( 'NONE',  ( 1.000000000000000000, 0.000000000000000000, 0.000000000000000000 ) ) ;
#152 = CARTESIAN_POINT ( 'NONE',  ( 0.000000000000000000, 0.000000000000000000, 5.000000000000000000 ) ) ;
#153 = DATE_AND_TIME ( #36, #82 ) ;
#154 = CARTESIAN_POINT ( 'NONE',  ( 0.000000000000000000, 0.000000000000000000, 5.000000000000000000 ) ) ;
#155 = ADVANCED_FACE ( 'NONE', ( #268 ), #290, .T. ) ;
#156 = DATE_TIME_ROLE ( 'creation_date' ) ;
#157 = CARTESIAN_POINT ( 'NONE',  ( -6.000000000000000888, 0.000000000000000000, 0.000000000000000000 ) ) ;
#158 = AXIS2_PLACEMENT_3D ( 'NONE', #114, #206, #94 ) ;
#159 = DIRECTION ( 'NONE',  ( 1.000000000000000000, 0.000000000000000000, 0.000000000000000000 ) ) ;
#160 = CC_DESIGN_SECURITY_CLASSIFICATION ( #221, ( #283 ) ) ;
#161 = MANIFOLD_SOLID_BREP ( 'Zaoblit1', #101 ) ;
#162 = DIRECTION ( 'NONE',  ( 1.000000000000000000, 0.000000000000000000, 0.000000000000000000 ) ) ;
#163 = ORIENTED_EDGE ( 'NONE', *, *, #117, .T. ) ;
#164 = EDGE_CURVE ( 'NONE', #141, #285, #267, .T. ) ;
#165 = ORIENTED_EDGE ( 'NONE', *, *, #21, .F. ) ;
#166 = AXIS2_PLACEMENT_3D ( 'NONE', #8, #179, #131 ) ;
#167 = ORIENTED_EDGE ( 'NONE', *, *, #287, .F. ) ;
#168 = CARTESIAN_POINT ( 'NONE',  ( 3.100000000000000089, 3.796405077356794918E-16, 5.199999999999982414 ) ) ;
#169 = LINE ( 'NONE', #78, #34 ) ;
#170 = CARTESIAN_POINT ( 'NONE',  ( -6.000000000000000888, 0.000000000000000000, 5.000000000000000000 ) ) ;
#171 = ADVANCED_FACE ( 'NONE', ( #237 ), #23, .T. ) ;
#172 = CARTESIAN_POINT ( 'NONE',  ( -6.000000000000000888, 0.000000000000000000, 5.000000000000000000 ) ) ;
#173 = DIRECTION ( 'NONE',  ( 0.000000000000000000, -1.000000000000000000, 0.000000000000000000 ) ) ;
#174 = CARTESIAN_POINT ( 'NONE',  ( 0.000000000000000000, 0.000000000000000000, 0.000000000000000000 ) ) ;
#175 = CALENDAR_DATE ( 2022, 20, 6 ) ;
#176 = CC_DESIGN_PERSON_AND_ORGANIZATION_ASSIGNMENT ( #275, #226, ( #178 ) ) ;
#177 = DIRECTION ( 'NONE',  ( -0.000000000000000000, -0.000000000000000000, -1.000000000000000000 ) ) ;
#178 = PRODUCT ( '8e44', '8e44', '', ( #127 ) ) ;
#179 = DIRECTION ( 'NONE',  ( -0.000000000000000000, -0.000000000000000000, -1.000000000000000000 ) ) ;
#180 =( NAMED_UNIT ( * ) PLANE_ANGLE_UNIT ( ) SI_UNIT ( $, .RADIAN. ) );
#181 = CARTESIAN_POINT ( 'NONE',  ( -3.100000000000000089, 0.000000000000000000, 5.199999999999982414 ) ) ;
#182 = CC_DESIGN_DATE_AND_TIME_ASSIGNMENT ( #300, #136, ( #221 ) ) ;
#183 = CIRCLE ( 'NONE', #116, 3.100000000000000089 ) ;
#184 = CC_DESIGN_PERSON_AND_ORGANIZATION_ASSIGNMENT ( #248, #9, ( #283 ) ) ;
#185 = ORIENTED_EDGE ( 'NONE', *, *, #250, .F. ) ;
#186 = EDGE_LOOP ( 'NONE', ( #305, #144, #20, #139 ) ) ;
#187 = EDGE_CURVE ( 'NONE', #211, #288, #169, .T. ) ;
#188 = ORIENTED_EDGE ( 'NONE', *, *, #135, .T. ) ;
#189 = DIRECTION ( 'NONE',  ( -1.000000000000000000, 0.000000000000000000, 0.000000000000000000 ) ) ;
#190 = AXIS2_PLACEMENT_3D ( 'NONE', #195, #84, #29 ) ;
#191 = APPROVAL ( #222, 'NEURÈENÝ' ) ;
#192 = CARTESIAN_POINT ( 'NONE',  ( -3.100000000000000089, 0.000000000000000000, 805.0000000000000000 ) ) ;
#193 = APPLICATION_PROTOCOL_DEFINITION ( 'international standard', 'config_control_design', 1994, #31 ) ;
#194 = DIRECTION ( 'NONE',  ( -0.000000000000000000, -0.000000000000000000, -1.000000000000000000 ) ) ;
#195 = CARTESIAN_POINT ( 'NONE',  ( 0.000000000000000000, 0.000000000000000000, 0.000000000000000000 ) ) ;
#196 = CARTESIAN_POINT ( 'NONE',  ( 3.299999999999999822, 0.000000000000000000, 4.999999999999991118 ) ) ;
#197 = CIRCLE ( 'NONE', #234, 3.100000000000000089 ) ;
#198 = PERSON_AND_ORGANIZATION_ROLE ( 'creator' ) ;
#199 = CIRCLE ( 'NONE', #91, 3.100000000000000089 ) ;
#200 = CARTESIAN_POINT ( 'NONE',  ( 0.000000000000000000, 0.000000000000000000, 0.000000000000000000 ) ) ;
#201 = PERSON_AND_ORGANIZATION ( #220, #229 ) ;
#202 = PERSON_AND_ORGANIZATION ( #220, #229 ) ;
#203 = DIRECTION ( 'NONE',  ( 1.000000000000000000, 0.000000000000000000, 0.000000000000000000 ) ) ;
#204 = AXIS2_PLACEMENT_3D ( 'NONE', #200, #241, #294 ) ;
#205 =( GEOMETRIC_REPRESENTATION_CONTEXT ( 3 ) GLOBAL_UNCERTAINTY_ASSIGNED_CONTEXT ( ( #50 ) ) GLOBAL_UNIT_ASSIGNED_CONTEXT ( ( #88, #180, #14 ) ) REPRESENTATION_CONTEXT ( 'NONE', 'WORKASPACE' ) );
#206 = DIRECTION ( 'NONE',  ( -0.000000000000000000, -0.000000000000000000, -1.000000000000000000 ) ) ;
#207 = FACE_OUTER_BOUND ( 'NONE', #215, .T. ) ;
#208 = EDGE_LOOP ( 'NONE', ( #163, #104 ) ) ;
#209 = APPROVAL ( #39, 'NEURÈENÝ' ) ;
#210 = DESIGN_CONTEXT ( 'detailed design', #31, 'design' ) ;
#211 = VERTEX_POINT ( 'NONE', #257 ) ;
#212 = ORIENTED_EDGE ( 'NONE', *, *, #287, .T. ) ;
#213 = EDGE_CURVE ( 'NONE', #97, #262, #247, .T. ) ;
#214 = LOCAL_TIME ( 11, 55, 17.00000000000000000, #291 ) ;
#215 = EDGE_LOOP ( 'NONE', ( #265, #259, #108, #44 ) ) ;
#216 = DIRECTION ( 'NONE',  ( 0.000000000000000000, 0.000000000000000000, 1.000000000000000000 ) ) ;
#217 = EDGE_CURVE ( 'NONE', #262, #97, #236, .T. ) ;
#218 = FACE_OUTER_BOUND ( 'NONE', #69, .T. ) ;
#219 = ADVANCED_BREP_SHAPE_REPRESENTATION ( '8e44', ( #161, #190 ), #205 ) ;
#220 = PERSON ( 'NEURÈENÝ', 'NEURÈENÝ', 'NEURÈENÝ', ('NEURÈENÝ'), ('NEURÈENÝ'), ('NEURÈENÝ') ) ;
#221 = SECURITY_CLASSIFICATION ( '', '', #89 ) ;
#222 = APPROVAL_STATUS ( 'not_yet_approved' ) ;
#223 = DIRECTION ( 'NONE',  ( -1.000000000000000000, 1.224646799147353207E-16, 0.000000000000000000 ) ) ;
#224 = COORDINATED_UNIVERSAL_TIME_OFFSET ( 1, 0, .AHEAD. ) ;
#225 = CARTESIAN_POINT ( 'NONE',  ( 3.299999999999999822, 0.000000000000000000, 5.199999999999982414 ) ) ;
#226 = PERSON_AND_ORGANIZATION_ROLE ( 'design_owner' ) ;
#227 = DIRECTION ( 'NONE',  ( -0.000000000000000000, -0.000000000000000000, -1.000000000000000000 ) ) ;
#228 = FACE_OUTER_BOUND ( 'NONE', #49, .T. ) ;
#229 = ORGANIZATION ( 'NEURÈENÝ', 'NEURÈENÝ', '' ) ;
#230 = ORIENTED_EDGE ( 'NONE', *, *, #187, .F. ) ;
#231 = ADVANCED_FACE ( 'NONE', ( #207 ), #246, .T. ) ;
#232 = VERTEX_POINT ( 'NONE', #157 ) ;
#233 = ORIENTED_EDGE ( 'NONE', *, *, #83, .F. ) ;
#234 = AXIS2_PLACEMENT_3D ( 'NONE', #53, #216, #58 ) ;
#235 = CC_DESIGN_PERSON_AND_ORGANIZATION_ASSIGNMENT ( #112, #298, ( #283 ) ) ;
#236 = CIRCLE ( 'NONE', #166, 3.299999999999999822 ) ;
#237 = FACE_OUTER_BOUND ( 'NONE', #286, .T. ) ;
#238 = EDGE_CURVE ( 'NONE', #285, #120, #199, .T. ) ;
#239 = DIRECTION ( 'NONE',  ( 0.000000000000000000, 0.000000000000000000, -1.000000000000000000 ) ) ;
#240 = CIRCLE ( 'NONE', #38, 0.2000000000000000944 ) ;
#241 = DIRECTION ( 'NONE',  ( 0.000000000000000000, 0.000000000000000000, 1.000000000000000000 ) ) ;
#242 = APPROVAL_PERSON_ORGANIZATION ( #252, #209, #68 ) ;
#243 = DATE_AND_TIME ( #270, #109 ) ;
#244 = CARTESIAN_POINT ( 'NONE',  ( -3.299999999999999822, 4.041334437186265510E-16, 5.199999999999982414 ) ) ;
#245 = DIRECTION ( 'NONE',  ( 0.000000000000000000, 0.000000000000000000, 1.000000000000000000 ) ) ;
#246 = CYLINDRICAL_SURFACE ( 'NONE', #289, 6.000000000000000888 ) ;
#247 = CIRCLE ( 'NONE', #12, 3.299999999999999822 ) ;
#248 = PERSON_AND_ORGANIZATION ( #220, #229 ) ;
#249 = CC_DESIGN_APPROVAL ( #25, ( #283 ) ) ;
#250 = EDGE_CURVE ( 'NONE', #122, #141, #183, .T. ) ;
#251 = FACE_OUTER_BOUND ( 'NONE', #186, .T. ) ;
#252 = PERSON_AND_ORGANIZATION ( #220, #229 ) ;
#253 = CARTESIAN_POINT ( 'NONE',  ( -3.299999999999999822, 4.041334437186265510E-16, 4.999999999999991118 ) ) ;
#254 = DIRECTION ( 'NONE',  ( 0.000000000000000000, 0.000000000000000000, 1.000000000000000000 ) ) ;
#255 = CYLINDRICAL_SURFACE ( 'NONE', #77, 3.100000000000000089 ) ;
#256 = AXIS2_PLACEMENT_3D ( 'NONE', #103, #292, #148 ) ;
#257 = CARTESIAN_POINT ( 'NONE',  ( 6.000000000000000888, 7.347880794884120722E-16, 5.000000000000000000 ) ) ;
#258 = VECTOR ( 'NONE', #227, 1000.000000000000000 ) ;
#259 = ORIENTED_EDGE ( 'NONE', *, *, #187, .T. ) ;
#260 = APPROVAL_DATE_TIME ( #301, #209 ) ;
#261 = CARTESIAN_POINT ( 'NONE',  ( 6.000000000000000888, 7.347880794884120722E-16, 0.000000000000000000 ) ) ;
#262 = VERTEX_POINT ( 'NONE', #253 ) ;
#263 = ORIENTED_EDGE ( 'NONE', *, *, #164, .T. ) ;
#264 = LOCAL_TIME ( 11, 55, 17.00000000000000000, #224 ) ;
#265 = ORIENTED_EDGE ( 'NONE', *, *, #147, .F. ) ;
#266 = ADVANCED_FACE ( 'NONE', ( #132 ), #255, .T. ) ;
#267 = LINE ( 'NONE', #128, #258 ) ;
#268 = FACE_OUTER_BOUND ( 'NONE', #208, .T. ) ;
#269 = CARTESIAN_POINT ( 'NONE',  ( 0.000000000000000000, 0.000000000000000000, 5.199999999999982414 ) ) ;
#270 = CALENDAR_DATE ( 2022, 20, 6 ) ;
#271 = DIRECTION ( 'NONE',  ( 1.000000000000000000, 0.000000000000000000, -0.000000000000000000 ) ) ;
#272 = DIRECTION ( 'NONE',  ( 1.000000000000000000, 0.000000000000000000, 0.000000000000000000 ) ) ;
#273 = APPROVAL_ROLE ( '' ) ;
#274 = APPLICATION_CONTEXT ( 'configuration controlled 3d designs of mechanical parts and assemblies' ) ;
#275 = PERSON_AND_ORGANIZATION ( #220, #229 ) ;
#276 = DIRECTION ( 'NONE',  ( 1.000000000000000000, 0.000000000000000000, 0.000000000000000000 ) ) ;
#277 = CIRCLE ( 'NONE', #204, 6.000000000000000888 ) ;
#278 = PERSON_AND_ORGANIZATION ( #220, #229 ) ;
#279 = DIRECTION ( 'NONE',  ( 1.000000000000000000, 0.000000000000000000, -0.000000000000000000 ) ) ;
#280 = DIRECTION ( 'NONE',  ( -1.000000000000000000, 0.000000000000000000, 0.000000000000000000 ) ) ;
#281 = CARTESIAN_POINT ( 'NONE',  ( 0.000000000000000000, 0.000000000000000000, 5.000000000000000000 ) ) ;
#282 = ADVANCED_FACE ( 'NONE', ( #228 ), #13, .T. ) ;
#283 = PRODUCT_DEFINITION_FORMATION_WITH_SPECIFIED_SOURCE ( 'LIBOVOLNÝ', '', #178, .NOT_KNOWN. ) ;
#284 = EDGE_LOOP ( 'NONE', ( #121, #24, #263, #115 ) ) ;
#285 = VERTEX_POINT ( 'NONE', #181 ) ;
#286 = EDGE_LOOP ( 'NONE', ( #230, #167, #41, #306 ) ) ;
#287 = EDGE_CURVE ( 'NONE', #100, #211, #67, .T. ) ;
#288 = VERTEX_POINT ( 'NONE', #261 ) ;
#289 = AXIS2_PLACEMENT_3D ( 'NONE', #154, #130, #280 ) ;
#290 = PLANE ( 'NONE',  #150 ) ;
#291 = COORDINATED_UNIVERSAL_TIME_OFFSET ( 1, 0, .AHEAD. ) ;
#292 = DIRECTION ( 'NONE',  ( 0.000000000000000000, 0.000000000000000000, 1.000000000000000000 ) ) ;
#293 = ADVANCED_FACE ( 'NONE', ( #43 ), #59, .F. ) ;
#294 = DIRECTION ( 'NONE',  ( 1.000000000000000000, 0.000000000000000000, 0.000000000000000000 ) ) ;
#295 = LOCAL_TIME ( 11, 55, 17.00000000000000000, #93 ) ;
#296 = LINE ( 'NONE', #170, #133 ) ;
#297 = ADVANCED_FACE ( 'NONE', ( #251 ), #22, .F. ) ;
#298 = PERSON_AND_ORGANIZATION_ROLE ( 'design_supplier' ) ;
#299 = CC_DESIGN_APPROVAL ( #209, ( #221 ) ) ;
#300 = DATE_AND_TIME ( #5, #264 ) ;
#301 = DATE_AND_TIME ( #42, #295 ) ;
#302 = DIRECTION ( 'NONE',  ( 0.000000000000000000, 0.000000000000000000, 1.000000000000000000 ) ) ;
#303 = PRODUCT_RELATED_PRODUCT_CATEGORY ( 'detail', '', ( #178 ) ) ;
#304 = PRODUCT_DEFINITION ( 'NEZNÁMÝ', '', #283, #210 ) ;
#305 = ORIENTED_EDGE ( 'NONE', *, *, #238, .F. ) ;
#306 = ORIENTED_EDGE ( 'NONE', *, *, #65, .T. ) ;
#307 = DIRECTION ( 'NONE',  ( -0.000000000000000000, -0.000000000000000000, -1.000000000000000000 ) ) ;
ENDSEC;
END-ISO-10303-21;
