ISO-10303-21;
HEADER;
FILE_DESCRIPTION (( 'STEP AP203' ),
    '1' );
FILE_NAME ('d66c.STEP',
    '2022-06-20T10:05:34',
    ( '' ),
    ( '' ),
    'SwSTEP 2.0',
    'SolidWorks 2019',
    '' );
FILE_SCHEMA (( 'CONFIG_CONTROL_DESIGN' ));
ENDSEC;

DATA;
#1 = DIRECTION ( 'NONE',  ( 1.000000000000000000, 0.000000000000000000, -0.000000000000000000 ) ) ;
#2 = ORIENTED_EDGE ( 'NONE', *, *, #179, .F. ) ;
#3 = PERSON_AND_ORGANIZATION ( #306, #190 ) ;
#4 = ORIENTED_EDGE ( 'NONE', *, *, #196, .F. ) ;
#5 = AXIS2_PLACEMENT_3D ( 'NONE', #42, #277, #234 ) ;
#6 = CARTESIAN_POINT ( 'NONE',  ( 0.000000000000000000, 0.000000000000000000, 3.000000000000000000 ) ) ;
#7 = CARTESIAN_POINT ( 'NONE',  ( 0.000000000000000000, 0.000000000000000000, 3.000000000000000000 ) ) ;
#8 = CARTESIAN_POINT ( 'NONE',  ( 0.000000000000000000, 0.000000000000000000, 0.000000000000000000 ) ) ;
#9 = CARTESIAN_POINT ( 'NONE',  ( 0.000000000000000000, 0.000000000000000000, 253.0000000000000000 ) ) ;
#10 = VECTOR ( 'NONE', #289, 1000.000000000000000 ) ;
#11 = CIRCLE ( 'NONE', #174, 0.2000000000000000944 ) ;
#12 = COORDINATED_UNIVERSAL_TIME_OFFSET ( 1, 0, .AHEAD. ) ;
#13 = DIRECTION ( 'NONE',  ( 0.000000000000000000, -1.000000000000000000, 0.000000000000000000 ) ) ;
#14 = DIRECTION ( 'NONE',  ( -1.000000000000000000, 0.000000000000000000, 0.000000000000000000 ) ) ;
#15 = EDGE_CURVE ( 'NONE', #284, #80, #249, .T. ) ;
#16 = CARTESIAN_POINT ( 'NONE',  ( 0.000000000000000000, 0.000000000000000000, 253.0000000000000000 ) ) ;
#17 = DATE_AND_TIME ( #68, #123 ) ;
#18 = CARTESIAN_POINT ( 'NONE',  ( 0.000000000000000000, 0.000000000000000000, 3.000000000000000000 ) ) ;
#19 = AXIS2_PLACEMENT_3D ( 'NONE', #18, #153, #279 ) ;
#20 = PRODUCT_DEFINITION_SHAPE ( 'NONE', 'NONE',  #290 ) ;
#21 = COORDINATED_UNIVERSAL_TIME_OFFSET ( 1, 0, .AHEAD. ) ;
#22 = MANIFOLD_SOLID_BREP ( 'Zaoblit1', #117 ) ;
#23 = LINE ( 'NONE', #140, #288 ) ;
#24 = CC_DESIGN_DATE_AND_TIME_ASSIGNMENT ( #207, #211, ( #146 ) ) ;
#25 = ORIENTED_EDGE ( 'NONE', *, *, #175, .F. ) ;
#26 = EDGE_CURVE ( 'NONE', #218, #97, #100, .T. ) ;
#27 = FACE_OUTER_BOUND ( 'NONE', #119, .T. ) ;
#28 = EDGE_LOOP ( 'NONE', ( #53, #33, #71, #72 ) ) ;
#29 = CIRCLE ( 'NONE', #265, 2.250000000000000000 ) ;
#30 = ORIENTED_EDGE ( 'NONE', *, *, #113, .F. ) ;
#31 = FACE_OUTER_BOUND ( 'NONE', #184, .T. ) ;
#32 =( LENGTH_UNIT ( ) NAMED_UNIT ( * ) SI_UNIT ( .MILLI., .METRE. ) );
#33 = ORIENTED_EDGE ( 'NONE', *, *, #141, .F. ) ;
#34 = CIRCLE ( 'NONE', #74, 2.449999999999999734 ) ;
#35 = APPLICATION_CONTEXT ( 'configuration controlled 3d designs of mechanical parts and assemblies' ) ;
#36 = PERSON_AND_ORGANIZATION ( #306, #190 ) ;
#37 = ADVANCED_FACE ( 'NONE', ( #267 ), #198, .T. ) ;
#38 = DIRECTION ( 'NONE',  ( 0.000000000000000000, 0.000000000000000000, 1.000000000000000000 ) ) ;
#39 = AXIS2_PLACEMENT_3D ( 'NONE', #222, #194, #1 ) ;
#40 = AXIS2_PLACEMENT_3D ( 'NONE', #16, #235, #142 ) ;
#41 = PERSON_AND_ORGANIZATION ( #306, #190 ) ;
#42 = CARTESIAN_POINT ( 'NONE',  ( 0.000000000000000000, 0.000000000000000000, 253.0000000000000000 ) ) ;
#43 = CARTESIAN_POINT ( 'NONE',  ( 4.000000000000000000, 4.898587196589412829E-16, 3.000000000000000000 ) ) ;
#44 = COORDINATED_UNIVERSAL_TIME_OFFSET ( 1, 0, .AHEAD. ) ;
#45 = FACE_OUTER_BOUND ( 'NONE', #148, .T. ) ;
#46 = CIRCLE ( 'NONE', #83, 0.2000000000000000944 ) ;
#47 = CC_DESIGN_PERSON_AND_ORGANIZATION_ASSIGNMENT ( #41, #132, ( #183 ) ) ;
#48 = ORIENTED_EDGE ( 'NONE', *, *, #26, .F. ) ;
#49 = ORIENTED_EDGE ( 'NONE', *, *, #232, .F. ) ;
#50 = AXIS2_PLACEMENT_3D ( 'NONE', #8, #108, #64 ) ;
#51 = LOCAL_TIME ( 12, 5, 34.00000000000000000, #12 ) ;
#52 = CARTESIAN_POINT ( 'NONE',  ( 4.000000000000000000, 4.898587196589412829E-16, 0.000000000000000000 ) ) ;
#53 = ORIENTED_EDGE ( 'NONE', *, *, #161, .F. ) ;
#54 = AXIS2_PLACEMENT_3D ( 'NONE', #78, #168, #81 ) ;
#55 = DIRECTION ( 'NONE',  ( 0.000000000000000000, 0.000000000000000000, 1.000000000000000000 ) ) ;
#56 = CIRCLE ( 'NONE', #40, 2.250000000000000000 ) ;
#57 = ADVANCED_FACE ( 'NONE', ( #248, #125 ), #127, .T. ) ;
#58 = APPROVAL_STATUS ( 'not_yet_approved' ) ;
#59 = CARTESIAN_POINT ( 'NONE',  ( 0.000000000000000000, 0.000000000000000000, 3.000000000000000000 ) ) ;
#60 = DIRECTION ( 'NONE',  ( -1.000000000000000000, 0.000000000000000000, 0.000000000000000000 ) ) ;
#61 = CALENDAR_DATE ( 2022, 20, 6 ) ;
#62 = CARTESIAN_POINT ( 'NONE',  ( 4.000000000000000000, 4.898587196589412829E-16, 3.000000000000000000 ) ) ;
#63 = ADVANCED_FACE ( 'NONE', ( #144 ), #167, .T. ) ;
#64 = DIRECTION ( 'NONE',  ( 1.000000000000000000, 0.000000000000000000, -0.000000000000000000 ) ) ;
#65 = LINE ( 'NONE', #62, #95 ) ;
#66 = PERSON_AND_ORGANIZATION_ROLE ( 'creator' ) ;
#67 = DIRECTION ( 'NONE',  ( 0.000000000000000000, 0.000000000000000000, 1.000000000000000000 ) ) ;
#68 = CALENDAR_DATE ( 2022, 20, 6 ) ;
#69 = ORIENTED_EDGE ( 'NONE', *, *, #15, .F. ) ;
#70 = CIRCLE ( 'NONE', #285, 2.250000000000000000 ) ;
#71 = ORIENTED_EDGE ( 'NONE', *, *, #256, .T. ) ;
#72 = ORIENTED_EDGE ( 'NONE', *, *, #15, .T. ) ;
#73 = ADVANCED_FACE ( 'NONE', ( #27 ), #264, .T. ) ;
#74 = AXIS2_PLACEMENT_3D ( 'NONE', #258, #154, #206 ) ;
#75 = CIRCLE ( 'NONE', #189, 2.250000000000000000 ) ;
#76 = CARTESIAN_POINT ( 'NONE',  ( -4.000000000000000000, 0.000000000000000000, 3.000000000000000000 ) ) ;
#77 = EDGE_LOOP ( 'NONE', ( #261, #300 ) ) ;
#78 = CARTESIAN_POINT ( 'NONE',  ( 0.000000000000000000, 0.000000000000000000, 3.200000000000008171 ) ) ;
#79 = APPROVAL ( #58, 'NEURÈENÝ' ) ;
#80 = VERTEX_POINT ( 'NONE', #52 ) ;
#81 = DIRECTION ( 'NONE',  ( 1.000000000000000000, 0.000000000000000000, 0.000000000000000000 ) ) ;
#82 =( NAMED_UNIT ( * ) SI_UNIT ( $, .STERADIAN. ) SOLID_ANGLE_UNIT ( ) );
#83 = AXIS2_PLACEMENT_3D ( 'NONE', #209, #272, #296 ) ;
#84 = DIRECTION ( 'NONE',  ( 1.000000000000000000, 0.000000000000000000, 0.000000000000000000 ) ) ;
#85 = APPROVAL_STATUS ( 'not_yet_approved' ) ;
#86 = FACE_OUTER_BOUND ( 'NONE', #242, .T. ) ;
#87 = CARTESIAN_POINT ( 'NONE',  ( 0.000000000000000000, 0.000000000000000000, 0.000000000000000000 ) ) ;
#88 = TOROIDAL_SURFACE ( 'NONE', #54, 2.449999999999999734, 0.2000000000000000111 ) ;
#89 = PERSON_AND_ORGANIZATION ( #306, #190 ) ;
#90 = ADVANCED_FACE ( 'NONE', ( #31 ), #88, .F. ) ;
#91 = ORIENTED_EDGE ( 'NONE', *, *, #179, .T. ) ;
#92 = CALENDAR_DATE ( 2022, 20, 6 ) ;
#93 = EDGE_LOOP ( 'NONE', ( #48, #4, #118, #282 ) ) ;
#94 = CIRCLE ( 'NONE', #219, 4.000000000000000000 ) ;
#95 = VECTOR ( 'NONE', #257, 1000.000000000000000 ) ;
#96 = CC_DESIGN_DATE_AND_TIME_ASSIGNMENT ( #295, #281, ( #290 ) ) ;
#97 = VERTEX_POINT ( 'NONE', #171 ) ;
#98 = CARTESIAN_POINT ( 'NONE',  ( 0.000000000000000000, 0.000000000000000000, 3.000000000000000000 ) ) ;
#99 = ORIENTED_EDGE ( 'NONE', *, *, #256, .F. ) ;
#100 = LINE ( 'NONE', #203, #10 ) ;
#101 = AXIS2_PLACEMENT_3D ( 'NONE', #255, #67, #160 ) ;
#102 = CC_DESIGN_APPROVAL ( #221, ( #146 ) ) ;
#103 = EDGE_CURVE ( 'NONE', #122, #260, #94, .T. ) ;
#104 = CARTESIAN_POINT ( 'NONE',  ( 0.000000000000000000, 0.000000000000000000, 0.000000000000000000 ) ) ;
#105 = ORIENTED_EDGE ( 'NONE', *, *, #239, .F. ) ;
#106 = CARTESIAN_POINT ( 'NONE',  ( -2.449999999999999734, 3.000384657911015370E-16, 3.000000000000004441 ) ) ;
#107 = APPROVAL_PERSON_ORGANIZATION ( #89, #221, #283 ) ;
#108 = DIRECTION ( 'NONE',  ( 0.000000000000000000, 0.000000000000000000, 1.000000000000000000 ) ) ;
#109 = COORDINATED_UNIVERSAL_TIME_OFFSET ( 1, 0, .AHEAD. ) ;
#110 = ADVANCED_FACE ( 'NONE', ( #86 ), #157, .T. ) ;
#111 = DIRECTION ( 'NONE',  ( -0.000000000000000000, -0.000000000000000000, -1.000000000000000000 ) ) ;
#112 = SHAPE_DEFINITION_REPRESENTATION ( #20, #287 ) ;
#113 = EDGE_CURVE ( 'NONE', #215, #263, #34, .T. ) ;
#114 = APPROVAL_DATE_TIME ( #233, #268 ) ;
#115 = ORIENTED_EDGE ( 'NONE', *, *, #239, .T. ) ;
#116 = CC_DESIGN_PERSON_AND_ORGANIZATION_ASSIGNMENT ( #36, #66, ( #290 ) ) ;
#117 = CLOSED_SHELL ( 'NONE', ( #208, #110, #73, #37, #57, #216, #166, #63, #90 ) ) ;
#118 = ORIENTED_EDGE ( 'NONE', *, *, #304, .T. ) ;
#119 = EDGE_LOOP ( 'NONE', ( #286, #186, #245, #99 ) ) ;
#120 = ORIENTED_EDGE ( 'NONE', *, *, #113, .T. ) ;
#121 = CC_DESIGN_PERSON_AND_ORGANIZATION_ASSIGNMENT ( #299, #134, ( #146 ) ) ;
#122 = VERTEX_POINT ( 'NONE', #43 ) ;
#123 = LOCAL_TIME ( 12, 5, 34.00000000000000000, #21 ) ;
#124 = PERSON_AND_ORGANIZATION ( #306, #190 ) ;
#125 = FACE_OUTER_BOUND ( 'NONE', #77, .T. ) ;
#126 = LINE ( 'NONE', #271, #220 ) ;
#127 = PLANE ( 'NONE',  #39 ) ;
#128 = VERTEX_POINT ( 'NONE', #212 ) ;
#129 = APPROVAL_ROLE ( '' ) ;
#130 = CARTESIAN_POINT ( 'NONE',  ( 2.449999999999999734, 0.000000000000000000, 3.200000000000008171 ) ) ;
#131 = DIRECTION ( 'NONE',  ( 1.000000000000000000, 0.000000000000000000, 0.000000000000000000 ) ) ;
#132 = PERSON_AND_ORGANIZATION_ROLE ( 'creator' ) ;
#133 = CYLINDRICAL_SURFACE ( 'NONE', #5, 2.250000000000000000 ) ;
#134 = PERSON_AND_ORGANIZATION_ROLE ( 'classification_officer' ) ;
#135 = DIRECTION ( 'NONE',  ( 0.000000000000000000, 0.000000000000000000, -1.000000000000000000 ) ) ;
#136 = DIRECTION ( 'NONE',  ( 1.000000000000000000, 0.000000000000000000, 0.000000000000000000 ) ) ;
#137 = PERSON_AND_ORGANIZATION ( #306, #190 ) ;
#138 = APPROVAL_PERSON_ORGANIZATION ( #3, #79, #129 ) ;
#139 = ORIENTED_EDGE ( 'NONE', *, *, #192, .F. ) ;
#140 = CARTESIAN_POINT ( 'NONE',  ( -4.000000000000000000, 0.000000000000000000, 3.000000000000000000 ) ) ;
#141 = EDGE_CURVE ( 'NONE', #260, #122, #301, .T. ) ;
#142 = DIRECTION ( 'NONE',  ( 1.000000000000000000, 0.000000000000000000, 0.000000000000000000 ) ) ;
#143 = DIRECTION ( 'NONE',  ( -1.000000000000000000, 0.000000000000000000, 0.000000000000000000 ) ) ;
#144 = FACE_OUTER_BOUND ( 'NONE', #247, .T. ) ;
#145 = ORIENTED_EDGE ( 'NONE', *, *, #188, .T. ) ;
#146 = SECURITY_CLASSIFICATION ( '', '', #214 ) ;
#147 = PRODUCT_RELATED_PRODUCT_CATEGORY ( 'detail', '', ( #298 ) ) ;
#148 = EDGE_LOOP ( 'NONE', ( #49, #145, #30, #25 ) ) ;
#149 = DIRECTION ( 'NONE',  ( -0.000000000000000000, -0.000000000000000000, -1.000000000000000000 ) ) ;
#150 = DIRECTION ( 'NONE',  ( 1.000000000000000000, 0.000000000000000000, 0.000000000000000000 ) ) ;
#151 = CARTESIAN_POINT ( 'NONE',  ( 0.000000000000000000, 0.000000000000000000, 3.200000000000008171 ) ) ;
#152 = DATE_AND_TIME ( #61, #159 ) ;
#153 = DIRECTION ( 'NONE',  ( 0.000000000000000000, 0.000000000000000000, 1.000000000000000000 ) ) ;
#154 = DIRECTION ( 'NONE',  ( -0.000000000000000000, -0.000000000000000000, -1.000000000000000000 ) ) ;
#155 = PERSON_AND_ORGANIZATION ( #306, #190 ) ;
#156 = APPROVAL_ROLE ( '' ) ;
#157 = CYLINDRICAL_SURFACE ( 'NONE', #297, 2.250000000000000000 ) ;
#158 = AXIS2_PLACEMENT_3D ( 'NONE', #6, #243, #60 ) ;
#159 = LOCAL_TIME ( 12, 5, 34.00000000000000000, #270 ) ;
#160 = DIRECTION ( 'NONE',  ( 1.000000000000000000, 0.000000000000000000, 0.000000000000000000 ) ) ;
#161 = EDGE_CURVE ( 'NONE', #122, #80, #65, .T. ) ;
#162 = DIRECTION ( 'NONE',  ( 0.000000000000000000, 0.000000000000000000, 1.000000000000000000 ) ) ;
#163 = CIRCLE ( 'NONE', #240, 2.449999999999999734 ) ;
#164 = LOCAL_TIME ( 12, 5, 34.00000000000000000, #109 ) ;
#165 = ORIENTED_EDGE ( 'NONE', *, *, #175, .T. ) ;
#166 = ADVANCED_FACE ( 'NONE', ( #251 ), #133, .T. ) ;
#167 = PLANE ( 'NONE',  #187 ) ;
#168 = DIRECTION ( 'NONE',  ( 0.000000000000000000, 0.000000000000000000, 1.000000000000000000 ) ) ;
#169 = CARTESIAN_POINT ( 'NONE',  ( 0.000000000000000000, 0.000000000000000000, 253.0000000000000000 ) ) ;
#170 = LOCAL_TIME ( 12, 5, 34.00000000000000000, #44 ) ;
#171 = CARTESIAN_POINT ( 'NONE',  ( 2.250000000000000000, 2.755455298081544285E-16, 3.200000000000008171 ) ) ;
#172 = PLANE ( 'NONE',  #50 ) ;
#173 = DIRECTION ( 'NONE',  ( 1.000000000000000000, 0.000000000000000000, 0.000000000000000000 ) ) ;
#174 = AXIS2_PLACEMENT_3D ( 'NONE', #130, #13, #135 ) ;
#175 = EDGE_CURVE ( 'NONE', #97, #215, #11, .T. ) ;
#176 = APPROVAL_STATUS ( 'not_yet_approved' ) ;
#177 = CARTESIAN_POINT ( 'NONE',  ( 0.000000000000000000, 0.000000000000000000, 253.0000000000000000 ) ) ;
#178 = CARTESIAN_POINT ( 'NONE',  ( 2.250000000000000000, 2.755455298081544285E-16, 253.0000000000000000 ) ) ;
#179 = EDGE_CURVE ( 'NONE', #263, #215, #163, .T. ) ;
#180 = CALENDAR_DATE ( 2022, 20, 6 ) ;
#181 = DIRECTION ( 'NONE',  ( 0.000000000000000000, 0.000000000000000000, 1.000000000000000000 ) ) ;
#182 = CIRCLE ( 'NONE', #223, 4.000000000000000000 ) ;
#183 = PRODUCT_DEFINITION_FORMATION_WITH_SPECIFIED_SOURCE ( 'LIBOVOLNÝ', '', #298, .NOT_KNOWN. ) ;
#184 = EDGE_LOOP ( 'NONE', ( #195, #269, #165, #2 ) ) ;
#185 = PERSON_AND_ORGANIZATION_ROLE ( 'design_supplier' ) ;
#186 = ORIENTED_EDGE ( 'NONE', *, *, #161, .T. ) ;
#187 = AXIS2_PLACEMENT_3D ( 'NONE', #169, #231, #293 ) ;
#188 = EDGE_CURVE ( 'NONE', #128, #263, #46, .T. ) ;
#189 = AXIS2_PLACEMENT_3D ( 'NONE', #274, #210, #136 ) ;
#190 = ORGANIZATION ( 'NEURÈENÝ', 'NEURÈENÝ', '' ) ;
#191 = ORIENTED_EDGE ( 'NONE', *, *, #26, .T. ) ;
#192 = EDGE_CURVE ( 'NONE', #80, #284, #182, .T. ) ;
#193 = DIRECTION ( 'NONE',  ( 1.000000000000000000, 0.000000000000000000, 0.000000000000000000 ) ) ;
#194 = DIRECTION ( 'NONE',  ( 0.000000000000000000, 0.000000000000000000, 1.000000000000000000 ) ) ;
#195 = ORIENTED_EDGE ( 'NONE', *, *, #188, .F. ) ;
#196 = EDGE_CURVE ( 'NONE', #291, #218, #29, .T. ) ;
#197 = CARTESIAN_POINT ( 'NONE',  ( -2.250000000000000000, 0.000000000000000000, 253.0000000000000000 ) ) ;
#198 = CYLINDRICAL_SURFACE ( 'NONE', #158, 4.000000000000000000 ) ;
#199 = CC_DESIGN_APPROVAL ( #268, ( #183 ) ) ;
#200 = DESIGN_CONTEXT ( 'detailed design', #35, 'design' ) ;
#201 = APPLICATION_CONTEXT ( 'configuration controlled 3d designs of mechanical parts and assemblies' ) ;
#202 = DIRECTION ( 'NONE',  ( 1.000000000000000000, 0.000000000000000000, 0.000000000000000000 ) ) ;
#203 = CARTESIAN_POINT ( 'NONE',  ( 2.250000000000000000, 2.755455298081544285E-16, 253.0000000000000000 ) ) ;
#204 = MECHANICAL_CONTEXT ( 'NONE', #201, 'mechanical' ) ;
#205 = AXIS2_PLACEMENT_3D ( 'NONE', #224, #307, #193 ) ;
#206 = DIRECTION ( 'NONE',  ( 1.000000000000000000, 0.000000000000000000, 0.000000000000000000 ) ) ;
#207 = DATE_AND_TIME ( #180, #51 ) ;
#208 = ADVANCED_FACE ( 'NONE', ( #45 ), #303, .F. ) ;
#209 = CARTESIAN_POINT ( 'NONE',  ( -2.449999999999999734, 3.000384657911015370E-16, 3.200000000000008171 ) ) ;
#210 = DIRECTION ( 'NONE',  ( 0.000000000000000000, 0.000000000000000000, 1.000000000000000000 ) ) ;
#211 = DATE_TIME_ROLE ( 'classification_date' ) ;
#212 = CARTESIAN_POINT ( 'NONE',  ( -2.250000000000000000, 0.000000000000000000, 3.200000000000008171 ) ) ;
#213 = APPROVAL_PERSON_ORGANIZATION ( #155, #268, #156 ) ;
#214 = SECURITY_CLASSIFICATION_LEVEL ( 'unclassified' ) ;
#215 = VERTEX_POINT ( 'NONE', #276 ) ;
#216 = ADVANCED_FACE ( 'NONE', ( #253 ), #172, .F. ) ;
#217 = ORIENTED_EDGE ( 'NONE', *, *, #196, .T. ) ;
#218 = VERTEX_POINT ( 'NONE', #178 ) ;
#219 = AXIS2_PLACEMENT_3D ( 'NONE', #98, #55, #150 ) ;
#220 = VECTOR ( 'NONE', #149, 1000.000000000000000 ) ;
#221 = APPROVAL ( #176, 'NEURÈENÝ' ) ;
#222 = CARTESIAN_POINT ( 'NONE',  ( 0.000000000000000000, 0.000000000000000000, 3.000000000000000000 ) ) ;
#223 = AXIS2_PLACEMENT_3D ( 'NONE', #87, #181, #131 ) ;
#224 = CARTESIAN_POINT ( 'NONE',  ( 0.000000000000000000, 0.000000000000000000, 0.000000000000000000 ) ) ;
#225 = PERSON_AND_ORGANIZATION_ROLE ( 'design_owner' ) ;
#226 = EDGE_LOOP ( 'NONE', ( #120, #91 ) ) ;
#227 = EDGE_CURVE ( 'NONE', #97, #128, #70, .T. ) ;
#228 = APPLICATION_PROTOCOL_DEFINITION ( 'international standard', 'config_control_design', 1994, #201 ) ;
#229 = ORIENTED_EDGE ( 'NONE', *, *, #304, .F. ) ;
#230 = AXIS2_PLACEMENT_3D ( 'NONE', #59, #244, #143 ) ;
#231 = DIRECTION ( 'NONE',  ( 0.000000000000000000, 0.000000000000000000, 1.000000000000000000 ) ) ;
#232 = EDGE_CURVE ( 'NONE', #128, #97, #75, .T. ) ;
#233 = DATE_AND_TIME ( #278, #164 ) ;
#234 = DIRECTION ( 'NONE',  ( -1.000000000000000000, 0.000000000000000000, 0.000000000000000000 ) ) ;
#235 = DIRECTION ( 'NONE',  ( 0.000000000000000000, 0.000000000000000000, 1.000000000000000000 ) ) ;
#236 =( GEOMETRIC_REPRESENTATION_CONTEXT ( 3 ) GLOBAL_UNCERTAINTY_ASSIGNED_CONTEXT ( ( #262 ) ) GLOBAL_UNIT_ASSIGNED_CONTEXT ( ( #32, #252, #82 ) ) REPRESENTATION_CONTEXT ( 'NONE', 'WORKASPACE' ) );
#237 = CC_DESIGN_PERSON_AND_ORGANIZATION_ASSIGNMENT ( #137, #185, ( #183 ) ) ;
#238 = APPROVAL_DATE_TIME ( #17, #221 ) ;
#239 = EDGE_CURVE ( 'NONE', #218, #291, #56, .T. ) ;
#240 = AXIS2_PLACEMENT_3D ( 'NONE', #7, #111, #173 ) ;
#241 = DIRECTION ( 'NONE',  ( -0.000000000000000000, -0.000000000000000000, -1.000000000000000000 ) ) ;
#242 = EDGE_LOOP ( 'NONE', ( #105, #191, #292, #229 ) ) ;
#243 = DIRECTION ( 'NONE',  ( -0.000000000000000000, -0.000000000000000000, -1.000000000000000000 ) ) ;
#244 = DIRECTION ( 'NONE',  ( -0.000000000000000000, -0.000000000000000000, -1.000000000000000000 ) ) ;
#245 = ORIENTED_EDGE ( 'NONE', *, *, #192, .T. ) ;
#246 = CARTESIAN_POINT ( 'NONE',  ( -4.000000000000000000, 0.000000000000000000, 0.000000000000000000 ) ) ;
#247 = EDGE_LOOP ( 'NONE', ( #217, #115 ) ) ;
#248 = FACE_BOUND ( 'NONE', #226, .T. ) ;
#249 = CIRCLE ( 'NONE', #205, 4.000000000000000000 ) ;
#250 = APPROVAL_DATE_TIME ( #152, #79 ) ;
#251 = FACE_OUTER_BOUND ( 'NONE', #93, .T. ) ;
#252 =( NAMED_UNIT ( * ) PLANE_ANGLE_UNIT ( ) SI_UNIT ( $, .RADIAN. ) );
#253 = FACE_OUTER_BOUND ( 'NONE', #302, .T. ) ;
#254 = DIRECTION ( 'NONE',  ( -0.000000000000000000, -0.000000000000000000, -1.000000000000000000 ) ) ;
#255 = CARTESIAN_POINT ( 'NONE',  ( 0.000000000000000000, 0.000000000000000000, 3.200000000000008171 ) ) ;
#256 = EDGE_CURVE ( 'NONE', #260, #284, #23, .T. ) ;
#257 = DIRECTION ( 'NONE',  ( -0.000000000000000000, -0.000000000000000000, -1.000000000000000000 ) ) ;
#258 = CARTESIAN_POINT ( 'NONE',  ( 0.000000000000000000, 0.000000000000000000, 3.000000000000000000 ) ) ;
#259 = DIRECTION ( 'NONE',  ( 1.000000000000000000, 0.000000000000000000, 0.000000000000000000 ) ) ;
#260 = VERTEX_POINT ( 'NONE', #76 ) ;
#261 = ORIENTED_EDGE ( 'NONE', *, *, #141, .T. ) ;
#262 = UNCERTAINTY_MEASURE_WITH_UNIT (LENGTH_MEASURE( 1.000000000000000082E-05 ), #32, 'distance_accuracy_value', 'NONE');
#263 = VERTEX_POINT ( 'NONE', #106 ) ;
#264 = CYLINDRICAL_SURFACE ( 'NONE', #230, 4.000000000000000000 ) ;
#265 = AXIS2_PLACEMENT_3D ( 'NONE', #9, #162, #259 ) ;
#266 = APPLICATION_PROTOCOL_DEFINITION ( 'international standard', 'config_control_design', 1994, #35 ) ;
#267 = FACE_OUTER_BOUND ( 'NONE', #28, .T. ) ;
#268 = APPROVAL ( #85, 'NEURÈENÝ' ) ;
#269 = ORIENTED_EDGE ( 'NONE', *, *, #227, .F. ) ;
#270 = COORDINATED_UNIVERSAL_TIME_OFFSET ( 1, 0, .AHEAD. ) ;
#271 = CARTESIAN_POINT ( 'NONE',  ( -2.250000000000000000, 0.000000000000000000, 253.0000000000000000 ) ) ;
#272 = DIRECTION ( 'NONE',  ( 1.224646799147353207E-16, 1.000000000000000000, -0.000000000000000000 ) ) ;
#273 = AXIS2_PLACEMENT_3D ( 'NONE', #104, #275, #202 ) ;
#274 = CARTESIAN_POINT ( 'NONE',  ( 0.000000000000000000, 0.000000000000000000, 3.200000000000008171 ) ) ;
#275 = DIRECTION ( 'NONE',  ( 0.000000000000000000, 0.000000000000000000, 1.000000000000000000 ) ) ;
#276 = CARTESIAN_POINT ( 'NONE',  ( 2.449999999999999734, 0.000000000000000000, 3.000000000000004441 ) ) ;
#277 = DIRECTION ( 'NONE',  ( -0.000000000000000000, -0.000000000000000000, -1.000000000000000000 ) ) ;
#278 = CALENDAR_DATE ( 2022, 20, 6 ) ;
#279 = DIRECTION ( 'NONE',  ( 1.000000000000000000, 0.000000000000000000, 0.000000000000000000 ) ) ;
#280 = CC_DESIGN_SECURITY_CLASSIFICATION ( #146, ( #183 ) ) ;
#281 = DATE_TIME_ROLE ( 'creation_date' ) ;
#282 = ORIENTED_EDGE ( 'NONE', *, *, #232, .T. ) ;
#283 = APPROVAL_ROLE ( '' ) ;
#284 = VERTEX_POINT ( 'NONE', #246 ) ;
#285 = AXIS2_PLACEMENT_3D ( 'NONE', #151, #38, #84 ) ;
#286 = ORIENTED_EDGE ( 'NONE', *, *, #103, .F. ) ;
#287 = ADVANCED_BREP_SHAPE_REPRESENTATION ( 'd66c', ( #22, #273 ), #236 ) ;
#288 = VECTOR ( 'NONE', #241, 1000.000000000000000 ) ;
#289 = DIRECTION ( 'NONE',  ( -0.000000000000000000, -0.000000000000000000, -1.000000000000000000 ) ) ;
#290 = PRODUCT_DEFINITION ( 'NEZNÁMÝ', '', #183, #200 ) ;
#291 = VERTEX_POINT ( 'NONE', #197 ) ;
#292 = ORIENTED_EDGE ( 'NONE', *, *, #227, .T. ) ;
#293 = DIRECTION ( 'NONE',  ( 1.000000000000000000, 0.000000000000000000, -0.000000000000000000 ) ) ;
#294 = CC_DESIGN_APPROVAL ( #79, ( #290 ) ) ;
#295 = DATE_AND_TIME ( #92, #170 ) ;
#296 = DIRECTION ( 'NONE',  ( -1.000000000000000000, 1.224646799147353207E-16, 0.000000000000000000 ) ) ;
#297 = AXIS2_PLACEMENT_3D ( 'NONE', #177, #254, #14 ) ;
#298 = PRODUCT ( 'd66c', 'd66c', '', ( #204 ) ) ;
#299 = PERSON_AND_ORGANIZATION ( #306, #190 ) ;
#300 = ORIENTED_EDGE ( 'NONE', *, *, #103, .T. ) ;
#301 = CIRCLE ( 'NONE', #19, 4.000000000000000000 ) ;
#302 = EDGE_LOOP ( 'NONE', ( #69, #139 ) ) ;
#303 = TOROIDAL_SURFACE ( 'NONE', #101, 2.449999999999999734, 0.2000000000000000111 ) ;
#304 = EDGE_CURVE ( 'NONE', #291, #128, #126, .T. ) ;
#305 = CC_DESIGN_PERSON_AND_ORGANIZATION_ASSIGNMENT ( #124, #225, ( #298 ) ) ;
#306 = PERSON ( 'NEURÈENÝ', 'NEURÈENÝ', 'NEURÈENÝ', ('NEURÈENÝ'), ('NEURÈENÝ'), ('NEURÈENÝ') ) ;
#307 = DIRECTION ( 'NONE',  ( 0.000000000000000000, 0.000000000000000000, 1.000000000000000000 ) ) ;
ENDSEC;
END-ISO-10303-21;
