ISO-10303-21;
HEADER;
FILE_DESCRIPTION (( 'STEP AP203' ),
    '1' );
FILE_NAME ('b16a.STEP',
    '2022-06-20T10:31:18',
    ( '' ),
    ( '' ),
    'SwSTEP 2.0',
    'SolidWorks 2019',
    '' );
FILE_SCHEMA (( 'CONFIG_CONTROL_DESIGN' ));
ENDSEC;

DATA;
#1 = ORIENTED_EDGE ( 'NONE', *, *, #10, .T. ) ;
#2 = CARTESIAN_POINT ( 'NONE',  ( 0.000000000000000000, 0.000000000000000000, 0.000000000000000000 ) ) ;
#3 = CARTESIAN_POINT ( 'NONE',  ( 0.5000000000000000000, 6.123233995736766036E-17, 101.2000000000000171 ) ) ;
#4 = CARTESIAN_POINT ( 'NONE',  ( 0.000000000000000000, 0.000000000000000000, 1.399999999999998579 ) ) ;
#5 = CARTESIAN_POINT ( 'NONE',  ( 0.000000000000000000, 0.000000000000000000, 0.000000000000000000 ) ) ;
#6 = ADVANCED_FACE ( 'NONE', ( #28 ), #85, .T. ) ;
#7 = CARTESIAN_POINT ( 'NONE',  ( 0.000000000000000000, 0.000000000000000000, 101.2000000000000171 ) ) ;
#8 = CIRCLE ( 'NONE', #204, 1.250000000000000000 ) ;
#9 = CIRCLE ( 'NONE', #202, 1.250000000000000000 ) ;
#10 = EDGE_CURVE ( 'NONE', #18, #162, #166, .T. ) ;
#11 = APPROVAL_PERSON_ORGANIZATION ( #183, #179, #116 ) ;
#12 = CARTESIAN_POINT ( 'NONE',  ( 0.000000000000000000, 0.000000000000000000, 1.199999999999999956 ) ) ;
#13 = CARTESIAN_POINT ( 'NONE',  ( 0.000000000000000000, 0.000000000000000000, 1.199999999999999956 ) ) ;
#14 = APPROVAL_ROLE ( '' ) ;
#15 = VERTEX_POINT ( 'NONE', #171 ) ;
#16 = AXIS2_PLACEMENT_3D ( 'NONE', #174, #151, #33 ) ;
#17 = APPROVAL_STATUS ( 'not_yet_approved' ) ;
#18 = VERTEX_POINT ( 'NONE', #263 ) ;
#19 = EDGE_LOOP ( 'NONE', ( #122, #257, #203, #276 ) ) ;
#20 = COORDINATED_UNIVERSAL_TIME_OFFSET ( 1, 0, .AHEAD. ) ;
#21 = ORIENTED_EDGE ( 'NONE', *, *, #59, .T. ) ;
#22 = EDGE_LOOP ( 'NONE', ( #244, #44, #21, #207 ) ) ;
#23 = ADVANCED_BREP_SHAPE_REPRESENTATION ( 'b16a', ( #280, #60 ), #86 ) ;
#24 = CIRCLE ( 'NONE', #109, 0.5000000000000000000 ) ;
#25 = DIRECTION ( 'NONE',  ( 1.000000000000000000, 0.000000000000000000, 0.000000000000000000 ) ) ;
#26 = EDGE_CURVE ( 'NONE', #162, #18, #277, .T. ) ;
#27 = LINE ( 'NONE', #146, #185 ) ;
#28 = FACE_OUTER_BOUND ( 'NONE', #305, .T. ) ;
#29 = TOROIDAL_SURFACE ( 'NONE', #193, 0.6999999999999999556, 0.2000000000000000111 ) ;
#30 = DIRECTION ( 'NONE',  ( 0.000000000000000000, 0.000000000000000000, 1.000000000000000000 ) ) ;
#31 = EDGE_CURVE ( 'NONE', #39, #211, #9, .T. ) ;
#32 = DIRECTION ( 'NONE',  ( -1.000000000000000000, 0.000000000000000000, 0.000000000000000000 ) ) ;
#33 = DIRECTION ( 'NONE',  ( -1.000000000000000000, 0.000000000000000000, 0.000000000000000000 ) ) ;
#34 = CARTESIAN_POINT ( 'NONE',  ( -0.5000000000000000000, 0.000000000000000000, 1.399999999999998579 ) ) ;
#35 = PLANE ( 'NONE',  #81 ) ;
#36 = VECTOR ( 'NONE', #213, 1000.000000000000000 ) ;
#37 = DIRECTION ( 'NONE',  ( 1.000000000000000000, 0.000000000000000000, -0.000000000000000000 ) ) ;
#38 = CALENDAR_DATE ( 2022, 20, 6 ) ;
#39 = VERTEX_POINT ( 'NONE', #56 ) ;
#40 = PERSON_AND_ORGANIZATION ( #218, #148 ) ;
#41 = ORIENTED_EDGE ( 'NONE', *, *, #226, .F. ) ;
#42 = LOCAL_TIME ( 12, 31, 18.00000000000000000, #307 ) ;
#43 = COORDINATED_UNIVERSAL_TIME_OFFSET ( 1, 0, .AHEAD. ) ;
#44 = ORIENTED_EDGE ( 'NONE', *, *, #97, .T. ) ;
#45 = DATE_AND_TIME ( #95, #121 ) ;
#46 = PERSON_AND_ORGANIZATION_ROLE ( 'design_supplier' ) ;
#47 = ORIENTED_EDGE ( 'NONE', *, *, #31, .F. ) ;
#48 = DIRECTION ( 'NONE',  ( 0.000000000000000000, 0.000000000000000000, 1.000000000000000000 ) ) ;
#49 = EDGE_CURVE ( 'NONE', #158, #211, #27, .T. ) ;
#50 = PRODUCT ( 'b16a', 'b16a', '', ( #302 ) ) ;
#51 = DIRECTION ( 'NONE',  ( -0.000000000000000000, -0.000000000000000000, -1.000000000000000000 ) ) ;
#52 = FACE_OUTER_BOUND ( 'NONE', #284, .T. ) ;
#53 = CIRCLE ( 'NONE', #135, 0.5000000000000000000 ) ;
#54 = DIRECTION ( 'NONE',  ( 1.000000000000000000, 0.000000000000000000, 0.000000000000000000 ) ) ;
#55 = AXIS2_PLACEMENT_3D ( 'NONE', #13, #176, #224 ) ;
#56 = CARTESIAN_POINT ( 'NONE',  ( -1.250000000000000000, 0.000000000000000000, 0.000000000000000000 ) ) ;
#57 = FACE_OUTER_BOUND ( 'NONE', #209, .T. ) ;
#58 = APPLICATION_CONTEXT ( 'configuration controlled 3d designs of mechanical parts and assemblies' ) ;
#59 = EDGE_CURVE ( 'NONE', #243, #184, #53, .T. ) ;
#60 = AXIS2_PLACEMENT_3D ( 'NONE', #256, #164, #144 ) ;
#61 = DIRECTION ( 'NONE',  ( 0.000000000000000000, 0.000000000000000000, -1.000000000000000000 ) ) ;
#62 = CC_DESIGN_PERSON_AND_ORGANIZATION_ASSIGNMENT ( #275, #142, ( #271 ) ) ;
#63 = CARTESIAN_POINT ( 'NONE',  ( 0.5000000000000000000, 6.123233995736766036E-17, 101.2000000000000171 ) ) ;
#64 = CARTESIAN_POINT ( 'NONE',  ( 0.000000000000000000, 0.000000000000000000, 101.2000000000000171 ) ) ;
#65 = CIRCLE ( 'NONE', #210, 0.6999999999999999556 ) ;
#66 = LOCAL_TIME ( 12, 31, 18.00000000000000000, #43 ) ;
#67 = VERTEX_POINT ( 'NONE', #108 ) ;
#68 = PERSON_AND_ORGANIZATION ( #218, #148 ) ;
#69 = ORIENTED_EDGE ( 'NONE', *, *, #172, .T. ) ;
#70 = UNCERTAINTY_MEASURE_WITH_UNIT (LENGTH_MEASURE( 1.000000000000000082E-05 ), #133, 'distance_accuracy_value', 'NONE');
#71 = PERSON_AND_ORGANIZATION_ROLE ( 'creator' ) ;
#72 = ORIENTED_EDGE ( 'NONE', *, *, #49, .F. ) ;
#73 = ADVANCED_FACE ( 'NONE', ( #239 ), #170, .T. ) ;
#74 = AXIS2_PLACEMENT_3D ( 'NONE', #156, #266, #249 ) ;
#75 = PERSON_AND_ORGANIZATION ( #218, #148 ) ;
#76 = ORIENTED_EDGE ( 'NONE', *, *, #159, .T. ) ;
#77 = DATE_AND_TIME ( #38, #42 ) ;
#78 = DIRECTION ( 'NONE',  ( 1.000000000000000000, 0.000000000000000000, 0.000000000000000000 ) ) ;
#79 = AXIS2_PLACEMENT_3D ( 'NONE', #129, #217, #32 ) ;
#80 = APPLICATION_CONTEXT ( 'configuration controlled 3d designs of mechanical parts and assemblies' ) ;
#81 = AXIS2_PLACEMENT_3D ( 'NONE', #112, #196, #37 ) ;
#82 = DIRECTION ( 'NONE',  ( 0.000000000000000000, 0.000000000000000000, 1.000000000000000000 ) ) ;
#83 = FACE_OUTER_BOUND ( 'NONE', #228, .T. ) ;
#84 = CARTESIAN_POINT ( 'NONE',  ( 0.000000000000000000, 0.000000000000000000, 101.2000000000000171 ) ) ;
#85 = CYLINDRICAL_SURFACE ( 'NONE', #132, 0.5000000000000000000 ) ;
#86 =( GEOMETRIC_REPRESENTATION_CONTEXT ( 3 ) GLOBAL_UNCERTAINTY_ASSIGNED_CONTEXT ( ( #70 ) ) GLOBAL_UNIT_ASSIGNED_CONTEXT ( ( #133, #153, #139 ) ) REPRESENTATION_CONTEXT ( 'NONE', 'WORKASPACE' ) );
#87 = DIRECTION ( 'NONE',  ( 1.000000000000000000, 0.000000000000000000, 0.000000000000000000 ) ) ;
#88 = EDGE_CURVE ( 'NONE', #158, #102, #306, .T. ) ;
#89 = DIRECTION ( 'NONE',  ( -0.000000000000000000, -0.000000000000000000, -1.000000000000000000 ) ) ;
#90 = DIRECTION ( 'NONE',  ( 0.000000000000000000, 0.000000000000000000, 1.000000000000000000 ) ) ;
#91 = ADVANCED_FACE ( 'NONE', ( #52 ), #265, .F. ) ;
#92 = FACE_OUTER_BOUND ( 'NONE', #19, .T. ) ;
#93 = CC_DESIGN_APPROVAL ( #123, ( #271 ) ) ;
#94 = ORIENTED_EDGE ( 'NONE', *, *, #110, .F. ) ;
#95 = CALENDAR_DATE ( 2022, 20, 6 ) ;
#96 = ORIENTED_EDGE ( 'NONE', *, *, #246, .F. ) ;
#97 = EDGE_CURVE ( 'NONE', #162, #243, #219, .T. ) ;
#98 = CLOSED_SHELL ( 'NONE', ( #91, #289, #113, #73, #282, #221, #6, #231, #216 ) ) ;
#99 = ORIENTED_EDGE ( 'NONE', *, *, #197, .T. ) ;
#100 = APPLICATION_PROTOCOL_DEFINITION ( 'international standard', 'config_control_design', 1994, #80 ) ;
#101 = ORIENTED_EDGE ( 'NONE', *, *, #126, .T. ) ;
#102 = VERTEX_POINT ( 'NONE', #167 ) ;
#103 = CARTESIAN_POINT ( 'NONE',  ( 0.000000000000000000, 0.000000000000000000, 1.199999999999999956 ) ) ;
#104 = CARTESIAN_POINT ( 'NONE',  ( 0.000000000000000000, 0.000000000000000000, 1.399999999999998579 ) ) ;
#105 = CARTESIAN_POINT ( 'NONE',  ( -0.5000000000000000000, 0.000000000000000000, 101.2000000000000171 ) ) ;
#106 = EDGE_CURVE ( 'NONE', #18, #184, #288, .T. ) ;
#107 = CARTESIAN_POINT ( 'NONE',  ( -0.6999999999999999556, 8.572527594031471957E-17, 1.399999999999998579 ) ) ;
#108 = CARTESIAN_POINT ( 'NONE',  ( -0.6999999999999999556, 8.572527594031473190E-17, 1.199999999999999289 ) ) ;
#109 = AXIS2_PLACEMENT_3D ( 'NONE', #104, #124, #190 ) ;
#110 = EDGE_CURVE ( 'NONE', #184, #243, #24, .T. ) ;
#111 = CARTESIAN_POINT ( 'NONE',  ( 0.000000000000000000, 0.000000000000000000, 1.399999999999998579 ) ) ;
#112 = CARTESIAN_POINT ( 'NONE',  ( 0.000000000000000000, 0.000000000000000000, 0.000000000000000000 ) ) ;
#113 = ADVANCED_FACE ( 'NONE', ( #83 ), #212, .T. ) ;
#114 = CALENDAR_DATE ( 2022, 20, 6 ) ;
#115 = AXIS2_PLACEMENT_3D ( 'NONE', #240, #82, #25 ) ;
#116 = APPROVAL_ROLE ( '' ) ;
#117 = PERSON_AND_ORGANIZATION_ROLE ( 'creator' ) ;
#118 = CALENDAR_DATE ( 2022, 20, 6 ) ;
#119 = ORIENTED_EDGE ( 'NONE', *, *, #242, .T. ) ;
#120 = CC_DESIGN_PERSON_AND_ORGANIZATION_ASSIGNMENT ( #163, #278, ( #50 ) ) ;
#121 = LOCAL_TIME ( 12, 31, 18.00000000000000000, #20 ) ;
#122 = ORIENTED_EDGE ( 'NONE', *, *, #159, .F. ) ;
#123 = APPROVAL ( #161, 'NEURÈENÝ' ) ;
#124 = DIRECTION ( 'NONE',  ( 0.000000000000000000, 0.000000000000000000, 1.000000000000000000 ) ) ;
#125 = DIRECTION ( 'NONE',  ( 1.000000000000000000, 0.000000000000000000, 0.000000000000000000 ) ) ;
#126 = EDGE_CURVE ( 'NONE', #211, #39, #168, .T. ) ;
#127 = CIRCLE ( 'NONE', #154, 0.2000000000000000944 ) ;
#128 = DIRECTION ( 'NONE',  ( 0.000000000000000000, 0.000000000000000000, 1.000000000000000000 ) ) ;
#129 = CARTESIAN_POINT ( 'NONE',  ( 0.000000000000000000, 0.000000000000000000, 1.199999999999999956 ) ) ;
#130 = PRODUCT_RELATED_PRODUCT_CATEGORY ( 'detail', '', ( #50 ) ) ;
#131 = CARTESIAN_POINT ( 'NONE',  ( 0.000000000000000000, 0.000000000000000000, 1.199999999999999956 ) ) ;
#132 = AXIS2_PLACEMENT_3D ( 'NONE', #173, #51, #285 ) ;
#133 =( LENGTH_UNIT ( ) NAMED_UNIT ( * ) SI_UNIT ( .MILLI., .METRE. ) );
#134 = FACE_OUTER_BOUND ( 'NONE', #191, .T. ) ;
#135 = AXIS2_PLACEMENT_3D ( 'NONE', #4, #189, #262 ) ;
#136 = DIRECTION ( 'NONE',  ( 1.000000000000000000, 0.000000000000000000, -0.000000000000000000 ) ) ;
#137 = CC_DESIGN_PERSON_AND_ORGANIZATION_ASSIGNMENT ( #68, #46, ( #281 ) ) ;
#138 = AXIS2_PLACEMENT_3D ( 'NONE', #5, #290, #54 ) ;
#139 =( NAMED_UNIT ( * ) SI_UNIT ( $, .STERADIAN. ) SOLID_ANGLE_UNIT ( ) );
#140 = COORDINATED_UNIVERSAL_TIME_OFFSET ( 1, 0, .AHEAD. ) ;
#141 = CIRCLE ( 'NONE', #180, 0.1999999999999999833 ) ;
#142 = PERSON_AND_ORGANIZATION_ROLE ( 'classification_officer' ) ;
#143 = ORIENTED_EDGE ( 'NONE', *, *, #31, .T. ) ;
#144 = DIRECTION ( 'NONE',  ( 1.000000000000000000, 0.000000000000000000, 0.000000000000000000 ) ) ;
#145 = APPROVAL_ROLE ( '' ) ;
#146 = CARTESIAN_POINT ( 'NONE',  ( 1.250000000000000000, 1.530808498934191571E-16, 1.199999999999999956 ) ) ;
#147 = DIRECTION ( 'NONE',  ( -0.000000000000000000, -0.000000000000000000, -1.000000000000000000 ) ) ;
#148 = ORGANIZATION ( 'NEURÈENÝ', 'NEURÈENÝ', '' ) ;
#149 = CARTESIAN_POINT ( 'NONE',  ( 1.250000000000000000, 1.530808498934191571E-16, 1.199999999999999956 ) ) ;
#150 = DIRECTION ( 'NONE',  ( -0.000000000000000000, -0.000000000000000000, -1.000000000000000000 ) ) ;
#151 = DIRECTION ( 'NONE',  ( -0.000000000000000000, -0.000000000000000000, -1.000000000000000000 ) ) ;
#152 = CC_DESIGN_DATE_AND_TIME_ASSIGNMENT ( #77, #206, ( #271 ) ) ;
#153 =( NAMED_UNIT ( * ) PLANE_ANGLE_UNIT ( ) SI_UNIT ( $, .RADIAN. ) );
#154 = AXIS2_PLACEMENT_3D ( 'NONE', #199, #178, #61 ) ;
#155 = DIRECTION ( 'NONE',  ( 0.000000000000000000, 0.000000000000000000, 1.000000000000000000 ) ) ;
#156 = CARTESIAN_POINT ( 'NONE',  ( 0.000000000000000000, 0.000000000000000000, 1.199999999999999956 ) ) ;
#157 = LOCAL_TIME ( 12, 31, 18.00000000000000000, #250 ) ;
#158 = VERTEX_POINT ( 'NONE', #149 ) ;
#159 = EDGE_CURVE ( 'NONE', #184, #67, #141, .T. ) ;
#160 = APPROVAL_STATUS ( 'not_yet_approved' ) ;
#161 = APPROVAL_STATUS ( 'not_yet_approved' ) ;
#162 = VERTEX_POINT ( 'NONE', #63 ) ;
#163 = PERSON_AND_ORGANIZATION ( #218, #148 ) ;
#164 = DIRECTION ( 'NONE',  ( 0.000000000000000000, 0.000000000000000000, 1.000000000000000000 ) ) ;
#165 = ORIENTED_EDGE ( 'NONE', *, *, #126, .F. ) ;
#166 = CIRCLE ( 'NONE', #198, 0.5000000000000000000 ) ;
#167 = CARTESIAN_POINT ( 'NONE',  ( -1.250000000000000000, 0.000000000000000000, 1.199999999999999956 ) ) ;
#168 = CIRCLE ( 'NONE', #138, 1.250000000000000000 ) ;
#169 = DIRECTION ( 'NONE',  ( 0.000000000000000000, 0.000000000000000000, 1.000000000000000000 ) ) ;
#170 = CYLINDRICAL_SURFACE ( 'NONE', #79, 1.250000000000000000 ) ;
#171 = CARTESIAN_POINT ( 'NONE',  ( 0.6999999999999999556, 0.000000000000000000, 1.199999999999999289 ) ) ;
#172 = EDGE_CURVE ( 'NONE', #102, #158, #8, .T. ) ;
#173 = CARTESIAN_POINT ( 'NONE',  ( 0.000000000000000000, 0.000000000000000000, 101.2000000000000171 ) ) ;
#174 = CARTESIAN_POINT ( 'NONE',  ( 0.000000000000000000, 0.000000000000000000, 101.2000000000000171 ) ) ;
#175 = CARTESIAN_POINT ( 'NONE',  ( -1.250000000000000000, 0.000000000000000000, 1.199999999999999956 ) ) ;
#176 = DIRECTION ( 'NONE',  ( 0.000000000000000000, 0.000000000000000000, 1.000000000000000000 ) ) ;
#177 = CC_DESIGN_PERSON_AND_ORGANIZATION_ASSIGNMENT ( #75, #117, ( #281 ) ) ;
#178 = DIRECTION ( 'NONE',  ( 0.000000000000000000, -1.000000000000000000, 0.000000000000000000 ) ) ;
#179 = APPROVAL ( #160, 'NEURÈENÝ' ) ;
#180 = AXIS2_PLACEMENT_3D ( 'NONE', #107, #192, #269 ) ;
#181 = DATE_AND_TIME ( #118, #214 ) ;
#182 = ORIENTED_EDGE ( 'NONE', *, *, #106, .T. ) ;
#183 = PERSON_AND_ORGANIZATION ( #218, #148 ) ;
#184 = VERTEX_POINT ( 'NONE', #34 ) ;
#185 = VECTOR ( 'NONE', #150, 1000.000000000000000 ) ;
#186 = ORIENTED_EDGE ( 'NONE', *, *, #110, .T. ) ;
#187 = APPLICATION_PROTOCOL_DEFINITION ( 'international standard', 'config_control_design', 1994, #58 ) ;
#188 = EDGE_LOOP ( 'NONE', ( #69, #233 ) ) ;
#189 = DIRECTION ( 'NONE',  ( 0.000000000000000000, 0.000000000000000000, 1.000000000000000000 ) ) ;
#190 = DIRECTION ( 'NONE',  ( 1.000000000000000000, 0.000000000000000000, 0.000000000000000000 ) ) ;
#191 = EDGE_LOOP ( 'NONE', ( #1, #258 ) ) ;
#192 = DIRECTION ( 'NONE',  ( 1.224646799147353207E-16, 1.000000000000000000, -0.000000000000000000 ) ) ;
#193 = AXIS2_PLACEMENT_3D ( 'NONE', #111, #90, #222 ) ;
#194 = FACE_OUTER_BOUND ( 'NONE', #22, .T. ) ;
#195 = PLANE ( 'NONE',  #55 ) ;
#196 = DIRECTION ( 'NONE',  ( 0.000000000000000000, 0.000000000000000000, 1.000000000000000000 ) ) ;
#197 = EDGE_CURVE ( 'NONE', #102, #39, #270, .T. ) ;
#198 = AXIS2_PLACEMENT_3D ( 'NONE', #84, #128, #287 ) ;
#199 = CARTESIAN_POINT ( 'NONE',  ( 0.6999999999999999556, 0.000000000000000000, 1.399999999999998579 ) ) ;
#200 = PRODUCT_DEFINITION ( 'NEZNÁMÝ', '', #281, #253 ) ;
#201 = DATE_AND_TIME ( #114, #66 ) ;
#202 = AXIS2_PLACEMENT_3D ( 'NONE', #2, #30, #125 ) ;
#203 = ORIENTED_EDGE ( 'NONE', *, *, #226, .T. ) ;
#204 = AXIS2_PLACEMENT_3D ( 'NONE', #12, #155, #87 ) ;
#205 = CALENDAR_DATE ( 2022, 20, 6 ) ;
#206 = DATE_TIME_ROLE ( 'classification_date' ) ;
#207 = ORIENTED_EDGE ( 'NONE', *, *, #106, .F. ) ;
#208 = DATE_TIME_ROLE ( 'creation_date' ) ;
#209 = EDGE_LOOP ( 'NONE', ( #47, #165 ) ) ;
#210 = AXIS2_PLACEMENT_3D ( 'NONE', #247, #298, #227 ) ;
#211 = VERTEX_POINT ( 'NONE', #248 ) ;
#212 = CYLINDRICAL_SURFACE ( 'NONE', #255, 1.250000000000000000 ) ;
#213 = DIRECTION ( 'NONE',  ( -0.000000000000000000, -0.000000000000000000, -1.000000000000000000 ) ) ;
#214 = LOCAL_TIME ( 12, 31, 18.00000000000000000, #140 ) ;
#215 = DIRECTION ( 'NONE',  ( -1.000000000000000000, 0.000000000000000000, 0.000000000000000000 ) ) ;
#216 = ADVANCED_FACE ( 'NONE', ( #92 ), #29, .F. ) ;
#217 = DIRECTION ( 'NONE',  ( -0.000000000000000000, -0.000000000000000000, -1.000000000000000000 ) ) ;
#218 = PERSON ( 'NEURÈENÝ', 'NEURÈENÝ', 'NEURÈENÝ', ('NEURÈENÝ'), ('NEURÈENÝ'), ('NEURÈENÝ') ) ;
#219 = LINE ( 'NONE', #3, #36 ) ;
#220 = VECTOR ( 'NONE', #89, 1000.000000000000000 ) ;
#221 = ADVANCED_FACE ( 'NONE', ( #57 ), #35, .F. ) ;
#222 = DIRECTION ( 'NONE',  ( 1.000000000000000000, 0.000000000000000000, 0.000000000000000000 ) ) ;
#223 = FACE_OUTER_BOUND ( 'NONE', #188, .T. ) ;
#224 = DIRECTION ( 'NONE',  ( 1.000000000000000000, 0.000000000000000000, -0.000000000000000000 ) ) ;
#225 = APPROVAL_PERSON_ORGANIZATION ( #272, #293, #14 ) ;
#226 = EDGE_CURVE ( 'NONE', #243, #15, #127, .T. ) ;
#227 = DIRECTION ( 'NONE',  ( 1.000000000000000000, 0.000000000000000000, 0.000000000000000000 ) ) ;
#228 = EDGE_LOOP ( 'NONE', ( #303, #251, #101, #279 ) ) ;
#229 = EDGE_LOOP ( 'NONE', ( #72, #234, #99, #143 ) ) ;
#230 = CC_DESIGN_SECURITY_CLASSIFICATION ( #271, ( #281 ) ) ;
#231 = ADVANCED_FACE ( 'NONE', ( #134 ), #299, .T. ) ;
#232 = APPROVAL_DATE_TIME ( #201, #123 ) ;
#233 = ORIENTED_EDGE ( 'NONE', *, *, #88, .T. ) ;
#234 = ORIENTED_EDGE ( 'NONE', *, *, #172, .F. ) ;
#235 = PERSON_AND_ORGANIZATION ( #218, #148 ) ;
#236 = CC_DESIGN_PERSON_AND_ORGANIZATION_ASSIGNMENT ( #235, #71, ( #200 ) ) ;
#237 = CC_DESIGN_APPROVAL ( #179, ( #281 ) ) ;
#238 = CIRCLE ( 'NONE', #74, 0.6999999999999999556 ) ;
#239 = FACE_OUTER_BOUND ( 'NONE', #229, .T. ) ;
#240 = CARTESIAN_POINT ( 'NONE',  ( 0.000000000000000000, 0.000000000000000000, 1.399999999999998579 ) ) ;
#241 = ORIENTED_EDGE ( 'NONE', *, *, #246, .T. ) ;
#242 = EDGE_CURVE ( 'NONE', #67, #15, #238, .T. ) ;
#243 = VERTEX_POINT ( 'NONE', #268 ) ;
#244 = ORIENTED_EDGE ( 'NONE', *, *, #26, .F. ) ;
#245 = AXIS2_PLACEMENT_3D ( 'NONE', #131, #169, #78 ) ;
#246 = EDGE_CURVE ( 'NONE', #15, #67, #65, .T. ) ;
#247 = CARTESIAN_POINT ( 'NONE',  ( 0.000000000000000000, 0.000000000000000000, 1.199999999999999956 ) ) ;
#248 = CARTESIAN_POINT ( 'NONE',  ( 1.250000000000000000, 1.530808498934191571E-16, 0.000000000000000000 ) ) ;
#249 = DIRECTION ( 'NONE',  ( 1.000000000000000000, 0.000000000000000000, 0.000000000000000000 ) ) ;
#250 = COORDINATED_UNIVERSAL_TIME_OFFSET ( 1, 0, .AHEAD. ) ;
#251 = ORIENTED_EDGE ( 'NONE', *, *, #49, .T. ) ;
#252 = SECURITY_CLASSIFICATION_LEVEL ( 'unclassified' ) ;
#253 = DESIGN_CONTEXT ( 'detailed design', #80, 'design' ) ;
#254 = ORIENTED_EDGE ( 'NONE', *, *, #97, .F. ) ;
#255 = AXIS2_PLACEMENT_3D ( 'NONE', #103, #147, #215 ) ;
#256 = CARTESIAN_POINT ( 'NONE',  ( 0.000000000000000000, 0.000000000000000000, 0.000000000000000000 ) ) ;
#257 = ORIENTED_EDGE ( 'NONE', *, *, #59, .F. ) ;
#258 = ORIENTED_EDGE ( 'NONE', *, *, #26, .T. ) ;
#259 = DIRECTION ( 'NONE',  ( -0.000000000000000000, -0.000000000000000000, -1.000000000000000000 ) ) ;
#260 = DIRECTION ( 'NONE',  ( 1.000000000000000000, 0.000000000000000000, 0.000000000000000000 ) ) ;
#261 = EDGE_LOOP ( 'NONE', ( #241, #119 ) ) ;
#262 = DIRECTION ( 'NONE',  ( 1.000000000000000000, 0.000000000000000000, 0.000000000000000000 ) ) ;
#263 = CARTESIAN_POINT ( 'NONE',  ( -0.5000000000000000000, 0.000000000000000000, 101.2000000000000171 ) ) ;
#264 = PRODUCT_DEFINITION_SHAPE ( 'NONE', 'NONE',  #200 ) ;
#265 = TOROIDAL_SURFACE ( 'NONE', #115, 0.6999999999999999556, 0.2000000000000000111 ) ;
#266 = DIRECTION ( 'NONE',  ( -0.000000000000000000, -0.000000000000000000, -1.000000000000000000 ) ) ;
#267 = APPROVAL_PERSON_ORGANIZATION ( #40, #123, #145 ) ;
#268 = CARTESIAN_POINT ( 'NONE',  ( 0.5000000000000000000, 6.123233995736766036E-17, 1.399999999999998579 ) ) ;
#269 = DIRECTION ( 'NONE',  ( -1.000000000000000000, 1.224646799147352714E-16, 0.000000000000000000 ) ) ;
#270 = LINE ( 'NONE', #175, #220 ) ;
#271 = SECURITY_CLASSIFICATION ( '', '', #252 ) ;
#272 = PERSON_AND_ORGANIZATION ( #218, #148 ) ;
#273 = DATE_AND_TIME ( #205, #157 ) ;
#274 = CC_DESIGN_DATE_AND_TIME_ASSIGNMENT ( #181, #208, ( #200 ) ) ;
#275 = PERSON_AND_ORGANIZATION ( #218, #148 ) ;
#276 = ORIENTED_EDGE ( 'NONE', *, *, #242, .F. ) ;
#277 = CIRCLE ( 'NONE', #301, 0.5000000000000000000 ) ;
#278 = PERSON_AND_ORGANIZATION_ROLE ( 'design_owner' ) ;
#279 = ORIENTED_EDGE ( 'NONE', *, *, #197, .F. ) ;
#280 = MANIFOLD_SOLID_BREP ( 'Zaoblit1', #98 ) ;
#281 = PRODUCT_DEFINITION_FORMATION_WITH_SPECIFIED_SOURCE ( 'LIBOVOLNÝ', '', #50, .NOT_KNOWN. ) ;
#282 = ADVANCED_FACE ( 'NONE', ( #296, #223 ), #195, .T. ) ;
#283 = APPROVAL_DATE_TIME ( #273, #179 ) ;
#284 = EDGE_LOOP ( 'NONE', ( #94, #76, #96, #41 ) ) ;
#285 = DIRECTION ( 'NONE',  ( -1.000000000000000000, 0.000000000000000000, 0.000000000000000000 ) ) ;
#286 = VECTOR ( 'NONE', #259, 1000.000000000000000 ) ;
#287 = DIRECTION ( 'NONE',  ( 1.000000000000000000, 0.000000000000000000, 0.000000000000000000 ) ) ;
#288 = LINE ( 'NONE', #105, #286 ) ;
#289 = ADVANCED_FACE ( 'NONE', ( #194 ), #294, .T. ) ;
#290 = DIRECTION ( 'NONE',  ( 0.000000000000000000, 0.000000000000000000, 1.000000000000000000 ) ) ;
#291 = ORIENTED_EDGE ( 'NONE', *, *, #10, .F. ) ;
#292 = CC_DESIGN_APPROVAL ( #293, ( #200 ) ) ;
#293 = APPROVAL ( #17, 'NEURÈENÝ' ) ;
#294 = CYLINDRICAL_SURFACE ( 'NONE', #16, 0.5000000000000000000 ) ;
#295 = DIRECTION ( 'NONE',  ( 0.000000000000000000, 0.000000000000000000, 1.000000000000000000 ) ) ;
#296 = FACE_BOUND ( 'NONE', #261, .T. ) ;
#297 = AXIS2_PLACEMENT_3D ( 'NONE', #64, #295, #136 ) ;
#298 = DIRECTION ( 'NONE',  ( -0.000000000000000000, -0.000000000000000000, -1.000000000000000000 ) ) ;
#299 = PLANE ( 'NONE',  #297 ) ;
#300 = SHAPE_DEFINITION_REPRESENTATION ( #264, #23 ) ;
#301 = AXIS2_PLACEMENT_3D ( 'NONE', #7, #48, #260 ) ;
#302 = MECHANICAL_CONTEXT ( 'NONE', #58, 'mechanical' ) ;
#303 = ORIENTED_EDGE ( 'NONE', *, *, #88, .F. ) ;
#304 = APPROVAL_DATE_TIME ( #45, #293 ) ;
#305 = EDGE_LOOP ( 'NONE', ( #254, #291, #182, #186 ) ) ;
#306 = CIRCLE ( 'NONE', #245, 1.250000000000000000 ) ;
#307 = COORDINATED_UNIVERSAL_TIME_OFFSET ( 1, 0, .AHEAD. ) ;
ENDSEC;
END-ISO-10303-21;
