ISO-10303-21;
HEADER;
FILE_DESCRIPTION (( 'STEP AP203' ),
    '1' );
FILE_NAME ('f462.STEP',
    '2022-06-20T10:17:52',
    ( '' ),
    ( '' ),
    'SwSTEP 2.0',
    'SolidWorks 2019',
    '' );
FILE_SCHEMA (( 'CONFIG_CONTROL_DESIGN' ));
ENDSEC;

DATA;
#1 = FACE_OUTER_BOUND ( 'NONE', #253, .T. ) ;
#2 = ADVANCED_FACE ( 'NONE', ( #297 ), #203, .F. ) ;
#3 = CARTESIAN_POINT ( 'NONE',  ( -2.500000000000000000, 0.000000000000000000, 2.000000000000000000 ) ) ;
#4 = CIRCLE ( 'NONE', #23, 0.2000000000000000944 ) ;
#5 = LOCAL_TIME ( 12, 17, 52.00000000000000000, #105 ) ;
#6 = CARTESIAN_POINT ( 'NONE',  ( -1.450000000000000178, 1.775737858763662409E-16, 2.000000000000003553 ) ) ;
#7 = EDGE_CURVE ( 'NONE', #81, #62, #282, .T. ) ;
#8 = CARTESIAN_POINT ( 'NONE',  ( 0.000000000000000000, 0.000000000000000000, 202.0000000000000000 ) ) ;
#9 = DIRECTION ( 'NONE',  ( -1.000000000000000000, 0.000000000000000000, 0.000000000000000000 ) ) ;
#10 = CARTESIAN_POINT ( 'NONE',  ( 0.000000000000000000, 0.000000000000000000, 202.0000000000000000 ) ) ;
#11 = PERSON_AND_ORGANIZATION_ROLE ( 'creator' ) ;
#12 = PERSON_AND_ORGANIZATION ( #300, #178 ) ;
#13 = APPROVAL ( #54, 'NEURÈENÝ' ) ;
#14 = CARTESIAN_POINT ( 'NONE',  ( -2.500000000000000000, 0.000000000000000000, 2.000000000000000000 ) ) ;
#15 = CARTESIAN_POINT ( 'NONE',  ( 0.000000000000000000, 0.000000000000000000, 2.200000000000007283 ) ) ;
#16 = APPROVAL_PERSON_ORGANIZATION ( #124, #13, #269 ) ;
#17 = DATE_AND_TIME ( #294, #5 ) ;
#18 = EDGE_LOOP ( 'NONE', ( #106, #160, #37, #39 ) ) ;
#19 = ORIENTED_EDGE ( 'NONE', *, *, #28, .F. ) ;
#20 = ORIENTED_EDGE ( 'NONE', *, *, #259, .T. ) ;
#21 = DIRECTION ( 'NONE',  ( 1.000000000000000000, 0.000000000000000000, 0.000000000000000000 ) ) ;
#22 = CARTESIAN_POINT ( 'NONE',  ( 0.000000000000000000, 0.000000000000000000, 2.000000000000000000 ) ) ;
#23 = AXIS2_PLACEMENT_3D ( 'NONE', #260, #61, #41 ) ;
#24 = FACE_OUTER_BOUND ( 'NONE', #233, .T. ) ;
#25 = CC_DESIGN_PERSON_AND_ORGANIZATION_ASSIGNMENT ( #60, #275, ( #116 ) ) ;
#26 = CARTESIAN_POINT ( 'NONE',  ( 0.000000000000000000, 0.000000000000000000, 202.0000000000000000 ) ) ;
#27 = DIRECTION ( 'NONE',  ( 1.000000000000000000, 0.000000000000000000, 0.000000000000000000 ) ) ;
#28 = EDGE_CURVE ( 'NONE', #62, #231, #4, .T. ) ;
#29 = CALENDAR_DATE ( 2022, 20, 6 ) ;
#30 = PRODUCT_DEFINITION_SHAPE ( 'NONE', 'NONE',  #155 ) ;
#31 = SECURITY_CLASSIFICATION ( '', '', #202 ) ;
#32 = COORDINATED_UNIVERSAL_TIME_OFFSET ( 1, 0, .AHEAD. ) ;
#33 = APPROVAL_STATUS ( 'not_yet_approved' ) ;
#34 = EDGE_LOOP ( 'NONE', ( #20, #137 ) ) ;
#35 = EDGE_CURVE ( 'NONE', #44, #278, #173, .T. ) ;
#36 = PLANE ( 'NONE',  #273 ) ;
#37 = ORIENTED_EDGE ( 'NONE', *, *, #7, .T. ) ;
#38 = APPROVAL_DATE_TIME ( #208, #51 ) ;
#39 = ORIENTED_EDGE ( 'NONE', *, *, #249, .F. ) ;
#40 = CALENDAR_DATE ( 2022, 20, 6 ) ;
#41 = DIRECTION ( 'NONE',  ( -1.000000000000000000, 1.224646799147353207E-16, 0.000000000000000000 ) ) ;
#42 = ORIENTED_EDGE ( 'NONE', *, *, #7, .F. ) ;
#43 = ORIENTED_EDGE ( 'NONE', *, *, #238, .T. ) ;
#44 = VERTEX_POINT ( 'NONE', #307 ) ;
#45 = VECTOR ( 'NONE', #252, 1000.000000000000000 ) ;
#46 = DIRECTION ( 'NONE',  ( 0.000000000000000000, 0.000000000000000000, 1.000000000000000000 ) ) ;
#47 = CYLINDRICAL_SURFACE ( 'NONE', #63, 1.250000000000000000 ) ;
#48 = CARTESIAN_POINT ( 'NONE',  ( 0.000000000000000000, 0.000000000000000000, 2.000000000000000000 ) ) ;
#49 = AXIS2_PLACEMENT_3D ( 'NONE', #22, #119, #264 ) ;
#50 = CARTESIAN_POINT ( 'NONE',  ( 1.450000000000000178, 0.000000000000000000, 2.000000000000003553 ) ) ;
#51 = APPROVAL ( #229, 'NEURÈENÝ' ) ;
#52 = DIRECTION ( 'NONE',  ( 0.000000000000000000, 0.000000000000000000, 1.000000000000000000 ) ) ;
#53 = LOCAL_TIME ( 12, 17, 52.00000000000000000, #32 ) ;
#54 = APPROVAL_STATUS ( 'not_yet_approved' ) ;
#55 = EDGE_CURVE ( 'NONE', #62, #81, #139, .T. ) ;
#56 = APPLICATION_CONTEXT ( 'configuration controlled 3d designs of mechanical parts and assemblies' ) ;
#57 = PERSON_AND_ORGANIZATION_ROLE ( 'design_owner' ) ;
#58 = AXIS2_PLACEMENT_3D ( 'NONE', #67, #71, #27 ) ;
#59 = ORIENTED_EDGE ( 'NONE', *, *, #238, .F. ) ;
#60 = PERSON_AND_ORGANIZATION ( #300, #178 ) ;
#61 = DIRECTION ( 'NONE',  ( 1.224646799147353207E-16, 1.000000000000000000, -0.000000000000000000 ) ) ;
#62 = VERTEX_POINT ( 'NONE', #161 ) ;
#63 = AXIS2_PLACEMENT_3D ( 'NONE', #8, #221, #93 ) ;
#64 = ORIENTED_EDGE ( 'NONE', *, *, #55, .T. ) ;
#65 = EDGE_CURVE ( 'NONE', #184, #132, #217, .T. ) ;
#66 = DIRECTION ( 'NONE',  ( 1.000000000000000000, 0.000000000000000000, 0.000000000000000000 ) ) ;
#67 = CARTESIAN_POINT ( 'NONE',  ( 0.000000000000000000, 0.000000000000000000, 2.000000000000000000 ) ) ;
#68 = EDGE_CURVE ( 'NONE', #81, #154, #143, .T. ) ;
#69 = CARTESIAN_POINT ( 'NONE',  ( -1.250000000000000000, 0.000000000000000000, 202.0000000000000000 ) ) ;
#70 = CYLINDRICAL_SURFACE ( 'NONE', #193, 2.500000000000000000 ) ;
#71 = DIRECTION ( 'NONE',  ( -0.000000000000000000, -0.000000000000000000, -1.000000000000000000 ) ) ;
#72 = AXIS2_PLACEMENT_3D ( 'NONE', #26, #164, #239 ) ;
#73 = DIRECTION ( 'NONE',  ( -0.000000000000000000, -0.000000000000000000, -1.000000000000000000 ) ) ;
#74 = DESIGN_CONTEXT ( 'detailed design', #56, 'design' ) ;
#75 = LINE ( 'NONE', #14, #45 ) ;
#76 = AXIS2_PLACEMENT_3D ( 'NONE', #261, #140, #191 ) ;
#77 = DATE_TIME_ROLE ( 'creation_date' ) ;
#78 = DIRECTION ( 'NONE',  ( 0.000000000000000000, 0.000000000000000000, 1.000000000000000000 ) ) ;
#79 = DIRECTION ( 'NONE',  ( 0.000000000000000000, 0.000000000000000000, 1.000000000000000000 ) ) ;
#80 = APPROVAL_DATE_TIME ( #17, #267 ) ;
#81 = VERTEX_POINT ( 'NONE', #92 ) ;
#82 = AXIS2_PLACEMENT_3D ( 'NONE', #271, #79, #129 ) ;
#83 = EDGE_CURVE ( 'NONE', #278, #44, #303, .T. ) ;
#84 = PERSON_AND_ORGANIZATION ( #300, #178 ) ;
#85 = CARTESIAN_POINT ( 'NONE',  ( 0.000000000000000000, 0.000000000000000000, 0.000000000000000000 ) ) ;
#86 = ORIENTED_EDGE ( 'NONE', *, *, #145, .F. ) ;
#87 = CC_DESIGN_PERSON_AND_ORGANIZATION_ASSIGNMENT ( #12, #57, ( #220 ) ) ;
#88 = DIRECTION ( 'NONE',  ( 0.000000000000000000, 0.000000000000000000, 1.000000000000000000 ) ) ;
#89 = CARTESIAN_POINT ( 'NONE',  ( 0.000000000000000000, 0.000000000000000000, 2.200000000000007283 ) ) ;
#90 = FACE_OUTER_BOUND ( 'NONE', #237, .T. ) ;
#91 = CC_DESIGN_DATE_AND_TIME_ASSIGNMENT ( #293, #77, ( #155 ) ) ;
#92 = CARTESIAN_POINT ( 'NONE',  ( 1.250000000000000000, 1.530808498934191571E-16, 2.200000000000007283 ) ) ;
#93 = DIRECTION ( 'NONE',  ( -1.000000000000000000, 0.000000000000000000, 0.000000000000000000 ) ) ;
#94 = CARTESIAN_POINT ( 'NONE',  ( 2.500000000000000000, 3.061616997868383141E-16, 2.000000000000000000 ) ) ;
#95 = ADVANCED_FACE ( 'NONE', ( #123 ), #211, .F. ) ;
#96 = CYLINDRICAL_SURFACE ( 'NONE', #72, 1.250000000000000000 ) ;
#97 = MANIFOLD_SOLID_BREP ( 'Zaoblit1', #162 ) ;
#98 = VECTOR ( 'NONE', #195, 1000.000000000000000 ) ;
#99 = CC_DESIGN_APPROVAL ( #51, ( #31 ) ) ;
#100 = PERSON_AND_ORGANIZATION ( #300, #178 ) ;
#101 = DIRECTION ( 'NONE',  ( 1.000000000000000000, 0.000000000000000000, -0.000000000000000000 ) ) ;
#102 =( LENGTH_UNIT ( ) NAMED_UNIT ( * ) SI_UNIT ( .MILLI., .METRE. ) );
#103 = AXIS2_PLACEMENT_3D ( 'NONE', #89, #186, #66 ) ;
#104 = CIRCLE ( 'NONE', #298, 1.250000000000000000 ) ;
#105 = COORDINATED_UNIVERSAL_TIME_OFFSET ( 1, 0, .AHEAD. ) ;
#106 = ORIENTED_EDGE ( 'NONE', *, *, #65, .F. ) ;
#107 = DATE_TIME_ROLE ( 'classification_date' ) ;
#108 = CC_DESIGN_PERSON_AND_ORGANIZATION_ASSIGNMENT ( #182, #134, ( #31 ) ) ;
#109 = ORIENTED_EDGE ( 'NONE', *, *, #145, .T. ) ;
#110 = CARTESIAN_POINT ( 'NONE',  ( 0.000000000000000000, 0.000000000000000000, 2.200000000000007283 ) ) ;
#111 = COORDINATED_UNIVERSAL_TIME_OFFSET ( 1, 0, .AHEAD. ) ;
#112 = ORIENTED_EDGE ( 'NONE', *, *, #68, .F. ) ;
#113 = ORIENTED_EDGE ( 'NONE', *, *, #55, .F. ) ;
#114 = CIRCLE ( 'NONE', #49, 2.500000000000000000 ) ;
#115 = DIRECTION ( 'NONE',  ( 0.000000000000000000, 0.000000000000000000, 1.000000000000000000 ) ) ;
#116 = PRODUCT_DEFINITION_FORMATION_WITH_SPECIFIED_SOURCE ( 'LIBOVOLNÝ', '', #220, .NOT_KNOWN. ) ;
#117 = CYLINDRICAL_SURFACE ( 'NONE', #150, 2.500000000000000000 ) ;
#118 = CARTESIAN_POINT ( 'NONE',  ( 0.000000000000000000, 0.000000000000000000, 0.000000000000000000 ) ) ;
#119 = DIRECTION ( 'NONE',  ( 0.000000000000000000, 0.000000000000000000, 1.000000000000000000 ) ) ;
#120 = CIRCLE ( 'NONE', #158, 1.450000000000000178 ) ;
#121 = DIRECTION ( 'NONE',  ( 1.000000000000000000, 0.000000000000000000, -0.000000000000000000 ) ) ;
#122 = EDGE_CURVE ( 'NONE', #210, #213, #114, .T. ) ;
#123 = FACE_OUTER_BOUND ( 'NONE', #183, .T. ) ;
#124 = PERSON_AND_ORGANIZATION ( #300, #178 ) ;
#125 = APPROVAL_PERSON_ORGANIZATION ( #250, #267, #127 ) ;
#126 = APPROVAL_DATE_TIME ( #223, #13 ) ;
#127 = APPROVAL_ROLE ( '' ) ;
#128 = AXIS2_PLACEMENT_3D ( 'NONE', #188, #146, #147 ) ;
#129 = DIRECTION ( 'NONE',  ( 1.000000000000000000, 0.000000000000000000, 0.000000000000000000 ) ) ;
#130 = PERSON_AND_ORGANIZATION ( #300, #178 ) ;
#131 = SHAPE_DEFINITION_REPRESENTATION ( #30, #243 ) ;
#132 = VERTEX_POINT ( 'NONE', #69 ) ;
#133 = AXIS2_PLACEMENT_3D ( 'NONE', #15, #88, #185 ) ;
#134 = PERSON_AND_ORGANIZATION_ROLE ( 'classification_officer' ) ;
#135 = DIRECTION ( 'NONE',  ( 0.000000000000000000, 0.000000000000000000, 1.000000000000000000 ) ) ;
#136 = CC_DESIGN_APPROVAL ( #13, ( #155 ) ) ;
#137 = ORIENTED_EDGE ( 'NONE', *, *, #65, .T. ) ;
#138 = ORIENTED_EDGE ( 'NONE', *, *, #187, .F. ) ;
#139 = CIRCLE ( 'NONE', #103, 1.250000000000000000 ) ;
#140 = DIRECTION ( 'NONE',  ( 0.000000000000000000, 0.000000000000000000, 1.000000000000000000 ) ) ;
#141 = DIRECTION ( 'NONE',  ( 1.000000000000000000, 0.000000000000000000, -0.000000000000000000 ) ) ;
#142 = DIRECTION ( 'NONE',  ( -0.000000000000000000, -0.000000000000000000, -1.000000000000000000 ) ) ;
#143 = CIRCLE ( 'NONE', #128, 0.2000000000000000944 ) ;
#144 = DIRECTION ( 'NONE',  ( 1.000000000000000000, 0.000000000000000000, 0.000000000000000000 ) ) ;
#145 = EDGE_CURVE ( 'NONE', #231, #154, #247, .T. ) ;
#146 = DIRECTION ( 'NONE',  ( 0.000000000000000000, -1.000000000000000000, 0.000000000000000000 ) ) ;
#147 = DIRECTION ( 'NONE',  ( 0.000000000000000000, 0.000000000000000000, -1.000000000000000000 ) ) ;
#148 = CC_DESIGN_PERSON_AND_ORGANIZATION_ASSIGNMENT ( #100, #11, ( #155 ) ) ;
#149 = DIRECTION ( 'NONE',  ( -1.000000000000000000, 0.000000000000000000, 0.000000000000000000 ) ) ;
#150 = AXIS2_PLACEMENT_3D ( 'NONE', #165, #168, #9 ) ;
#151 = COORDINATED_UNIVERSAL_TIME_OFFSET ( 1, 0, .AHEAD. ) ;
#152 = DIRECTION ( 'NONE',  ( 1.000000000000000000, 0.000000000000000000, 0.000000000000000000 ) ) ;
#153 = EDGE_LOOP ( 'NONE', ( #174, #109 ) ) ;
#154 = VERTEX_POINT ( 'NONE', #50 ) ;
#155 = PRODUCT_DEFINITION ( 'NEZNÁMÝ', '', #116, #74 ) ;
#156 = CALENDAR_DATE ( 2022, 20, 6 ) ;
#157 = ORIENTED_EDGE ( 'NONE', *, *, #122, .T. ) ;
#158 = AXIS2_PLACEMENT_3D ( 'NONE', #266, #73, #144 ) ;
#159 = ORIENTED_EDGE ( 'NONE', *, *, #35, .T. ) ;
#160 = ORIENTED_EDGE ( 'NONE', *, *, #224, .T. ) ;
#161 = CARTESIAN_POINT ( 'NONE',  ( -1.250000000000000000, 0.000000000000000000, 2.200000000000007283 ) ) ;
#162 = CLOSED_SHELL ( 'NONE', ( #2, #163, #172, #234, #181, #199, #177, #254, #95 ) ) ;
#163 = ADVANCED_FACE ( 'NONE', ( #281 ), #47, .T. ) ;
#164 = DIRECTION ( 'NONE',  ( -0.000000000000000000, -0.000000000000000000, -1.000000000000000000 ) ) ;
#165 = CARTESIAN_POINT ( 'NONE',  ( 0.000000000000000000, 0.000000000000000000, 2.000000000000000000 ) ) ;
#166 = CARTESIAN_POINT ( 'NONE',  ( 0.000000000000000000, 0.000000000000000000, 2.200000000000007283 ) ) ;
#167 = AXIS2_PLACEMENT_3D ( 'NONE', #118, #287, #21 ) ;
#168 = DIRECTION ( 'NONE',  ( -0.000000000000000000, -0.000000000000000000, -1.000000000000000000 ) ) ;
#169 = UNCERTAINTY_MEASURE_WITH_UNIT (LENGTH_MEASURE( 1.000000000000000082E-05 ), #102, 'distance_accuracy_value', 'NONE');
#170 = FACE_OUTER_BOUND ( 'NONE', #235, .T. ) ;
#171 = APPLICATION_PROTOCOL_DEFINITION ( 'international standard', 'config_control_design', 1994, #304 ) ;
#172 = ADVANCED_FACE ( 'NONE', ( #170 ), #117, .T. ) ;
#173 = CIRCLE ( 'NONE', #225, 2.500000000000000000 ) ;
#174 = ORIENTED_EDGE ( 'NONE', *, *, #187, .T. ) ;
#175 =( GEOMETRIC_REPRESENTATION_CONTEXT ( 3 ) GLOBAL_UNCERTAINTY_ASSIGNED_CONTEXT ( ( #169 ) ) GLOBAL_UNIT_ASSIGNED_CONTEXT ( ( #102, #176, #291 ) ) REPRESENTATION_CONTEXT ( 'NONE', 'WORKASPACE' ) );
#176 =( NAMED_UNIT ( * ) PLANE_ANGLE_UNIT ( ) SI_UNIT ( $, .RADIAN. ) );
#177 = ADVANCED_FACE ( 'NONE', ( #1 ), #96, .T. ) ;
#178 = ORGANIZATION ( 'NEURÈENÝ', 'NEURÈENÝ', '' ) ;
#179 = COORDINATED_UNIVERSAL_TIME_OFFSET ( 1, 0, .AHEAD. ) ;
#180 = ORIENTED_EDGE ( 'NONE', *, *, #286, .T. ) ;
#181 = ADVANCED_FACE ( 'NONE', ( #215, #90 ), #192, .T. ) ;
#182 = PERSON_AND_ORGANIZATION ( #300, #178 ) ;
#183 = EDGE_LOOP ( 'NONE', ( #19, #42, #276, #86 ) ) ;
#184 = VERTEX_POINT ( 'NONE', #216 ) ;
#185 = DIRECTION ( 'NONE',  ( 1.000000000000000000, 0.000000000000000000, 0.000000000000000000 ) ) ;
#186 = DIRECTION ( 'NONE',  ( 0.000000000000000000, 0.000000000000000000, 1.000000000000000000 ) ) ;
#187 = EDGE_CURVE ( 'NONE', #154, #231, #120, .T. ) ;
#188 = CARTESIAN_POINT ( 'NONE',  ( 1.450000000000000178, 0.000000000000000000, 2.200000000000007283 ) ) ;
#189 = LINE ( 'NONE', #268, #212 ) ;
#190 = CARTESIAN_POINT ( 'NONE',  ( 2.500000000000000000, 3.061616997868383141E-16, 2.000000000000000000 ) ) ;
#191 = DIRECTION ( 'NONE',  ( 1.000000000000000000, 0.000000000000000000, 0.000000000000000000 ) ) ;
#192 = PLANE ( 'NONE',  #306 ) ;
#193 = AXIS2_PLACEMENT_3D ( 'NONE', #48, #241, #149 ) ;
#194 = APPROVAL_PERSON_ORGANIZATION ( #130, #51, #205 ) ;
#195 = DIRECTION ( 'NONE',  ( -0.000000000000000000, -0.000000000000000000, -1.000000000000000000 ) ) ;
#196 = PRODUCT_RELATED_PRODUCT_CATEGORY ( 'detail', '', ( #220 ) ) ;
#197 = CARTESIAN_POINT ( 'NONE',  ( 0.000000000000000000, 0.000000000000000000, 202.0000000000000000 ) ) ;
#198 = CALENDAR_DATE ( 2022, 20, 6 ) ;
#199 = ADVANCED_FACE ( 'NONE', ( #24 ), #218, .F. ) ;
#200 = MECHANICAL_CONTEXT ( 'NONE', #304, 'mechanical' ) ;
#201 = ORIENTED_EDGE ( 'NONE', *, *, #83, .T. ) ;
#202 = SECURITY_CLASSIFICATION_LEVEL ( 'unclassified' ) ;
#203 = TOROIDAL_SURFACE ( 'NONE', #133, 1.450000000000000178, 0.2000000000000000111 ) ;
#204 = ORIENTED_EDGE ( 'NONE', *, *, #122, .F. ) ;
#205 = APPROVAL_ROLE ( '' ) ;
#206 = CC_DESIGN_SECURITY_CLASSIFICATION ( #31, ( #116 ) ) ;
#207 = ORIENTED_EDGE ( 'NONE', *, *, #224, .F. ) ;
#208 = DATE_AND_TIME ( #40, #214 ) ;
#209 = EDGE_LOOP ( 'NONE', ( #292, #59, #180, #159 ) ) ;
#210 = VERTEX_POINT ( 'NONE', #94 ) ;
#211 = TOROIDAL_SURFACE ( 'NONE', #251, 1.450000000000000178, 0.2000000000000000111 ) ;
#212 = VECTOR ( 'NONE', #142, 1000.000000000000000 ) ;
#213 = VERTEX_POINT ( 'NONE', #3 ) ;
#214 = LOCAL_TIME ( 12, 17, 52.00000000000000000, #111 ) ;
#215 = FACE_BOUND ( 'NONE', #153, .T. ) ;
#216 = CARTESIAN_POINT ( 'NONE',  ( 1.250000000000000000, 1.530808498934191571E-16, 202.0000000000000000 ) ) ;
#217 = CIRCLE ( 'NONE', #76, 1.250000000000000000 ) ;
#218 = PLANE ( 'NONE',  #219 ) ;
#219 = AXIS2_PLACEMENT_3D ( 'NONE', #262, #46, #141 ) ;
#220 = PRODUCT ( 'f462', 'f462', '', ( #200 ) ) ;
#221 = DIRECTION ( 'NONE',  ( -0.000000000000000000, -0.000000000000000000, -1.000000000000000000 ) ) ;
#222 = DIRECTION ( 'NONE',  ( 1.000000000000000000, 0.000000000000000000, 0.000000000000000000 ) ) ;
#223 = DATE_AND_TIME ( #29, #53 ) ;
#224 = EDGE_CURVE ( 'NONE', #184, #81, #189, .T. ) ;
#225 = AXIS2_PLACEMENT_3D ( 'NONE', #85, #135, #232 ) ;
#226 = DIRECTION ( 'NONE',  ( 1.000000000000000000, 0.000000000000000000, 0.000000000000000000 ) ) ;
#227 = LOCAL_TIME ( 12, 17, 52.00000000000000000, #179 ) ;
#228 = CARTESIAN_POINT ( 'NONE',  ( -1.250000000000000000, 0.000000000000000000, 202.0000000000000000 ) ) ;
#229 = APPROVAL_STATUS ( 'not_yet_approved' ) ;
#230 = EDGE_CURVE ( 'NONE', #210, #278, #283, .T. ) ;
#231 = VERTEX_POINT ( 'NONE', #6 ) ;
#232 = DIRECTION ( 'NONE',  ( 1.000000000000000000, 0.000000000000000000, 0.000000000000000000 ) ) ;
#233 = EDGE_LOOP ( 'NONE', ( #256, #301 ) ) ;
#234 = ADVANCED_FACE ( 'NONE', ( #285 ), #70, .T. ) ;
#235 = EDGE_LOOP ( 'NONE', ( #204, #274, #201, #302 ) ) ;
#236 = CIRCLE ( 'NONE', #242, 2.500000000000000000 ) ;
#237 = EDGE_LOOP ( 'NONE', ( #43, #157 ) ) ;
#238 = EDGE_CURVE ( 'NONE', #213, #210, #236, .T. ) ;
#239 = DIRECTION ( 'NONE',  ( -1.000000000000000000, 0.000000000000000000, 0.000000000000000000 ) ) ;
#240 = DIRECTION ( 'NONE',  ( -0.000000000000000000, -0.000000000000000000, -1.000000000000000000 ) ) ;
#241 = DIRECTION ( 'NONE',  ( -0.000000000000000000, -0.000000000000000000, -1.000000000000000000 ) ) ;
#242 = AXIS2_PLACEMENT_3D ( 'NONE', #290, #52, #152 ) ;
#243 = ADVANCED_BREP_SHAPE_REPRESENTATION ( 'f462', ( #97, #82 ), #175 ) ;
#244 = DIRECTION ( 'NONE',  ( 0.000000000000000000, 0.000000000000000000, 1.000000000000000000 ) ) ;
#245 = CARTESIAN_POINT ( 'NONE',  ( 2.500000000000000000, 3.061616997868383141E-16, 0.000000000000000000 ) ) ;
#246 = LINE ( 'NONE', #228, #98 ) ;
#247 = CIRCLE ( 'NONE', #58, 1.450000000000000178 ) ;
#248 = APPLICATION_PROTOCOL_DEFINITION ( 'international standard', 'config_control_design', 1994, #56 ) ;
#249 = EDGE_CURVE ( 'NONE', #132, #62, #246, .T. ) ;
#250 = PERSON_AND_ORGANIZATION ( #300, #178 ) ;
#251 = AXIS2_PLACEMENT_3D ( 'NONE', #166, #244, #222 ) ;
#252 = DIRECTION ( 'NONE',  ( -0.000000000000000000, -0.000000000000000000, -1.000000000000000000 ) ) ;
#253 = EDGE_LOOP ( 'NONE', ( #207, #258, #295, #64 ) ) ;
#254 = ADVANCED_FACE ( 'NONE', ( #272 ), #36, .T. ) ;
#255 = DATE_AND_TIME ( #156, #227 ) ;
#256 = ORIENTED_EDGE ( 'NONE', *, *, #35, .F. ) ;
#257 = PERSON_AND_ORGANIZATION_ROLE ( 'design_supplier' ) ;
#258 = ORIENTED_EDGE ( 'NONE', *, *, #259, .F. ) ;
#259 = EDGE_CURVE ( 'NONE', #132, #184, #104, .T. ) ;
#260 = CARTESIAN_POINT ( 'NONE',  ( -1.450000000000000178, 1.775737858763662163E-16, 2.200000000000007283 ) ) ;
#261 = CARTESIAN_POINT ( 'NONE',  ( 0.000000000000000000, 0.000000000000000000, 202.0000000000000000 ) ) ;
#262 = CARTESIAN_POINT ( 'NONE',  ( 0.000000000000000000, 0.000000000000000000, 0.000000000000000000 ) ) ;
#263 = CARTESIAN_POINT ( 'NONE',  ( 0.000000000000000000, 0.000000000000000000, 2.000000000000000000 ) ) ;
#264 = DIRECTION ( 'NONE',  ( 1.000000000000000000, 0.000000000000000000, 0.000000000000000000 ) ) ;
#265 = AXIS2_PLACEMENT_3D ( 'NONE', #110, #115, #279 ) ;
#266 = CARTESIAN_POINT ( 'NONE',  ( 0.000000000000000000, 0.000000000000000000, 2.000000000000000000 ) ) ;
#267 = APPROVAL ( #33, 'NEURÈENÝ' ) ;
#268 = CARTESIAN_POINT ( 'NONE',  ( 1.250000000000000000, 1.530808498934191571E-16, 202.0000000000000000 ) ) ;
#269 = APPROVAL_ROLE ( '' ) ;
#270 = DIRECTION ( 'NONE',  ( 0.000000000000000000, 0.000000000000000000, 1.000000000000000000 ) ) ;
#271 = CARTESIAN_POINT ( 'NONE',  ( 0.000000000000000000, 0.000000000000000000, 0.000000000000000000 ) ) ;
#272 = FACE_OUTER_BOUND ( 'NONE', #34, .T. ) ;
#273 = AXIS2_PLACEMENT_3D ( 'NONE', #10, #78, #101 ) ;
#274 = ORIENTED_EDGE ( 'NONE', *, *, #230, .T. ) ;
#275 = PERSON_AND_ORGANIZATION_ROLE ( 'creator' ) ;
#276 = ORIENTED_EDGE ( 'NONE', *, *, #68, .T. ) ;
#277 = CC_DESIGN_DATE_AND_TIME_ASSIGNMENT ( #255, #107, ( #31 ) ) ;
#278 = VERTEX_POINT ( 'NONE', #245 ) ;
#279 = DIRECTION ( 'NONE',  ( 1.000000000000000000, 0.000000000000000000, 0.000000000000000000 ) ) ;
#280 = ORIENTED_EDGE ( 'NONE', *, *, #28, .T. ) ;
#281 = FACE_OUTER_BOUND ( 'NONE', #18, .T. ) ;
#282 = CIRCLE ( 'NONE', #265, 1.250000000000000000 ) ;
#283 = LINE ( 'NONE', #190, #289 ) ;
#284 = CC_DESIGN_APPROVAL ( #267, ( #116 ) ) ;
#285 = FACE_OUTER_BOUND ( 'NONE', #209, .T. ) ;
#286 = EDGE_CURVE ( 'NONE', #213, #44, #75, .T. ) ;
#287 = DIRECTION ( 'NONE',  ( 0.000000000000000000, 0.000000000000000000, 1.000000000000000000 ) ) ;
#288 = DIRECTION ( 'NONE',  ( 0.000000000000000000, 0.000000000000000000, 1.000000000000000000 ) ) ;
#289 = VECTOR ( 'NONE', #240, 1000.000000000000000 ) ;
#290 = CARTESIAN_POINT ( 'NONE',  ( 0.000000000000000000, 0.000000000000000000, 2.000000000000000000 ) ) ;
#291 =( NAMED_UNIT ( * ) SI_UNIT ( $, .STERADIAN. ) SOLID_ANGLE_UNIT ( ) );
#292 = ORIENTED_EDGE ( 'NONE', *, *, #230, .F. ) ;
#293 = DATE_AND_TIME ( #198, #299 ) ;
#294 = CALENDAR_DATE ( 2022, 20, 6 ) ;
#295 = ORIENTED_EDGE ( 'NONE', *, *, #249, .T. ) ;
#296 = CC_DESIGN_PERSON_AND_ORGANIZATION_ASSIGNMENT ( #84, #257, ( #116 ) ) ;
#297 = FACE_OUTER_BOUND ( 'NONE', #305, .T. ) ;
#298 = AXIS2_PLACEMENT_3D ( 'NONE', #197, #270, #226 ) ;
#299 = LOCAL_TIME ( 12, 17, 52.00000000000000000, #151 ) ;
#300 = PERSON ( 'NEURÈENÝ', 'NEURÈENÝ', 'NEURÈENÝ', ('NEURÈENÝ'), ('NEURÈENÝ'), ('NEURÈENÝ') ) ;
#301 = ORIENTED_EDGE ( 'NONE', *, *, #83, .F. ) ;
#302 = ORIENTED_EDGE ( 'NONE', *, *, #286, .F. ) ;
#303 = CIRCLE ( 'NONE', #167, 2.500000000000000000 ) ;
#304 = APPLICATION_CONTEXT ( 'configuration controlled 3d designs of mechanical parts and assemblies' ) ;
#305 = EDGE_LOOP ( 'NONE', ( #113, #280, #138, #112 ) ) ;
#306 = AXIS2_PLACEMENT_3D ( 'NONE', #263, #288, #121 ) ;
#307 = CARTESIAN_POINT ( 'NONE',  ( -2.500000000000000000, 0.000000000000000000, 0.000000000000000000 ) ) ;
ENDSEC;
END-ISO-10303-21;
