ISO-10303-21;
HEADER;
FILE_DESCRIPTION (( 'STEP AP203' ),
    '1' );
FILE_NAME ('aba7.STEP',
    '2022-06-20T09:35:01',
    ( '' ),
    ( '' ),
    'SwSTEP 2.0',
    'SolidWorks 2019',
    '' );
FILE_SCHEMA (( 'CONFIG_CONTROL_DESIGN' ));
ENDSEC;

DATA;
#1 = LINE ( 'NONE', #239, #46 ) ;
#2 = AXIS2_PLACEMENT_3D ( 'NONE', #93, #188, #162 ) ;
#3 = ORIENTED_EDGE ( 'NONE', *, *, #21, .T. ) ;
#4 = ORIENTED_EDGE ( 'NONE', *, *, #238, .F. ) ;
#5 = PERSON_AND_ORGANIZATION ( #125, #204 ) ;
#6 = EDGE_LOOP ( 'NONE', ( #182, #51, #264, #26 ) ) ;
#7 = ORIENTED_EDGE ( 'NONE', *, *, #238, .T. ) ;
#8 = CC_DESIGN_APPROVAL ( #149, ( #141 ) ) ;
#9 = CYLINDRICAL_SURFACE ( 'NONE', #224, 8.000000000000000000 ) ;
#10 = LINE ( 'NONE', #16, #13 ) ;
#11 = EDGE_CURVE ( 'NONE', #104, #86, #156, .T. ) ;
#12 = DIRECTION ( 'NONE',  ( 0.000000000000000000, 0.000000000000000000, 1.000000000000000000 ) ) ;
#13 = VECTOR ( 'NONE', #276, 1000.000000000000000 ) ;
#14 = CARTESIAN_POINT ( 'NONE',  ( -8.000000000000000000, 0.000000000000000000, 0.000000000000000000 ) ) ;
#15 = CC_DESIGN_PERSON_AND_ORGANIZATION_ASSIGNMENT ( #286, #102, ( #221 ) ) ;
#16 = CARTESIAN_POINT ( 'NONE',  ( 8.000000000000000000, 9.797174393178825657E-16, 5.000000000000000000 ) ) ;
#17 = PERSON_AND_ORGANIZATION ( #125, #204 ) ;
#18 = AXIS2_PLACEMENT_3D ( 'NONE', #165, #24, #307 ) ;
#19 =( NAMED_UNIT ( * ) SI_UNIT ( $, .STERADIAN. ) SOLID_ANGLE_UNIT ( ) );
#20 = PRODUCT_DEFINITION_SHAPE ( 'NONE', 'NONE',  #221 ) ;
#21 = EDGE_CURVE ( 'NONE', #131, #104, #270, .T. ) ;
#22 = AXIS2_PLACEMENT_3D ( 'NONE', #116, #231, #142 ) ;
#23 = AXIS2_PLACEMENT_3D ( 'NONE', #195, #234, #124 ) ;
#24 = DIRECTION ( 'NONE',  ( -0.000000000000000000, -0.000000000000000000, -1.000000000000000000 ) ) ;
#25 = APPROVAL ( #254, 'NEURÈENÝ' ) ;
#26 = ORIENTED_EDGE ( 'NONE', *, *, #21, .F. ) ;
#27 = VERTEX_POINT ( 'NONE', #83 ) ;
#28 = DIRECTION ( 'NONE',  ( -0.000000000000000000, -0.000000000000000000, -1.000000000000000000 ) ) ;
#29 = SHAPE_DEFINITION_REPRESENTATION ( #20, #76 ) ;
#30 = ORIENTED_EDGE ( 'NONE', *, *, #11, .F. ) ;
#31 = EDGE_CURVE ( 'NONE', #131, #198, #290, .T. ) ;
#32 = DATE_TIME_ROLE ( 'classification_date' ) ;
#33 = EDGE_LOOP ( 'NONE', ( #80, #218, #3, #108 ) ) ;
#34 = FACE_OUTER_BOUND ( 'NONE', #138, .T. ) ;
#35 = AXIS2_PLACEMENT_3D ( 'NONE', #150, #147, #193 ) ;
#36 = EDGE_CURVE ( 'NONE', #198, #86, #1, .T. ) ;
#37 = CARTESIAN_POINT ( 'NONE',  ( 0.000000000000000000, 0.000000000000000000, 5.199999999999982414 ) ) ;
#38 = AXIS2_PLACEMENT_3D ( 'NONE', #200, #217, #153 ) ;
#39 = CARTESIAN_POINT ( 'NONE',  ( 0.000000000000000000, 0.000000000000000000, 5.000000000000000000 ) ) ;
#40 = DIRECTION ( 'NONE',  ( 0.000000000000000000, 0.000000000000000000, -1.000000000000000000 ) ) ;
#41 = CYLINDRICAL_SURFACE ( 'NONE', #112, 8.000000000000000000 ) ;
#42 = FACE_OUTER_BOUND ( 'NONE', #294, .T. ) ;
#43 = ADVANCED_FACE ( 'NONE', ( #177 ), #265, .T. ) ;
#44 = DIRECTION ( 'NONE',  ( 1.000000000000000000, 0.000000000000000000, 0.000000000000000000 ) ) ;
#45 = ORIENTED_EDGE ( 'NONE', *, *, #128, .F. ) ;
#46 = VECTOR ( 'NONE', #28, 1000.000000000000000 ) ;
#47 = CALENDAR_DATE ( 2022, 20, 6 ) ;
#48 = EDGE_CURVE ( 'NONE', #237, #107, #121, .T. ) ;
#49 = AXIS2_PLACEMENT_3D ( 'NONE', #37, #66, #227 ) ;
#50 = APPROVAL_DATE_TIME ( #137, #149 ) ;
#51 = ORIENTED_EDGE ( 'NONE', *, *, #36, .T. ) ;
#52 = PERSON_AND_ORGANIZATION_ROLE ( 'design_supplier' ) ;
#53 = EDGE_LOOP ( 'NONE', ( #283, #110 ) ) ;
#54 = COORDINATED_UNIVERSAL_TIME_OFFSET ( 1, 0, .AHEAD. ) ;
#55 = APPROVAL ( #168, 'NEURÈENÝ' ) ;
#56 = AXIS2_PLACEMENT_3D ( 'NONE', #210, #299, #40 ) ;
#57 = CARTESIAN_POINT ( 'NONE',  ( 0.000000000000000000, 0.000000000000000000, 505.0000000000000000 ) ) ;
#58 = COORDINATED_UNIVERSAL_TIME_OFFSET ( 1, 0, .AHEAD. ) ;
#59 = ORIENTED_EDGE ( 'NONE', *, *, #304, .T. ) ;
#60 = EDGE_LOOP ( 'NONE', ( #81, #205 ) ) ;
#61 = ADVANCED_FACE ( 'NONE', ( #271 ), #209, .T. ) ;
#62 = DIRECTION ( 'NONE',  ( 1.000000000000000000, 0.000000000000000000, 0.000000000000000000 ) ) ;
#63 = LOCAL_TIME ( 11, 35, 1.000000000000000000, #54 ) ;
#64 = APPROVAL_PERSON_ORGANIZATION ( #134, #149, #267 ) ;
#65 = CARTESIAN_POINT ( 'NONE',  ( 5.699999999999999289, 0.000000000000000000, 4.999999999999991118 ) ) ;
#66 = DIRECTION ( 'NONE',  ( 0.000000000000000000, 0.000000000000000000, 1.000000000000000000 ) ) ;
#67 = CIRCLE ( 'NONE', #136, 8.000000000000000000 ) ;
#68 = DIRECTION ( 'NONE',  ( 0.000000000000000000, 0.000000000000000000, 1.000000000000000000 ) ) ;
#69 = CARTESIAN_POINT ( 'NONE',  ( 0.000000000000000000, 0.000000000000000000, 5.199999999999982414 ) ) ;
#70 = DIRECTION ( 'NONE',  ( 1.000000000000000000, 0.000000000000000000, -0.000000000000000000 ) ) ;
#71 = DIRECTION ( 'NONE',  ( -0.000000000000000000, -0.000000000000000000, -1.000000000000000000 ) ) ;
#72 = PERSON_AND_ORGANIZATION ( #125, #204 ) ;
#73 = APPROVAL_DATE_TIME ( #285, #55 ) ;
#74 = ADVANCED_FACE ( 'NONE', ( #160 ), #207, .T. ) ;
#75 = CIRCLE ( 'NONE', #171, 8.000000000000000000 ) ;
#76 = ADVANCED_BREP_SHAPE_REPRESENTATION ( 'aba7', ( #79, #23 ), #184 ) ;
#77 = PERSON_AND_ORGANIZATION_ROLE ( 'classification_officer' ) ;
#78 = CALENDAR_DATE ( 2022, 20, 6 ) ;
#79 = MANIFOLD_SOLID_BREP ( 'Zaoblit1', #175 ) ;
#80 = ORIENTED_EDGE ( 'NONE', *, *, #36, .F. ) ;
#81 = ORIENTED_EDGE ( 'NONE', *, *, #82, .T. ) ;
#82 = EDGE_CURVE ( 'NONE', #223, #196, #75, .T. ) ;
#83 = CARTESIAN_POINT ( 'NONE',  ( 8.000000000000000000, 9.797174393178825657E-16, 0.000000000000000000 ) ) ;
#84 = COORDINATED_UNIVERSAL_TIME_OFFSET ( 1, 0, .AHEAD. ) ;
#85 = VECTOR ( 'NONE', #98, 1000.000000000000000 ) ;
#86 = VERTEX_POINT ( 'NONE', #91 ) ;
#87 = CARTESIAN_POINT ( 'NONE',  ( 0.000000000000000000, 0.000000000000000000, 5.199999999999982414 ) ) ;
#88 = CC_DESIGN_PERSON_AND_ORGANIZATION_ASSIGNMENT ( #106, #52, ( #139 ) ) ;
#89 = CARTESIAN_POINT ( 'NONE',  ( 0.000000000000000000, 0.000000000000000000, 5.000000000000000000 ) ) ;
#90 = DIRECTION ( 'NONE',  ( 1.000000000000000000, 0.000000000000000000, 0.000000000000000000 ) ) ;
#91 = CARTESIAN_POINT ( 'NONE',  ( 5.500000000000000000, 6.735557395310442023E-16, 5.199999999999982414 ) ) ;
#92 = EDGE_CURVE ( 'NONE', #196, #223, #67, .T. ) ;
#93 = CARTESIAN_POINT ( 'NONE',  ( 0.000000000000000000, 0.000000000000000000, 505.0000000000000000 ) ) ;
#94 = AXIS2_PLACEMENT_3D ( 'NONE', #39, #211, #114 ) ;
#95 = CARTESIAN_POINT ( 'NONE',  ( -5.500000000000000000, 0.000000000000000000, 5.199999999999982414 ) ) ;
#96 = CC_DESIGN_APPROVAL ( #55, ( #221 ) ) ;
#97 = APPROVAL_ROLE ( '' ) ;
#98 = DIRECTION ( 'NONE',  ( -0.000000000000000000, -0.000000000000000000, -1.000000000000000000 ) ) ;
#99 = APPLICATION_PROTOCOL_DEFINITION ( 'international standard', 'config_control_design', 1994, #119 ) ;
#100 = TOROIDAL_SURFACE ( 'NONE', #245, 5.699999999999999289, 0.2000000000000000111 ) ;
#101 = CC_DESIGN_PERSON_AND_ORGANIZATION_ASSIGNMENT ( #72, #123, ( #247 ) ) ;
#102 = PERSON_AND_ORGANIZATION_ROLE ( 'creator' ) ;
#103 = SECURITY_CLASSIFICATION_LEVEL ( 'unclassified' ) ;
#104 = VERTEX_POINT ( 'NONE', #95 ) ;
#105 = CIRCLE ( 'NONE', #56, 0.1999999999999996503 ) ;
#106 = PERSON_AND_ORGANIZATION ( #125, #204 ) ;
#107 = VERTEX_POINT ( 'NONE', #65 ) ;
#108 = ORIENTED_EDGE ( 'NONE', *, *, #11, .T. ) ;
#109 = DATE_AND_TIME ( #258, #278 ) ;
#110 = ORIENTED_EDGE ( 'NONE', *, *, #251, .T. ) ;
#111 = PRODUCT_RELATED_PRODUCT_CATEGORY ( 'detail', '', ( #247 ) ) ;
#112 = AXIS2_PLACEMENT_3D ( 'NONE', #235, #71, #280 ) ;
#113 = EDGE_LOOP ( 'NONE', ( #30, #157, #152, #4 ) ) ;
#114 = DIRECTION ( 'NONE',  ( 1.000000000000000000, 0.000000000000000000, 0.000000000000000000 ) ) ;
#115 = UNCERTAINTY_MEASURE_WITH_UNIT (LENGTH_MEASURE( 1.000000000000000082E-05 ), #164, 'distance_accuracy_value', 'NONE');
#116 = CARTESIAN_POINT ( 'NONE',  ( 0.000000000000000000, 0.000000000000000000, 505.0000000000000000 ) ) ;
#117 = CARTESIAN_POINT ( 'NONE',  ( 0.000000000000000000, 0.000000000000000000, 505.0000000000000000 ) ) ;
#118 = ADVANCED_FACE ( 'NONE', ( #296, #161 ), #145, .T. ) ;
#119 = APPLICATION_CONTEXT ( 'configuration controlled 3d designs of mechanical parts and assemblies' ) ;
#120 = CARTESIAN_POINT ( 'NONE',  ( -8.000000000000000000, 0.000000000000000000, 5.000000000000000000 ) ) ;
#121 = CIRCLE ( 'NONE', #94, 5.699999999999999289 ) ;
#122 = CARTESIAN_POINT ( 'NONE',  ( 0.000000000000000000, 0.000000000000000000, 5.000000000000000000 ) ) ;
#123 = PERSON_AND_ORGANIZATION_ROLE ( 'design_owner' ) ;
#124 = DIRECTION ( 'NONE',  ( 1.000000000000000000, 0.000000000000000000, 0.000000000000000000 ) ) ;
#125 = PERSON ( 'NEURÈENÝ', 'NEURÈENÝ', 'NEURÈENÝ', ('NEURÈENÝ'), ('NEURÈENÝ'), ('NEURÈENÝ') ) ;
#126 = AXIS2_PLACEMENT_3D ( 'NONE', #57, #154, #222 ) ;
#127 = ORIENTED_EDGE ( 'NONE', *, *, #273, .T. ) ;
#128 = EDGE_CURVE ( 'NONE', #86, #104, #192, .T. ) ;
#129 = DIRECTION ( 'NONE',  ( 0.000000000000000000, 0.000000000000000000, 1.000000000000000000 ) ) ;
#130 = CARTESIAN_POINT ( 'NONE',  ( -5.500000000000000000, 0.000000000000000000, 505.0000000000000000 ) ) ;
#131 = VERTEX_POINT ( 'NONE', #250 ) ;
#132 = EDGE_LOOP ( 'NONE', ( #127, #306 ) ) ;
#133 = APPLICATION_CONTEXT ( 'configuration controlled 3d designs of mechanical parts and assemblies' ) ;
#134 = PERSON_AND_ORGANIZATION ( #125, #204 ) ;
#135 = ORIENTED_EDGE ( 'NONE', *, *, #167, .F. ) ;
#136 = AXIS2_PLACEMENT_3D ( 'NONE', #226, #206, #185 ) ;
#137 = DATE_AND_TIME ( #78, #288 ) ;
#138 = EDGE_LOOP ( 'NONE', ( #268, #45, #7, #201 ) ) ;
#139 = PRODUCT_DEFINITION_FORMATION_WITH_SPECIFIED_SOURCE ( 'LIBOVOLNÝ', '', #247, .NOT_KNOWN. ) ;
#140 = DIRECTION ( 'NONE',  ( 1.000000000000000000, 0.000000000000000000, 0.000000000000000000 ) ) ;
#141 = SECURITY_CLASSIFICATION ( '', '', #103 ) ;
#142 = DIRECTION ( 'NONE',  ( -1.000000000000000000, 0.000000000000000000, 0.000000000000000000 ) ) ;
#143 = FACE_OUTER_BOUND ( 'NONE', #289, .T. ) ;
#144 = CIRCLE ( 'NONE', #18, 5.699999999999999289 ) ;
#145 = PLANE ( 'NONE',  #243 ) ;
#146 = DATE_TIME_ROLE ( 'creation_date' ) ;
#147 = DIRECTION ( 'NONE',  ( 1.224646799147353207E-16, 1.000000000000000000, -0.000000000000000000 ) ) ;
#148 = COORDINATED_UNIVERSAL_TIME_OFFSET ( 1, 0, .AHEAD. ) ;
#149 = APPROVAL ( #263, 'NEURÈENÝ' ) ;
#150 = CARTESIAN_POINT ( 'NONE',  ( -5.699999999999999289, 6.980486755139912122E-16, 5.199999999999982414 ) ) ;
#151 = EDGE_CURVE ( 'NONE', #27, #173, #172, .T. ) ;
#152 = ORIENTED_EDGE ( 'NONE', *, *, #273, .F. ) ;
#153 = DIRECTION ( 'NONE',  ( 1.000000000000000000, 0.000000000000000000, 0.000000000000000000 ) ) ;
#154 = DIRECTION ( 'NONE',  ( -0.000000000000000000, -0.000000000000000000, -1.000000000000000000 ) ) ;
#155 = ORIENTED_EDGE ( 'NONE', *, *, #292, .T. ) ;
#156 = CIRCLE ( 'NONE', #187, 5.500000000000000000 ) ;
#157 = ORIENTED_EDGE ( 'NONE', *, *, #284, .T. ) ;
#158 = CIRCLE ( 'NONE', #2, 5.500000000000000000 ) ;
#159 = DIRECTION ( 'NONE',  ( -1.000000000000000000, 0.000000000000000000, 0.000000000000000000 ) ) ;
#160 = FACE_OUTER_BOUND ( 'NONE', #53, .T. ) ;
#161 = FACE_OUTER_BOUND ( 'NONE', #60, .T. ) ;
#162 = DIRECTION ( 'NONE',  ( 1.000000000000000000, 0.000000000000000000, 0.000000000000000000 ) ) ;
#163 = CC_DESIGN_PERSON_AND_ORGANIZATION_ASSIGNMENT ( #293, #77, ( #141 ) ) ;
#164 =( LENGTH_UNIT ( ) NAMED_UNIT ( * ) SI_UNIT ( .MILLI., .METRE. ) );
#165 = CARTESIAN_POINT ( 'NONE',  ( 0.000000000000000000, 0.000000000000000000, 5.000000000000000000 ) ) ;
#166 = TOROIDAL_SURFACE ( 'NONE', #194, 5.699999999999999289, 0.2000000000000000111 ) ;
#167 = EDGE_CURVE ( 'NONE', #196, #27, #10, .T. ) ;
#168 = APPROVAL_STATUS ( 'not_yet_approved' ) ;
#169 = ORIENTED_EDGE ( 'NONE', *, *, #82, .F. ) ;
#170 = CARTESIAN_POINT ( 'NONE',  ( 0.000000000000000000, 0.000000000000000000, 0.000000000000000000 ) ) ;
#171 = AXIS2_PLACEMENT_3D ( 'NONE', #89, #272, #90 ) ;
#172 = CIRCLE ( 'NONE', #281, 8.000000000000000000 ) ;
#173 = VERTEX_POINT ( 'NONE', #14 ) ;
#174 = EDGE_LOOP ( 'NONE', ( #203, #242 ) ) ;
#175 = CLOSED_SHELL ( 'NONE', ( #213, #61, #262, #180, #118, #269, #43, #74, #216 ) ) ;
#176 = PERSON_AND_ORGANIZATION_ROLE ( 'creator' ) ;
#177 = FACE_OUTER_BOUND ( 'NONE', #33, .T. ) ;
#178 = AXIS2_PLACEMENT_3D ( 'NONE', #233, #129, #44 ) ;
#179 = APPROVAL_ROLE ( '' ) ;
#180 = ADVANCED_FACE ( 'NONE', ( #143 ), #9, .T. ) ;
#181 = ORIENTED_EDGE ( 'NONE', *, *, #151, .T. ) ;
#182 = ORIENTED_EDGE ( 'NONE', *, *, #251, .F. ) ;
#183 = CARTESIAN_POINT ( 'NONE',  ( 0.000000000000000000, 0.000000000000000000, 0.000000000000000000 ) ) ;
#184 =( GEOMETRIC_REPRESENTATION_CONTEXT ( 3 ) GLOBAL_UNCERTAINTY_ASSIGNED_CONTEXT ( ( #115 ) ) GLOBAL_UNIT_ASSIGNED_CONTEXT ( ( #164, #191, #19 ) ) REPRESENTATION_CONTEXT ( 'NONE', 'WORKASPACE' ) );
#185 = DIRECTION ( 'NONE',  ( 1.000000000000000000, 0.000000000000000000, 0.000000000000000000 ) ) ;
#186 = CARTESIAN_POINT ( 'NONE',  ( 0.000000000000000000, 0.000000000000000000, 5.199999999999982414 ) ) ;
#187 = AXIS2_PLACEMENT_3D ( 'NONE', #87, #287, #261 ) ;
#188 = DIRECTION ( 'NONE',  ( 0.000000000000000000, 0.000000000000000000, 1.000000000000000000 ) ) ;
#189 = CARTESIAN_POINT ( 'NONE',  ( 8.000000000000000000, 9.797174393178825657E-16, 5.000000000000000000 ) ) ;
#190 = PERSON_AND_ORGANIZATION ( #125, #204 ) ;
#191 =( NAMED_UNIT ( * ) PLANE_ANGLE_UNIT ( ) SI_UNIT ( $, .RADIAN. ) );
#192 = CIRCLE ( 'NONE', #49, 5.500000000000000000 ) ;
#193 = DIRECTION ( 'NONE',  ( -1.000000000000000000, 1.224646799147353454E-16, 0.000000000000000000 ) ) ;
#194 = AXIS2_PLACEMENT_3D ( 'NONE', #69, #244, #140 ) ;
#195 = CARTESIAN_POINT ( 'NONE',  ( 0.000000000000000000, 0.000000000000000000, 0.000000000000000000 ) ) ;
#196 = VERTEX_POINT ( 'NONE', #189 ) ;
#197 = DATE_AND_TIME ( #47, #259 ) ;
#198 = VERTEX_POINT ( 'NONE', #279 ) ;
#199 = APPROVAL_PERSON_ORGANIZATION ( #17, #55, #97 ) ;
#200 = CARTESIAN_POINT ( 'NONE',  ( 0.000000000000000000, 0.000000000000000000, 505.0000000000000000 ) ) ;
#201 = ORIENTED_EDGE ( 'NONE', *, *, #48, .F. ) ;
#202 = CC_DESIGN_DATE_AND_TIME_ASSIGNMENT ( #197, #146, ( #221 ) ) ;
#203 = ORIENTED_EDGE ( 'NONE', *, *, #292, .F. ) ;
#204 = ORGANIZATION ( 'NEURÈENÝ', 'NEURÈENÝ', '' ) ;
#205 = ORIENTED_EDGE ( 'NONE', *, *, #92, .T. ) ;
#206 = DIRECTION ( 'NONE',  ( 0.000000000000000000, 0.000000000000000000, 1.000000000000000000 ) ) ;
#207 = PLANE ( 'NONE',  #249 ) ;
#208 = CC_DESIGN_SECURITY_CLASSIFICATION ( #141, ( #139 ) ) ;
#209 = CYLINDRICAL_SURFACE ( 'NONE', #22, 5.500000000000000000 ) ;
#210 = CARTESIAN_POINT ( 'NONE',  ( 5.699999999999999289, 0.000000000000000000, 5.199999999999982414 ) ) ;
#211 = DIRECTION ( 'NONE',  ( -0.000000000000000000, -0.000000000000000000, -1.000000000000000000 ) ) ;
#212 = PLANE ( 'NONE',  #252 ) ;
#213 = ADVANCED_FACE ( 'NONE', ( #253 ), #166, .F. ) ;
#214 = APPLICATION_PROTOCOL_DEFINITION ( 'international standard', 'config_control_design', 1994, #133 ) ;
#215 = CALENDAR_DATE ( 2022, 20, 6 ) ;
#216 = ADVANCED_FACE ( 'NONE', ( #34 ), #100, .F. ) ;
#217 = DIRECTION ( 'NONE',  ( 0.000000000000000000, 0.000000000000000000, 1.000000000000000000 ) ) ;
#218 = ORIENTED_EDGE ( 'NONE', *, *, #31, .F. ) ;
#219 = APPROVAL_DATE_TIME ( #260, #25 ) ;
#220 = ORIENTED_EDGE ( 'NONE', *, *, #92, .F. ) ;
#221 = PRODUCT_DEFINITION ( 'NEZNÁMÝ', '', #139, #277 ) ;
#222 = DIRECTION ( 'NONE',  ( -1.000000000000000000, 0.000000000000000000, 0.000000000000000000 ) ) ;
#223 = VERTEX_POINT ( 'NONE', #120 ) ;
#224 = AXIS2_PLACEMENT_3D ( 'NONE', #229, #300, #159 ) ;
#225 = CC_DESIGN_PERSON_AND_ORGANIZATION_ASSIGNMENT ( #5, #176, ( #139 ) ) ;
#226 = CARTESIAN_POINT ( 'NONE',  ( 0.000000000000000000, 0.000000000000000000, 5.000000000000000000 ) ) ;
#227 = DIRECTION ( 'NONE',  ( 1.000000000000000000, 0.000000000000000000, 0.000000000000000000 ) ) ;
#228 = DIRECTION ( 'NONE',  ( 0.000000000000000000, 0.000000000000000000, 1.000000000000000000 ) ) ;
#229 = CARTESIAN_POINT ( 'NONE',  ( 0.000000000000000000, 0.000000000000000000, 5.000000000000000000 ) ) ;
#230 = CC_DESIGN_DATE_AND_TIME_ASSIGNMENT ( #109, #32, ( #141 ) ) ;
#231 = DIRECTION ( 'NONE',  ( -0.000000000000000000, -0.000000000000000000, -1.000000000000000000 ) ) ;
#232 = CC_DESIGN_APPROVAL ( #25, ( #139 ) ) ;
#233 = CARTESIAN_POINT ( 'NONE',  ( 0.000000000000000000, 0.000000000000000000, 0.000000000000000000 ) ) ;
#234 = DIRECTION ( 'NONE',  ( 0.000000000000000000, 0.000000000000000000, 1.000000000000000000 ) ) ;
#235 = CARTESIAN_POINT ( 'NONE',  ( 0.000000000000000000, 0.000000000000000000, 5.000000000000000000 ) ) ;
#236 = LOCAL_TIME ( 11, 35, 1.000000000000000000, #148 ) ;
#237 = VERTEX_POINT ( 'NONE', #246 ) ;
#238 = EDGE_CURVE ( 'NONE', #86, #107, #105, .T. ) ;
#239 = CARTESIAN_POINT ( 'NONE',  ( 5.500000000000000000, 6.735557395310442023E-16, 505.0000000000000000 ) ) ;
#240 = CALENDAR_DATE ( 2022, 20, 6 ) ;
#241 = ORIENTED_EDGE ( 'NONE', *, *, #304, .F. ) ;
#242 = ORIENTED_EDGE ( 'NONE', *, *, #151, .F. ) ;
#243 = AXIS2_PLACEMENT_3D ( 'NONE', #122, #228, #248 ) ;
#244 = DIRECTION ( 'NONE',  ( 0.000000000000000000, 0.000000000000000000, 1.000000000000000000 ) ) ;
#245 = AXIS2_PLACEMENT_3D ( 'NONE', #186, #12, #274 ) ;
#246 = CARTESIAN_POINT ( 'NONE',  ( -5.699999999999999289, 6.980486755139912122E-16, 4.999999999999991118 ) ) ;
#247 = PRODUCT ( 'aba7', 'aba7', '', ( #282 ) ) ;
#248 = DIRECTION ( 'NONE',  ( 1.000000000000000000, 0.000000000000000000, -0.000000000000000000 ) ) ;
#249 = AXIS2_PLACEMENT_3D ( 'NONE', #117, #298, #297 ) ;
#250 = CARTESIAN_POINT ( 'NONE',  ( -5.500000000000000000, 0.000000000000000000, 505.0000000000000000 ) ) ;
#251 = EDGE_CURVE ( 'NONE', #198, #131, #158, .T. ) ;
#252 = AXIS2_PLACEMENT_3D ( 'NONE', #170, #256, #70 ) ;
#253 = FACE_OUTER_BOUND ( 'NONE', #113, .T. ) ;
#254 = APPROVAL_STATUS ( 'not_yet_approved' ) ;
#255 = FACE_OUTER_BOUND ( 'NONE', #174, .T. ) ;
#256 = DIRECTION ( 'NONE',  ( 0.000000000000000000, 0.000000000000000000, 1.000000000000000000 ) ) ;
#257 = COORDINATED_UNIVERSAL_TIME_OFFSET ( 1, 0, .AHEAD. ) ;
#258 = CALENDAR_DATE ( 2022, 20, 6 ) ;
#259 = LOCAL_TIME ( 11, 35, 1.000000000000000000, #257 ) ;
#260 = DATE_AND_TIME ( #240, #63 ) ;
#261 = DIRECTION ( 'NONE',  ( 1.000000000000000000, 0.000000000000000000, 0.000000000000000000 ) ) ;
#262 = ADVANCED_FACE ( 'NONE', ( #42 ), #41, .T. ) ;
#263 = APPROVAL_STATUS ( 'not_yet_approved' ) ;
#264 = ORIENTED_EDGE ( 'NONE', *, *, #128, .T. ) ;
#265 = CYLINDRICAL_SURFACE ( 'NONE', #126, 5.500000000000000000 ) ;
#266 = CIRCLE ( 'NONE', #35, 0.1999999999999996503 ) ;
#267 = APPROVAL_ROLE ( '' ) ;
#268 = ORIENTED_EDGE ( 'NONE', *, *, #284, .F. ) ;
#269 = ADVANCED_FACE ( 'NONE', ( #255 ), #212, .F. ) ;
#270 = LINE ( 'NONE', #130, #275 ) ;
#271 = FACE_OUTER_BOUND ( 'NONE', #6, .T. ) ;
#272 = DIRECTION ( 'NONE',  ( 0.000000000000000000, 0.000000000000000000, 1.000000000000000000 ) ) ;
#273 = EDGE_CURVE ( 'NONE', #107, #237, #144, .T. ) ;
#274 = DIRECTION ( 'NONE',  ( 1.000000000000000000, 0.000000000000000000, 0.000000000000000000 ) ) ;
#275 = VECTOR ( 'NONE', #291, 1000.000000000000000 ) ;
#276 = DIRECTION ( 'NONE',  ( -0.000000000000000000, -0.000000000000000000, -1.000000000000000000 ) ) ;
#277 = DESIGN_CONTEXT ( 'detailed design', #133, 'design' ) ;
#278 = LOCAL_TIME ( 11, 35, 1.000000000000000000, #84 ) ;
#279 = CARTESIAN_POINT ( 'NONE',  ( 5.500000000000000000, 6.735557395310442023E-16, 505.0000000000000000 ) ) ;
#280 = DIRECTION ( 'NONE',  ( -1.000000000000000000, 0.000000000000000000, 0.000000000000000000 ) ) ;
#281 = AXIS2_PLACEMENT_3D ( 'NONE', #183, #68, #62 ) ;
#282 = MECHANICAL_CONTEXT ( 'NONE', #119, 'mechanical' ) ;
#283 = ORIENTED_EDGE ( 'NONE', *, *, #31, .T. ) ;
#284 = EDGE_CURVE ( 'NONE', #104, #237, #266, .T. ) ;
#285 = DATE_AND_TIME ( #215, #236 ) ;
#286 = PERSON_AND_ORGANIZATION ( #125, #204 ) ;
#287 = DIRECTION ( 'NONE',  ( 0.000000000000000000, 0.000000000000000000, 1.000000000000000000 ) ) ;
#288 = LOCAL_TIME ( 11, 35, 1.000000000000000000, #58 ) ;
#289 = EDGE_LOOP ( 'NONE', ( #135, #169, #59, #155 ) ) ;
#290 = CIRCLE ( 'NONE', #38, 5.500000000000000000 ) ;
#291 = DIRECTION ( 'NONE',  ( -0.000000000000000000, -0.000000000000000000, -1.000000000000000000 ) ) ;
#292 = EDGE_CURVE ( 'NONE', #173, #27, #305, .T. ) ;
#293 = PERSON_AND_ORGANIZATION ( #125, #204 ) ;
#294 = EDGE_LOOP ( 'NONE', ( #220, #295, #181, #241 ) ) ;
#295 = ORIENTED_EDGE ( 'NONE', *, *, #167, .T. ) ;
#296 = FACE_BOUND ( 'NONE', #132, .T. ) ;
#297 = DIRECTION ( 'NONE',  ( 1.000000000000000000, 0.000000000000000000, -0.000000000000000000 ) ) ;
#298 = DIRECTION ( 'NONE',  ( 0.000000000000000000, 0.000000000000000000, 1.000000000000000000 ) ) ;
#299 = DIRECTION ( 'NONE',  ( 0.000000000000000000, -1.000000000000000000, 0.000000000000000000 ) ) ;
#300 = DIRECTION ( 'NONE',  ( -0.000000000000000000, -0.000000000000000000, -1.000000000000000000 ) ) ;
#301 = APPROVAL_PERSON_ORGANIZATION ( #190, #25, #179 ) ;
#302 = LINE ( 'NONE', #303, #85 ) ;
#303 = CARTESIAN_POINT ( 'NONE',  ( -8.000000000000000000, 0.000000000000000000, 5.000000000000000000 ) ) ;
#304 = EDGE_CURVE ( 'NONE', #223, #173, #302, .T. ) ;
#305 = CIRCLE ( 'NONE', #178, 8.000000000000000000 ) ;
#306 = ORIENTED_EDGE ( 'NONE', *, *, #48, .T. ) ;
#307 = DIRECTION ( 'NONE',  ( 1.000000000000000000, 0.000000000000000000, 0.000000000000000000 ) ) ;
ENDSEC;
END-ISO-10303-21;
