ISO-10303-21;
HEADER;
FILE_DESCRIPTION (( 'STEP AP203' ),
    '1' );
FILE_NAME ('63ea.STEP',
    '2023-02-13T15:51:36',
    ( '' ),
    ( '' ),
    'SwSTEP 2.0',
    'SolidWorks 2019',
    '' );
FILE_SCHEMA (( 'CONFIG_CONTROL_DESIGN' ));
ENDSEC;

DATA;
#1 = PERSON_AND_ORGANIZATION ( #161, #219 ) ;
#2 = APPROVAL_STATUS ( 'not_yet_approved' ) ;
#3 = EDGE_CURVE ( 'NONE', #154, #106, #163, .T. ) ;
#4 = EDGE_LOOP ( 'NONE', ( #39, #95 ) ) ;
#5 =( LENGTH_UNIT ( ) NAMED_UNIT ( * ) SI_UNIT ( .MILLI., .METRE. ) );
#6 = APPROVAL_PERSON_ORGANIZATION ( #145, #147, #186 ) ;
#7 = DIRECTION ( 'NONE',  ( 0.000000000000000000, 0.000000000000000000, 1.000000000000000000 ) ) ;
#8 = SHAPE_DEFINITION_REPRESENTATION ( #44, #234 ) ;
#9 = VERTEX_POINT ( 'NONE', #45 ) ;
#10 = PERSON_AND_ORGANIZATION_ROLE ( 'creator' ) ;
#11 = ORIENTED_EDGE ( 'NONE', *, *, #127, .F. ) ;
#12 = CC_DESIGN_DATE_AND_TIME_ASSIGNMENT ( #194, #102, ( #109 ) ) ;
#13 = DATE_AND_TIME ( #47, #212 ) ;
#14 = DIRECTION ( 'NONE',  ( 1.000000000000000000, 0.000000000000000000, 0.000000000000000000 ) ) ;
#15 = AXIS2_PLACEMENT_3D ( 'NONE', #159, #155, #199 ) ;
#16 = CARTESIAN_POINT ( 'NONE',  ( 0.000000000000000000, 0.000000000000000000, 3.000000000000000000 ) ) ;
#17 = CC_DESIGN_APPROVAL ( #76, ( #177 ) ) ;
#18 = DIRECTION ( 'NONE',  ( 1.000000000000000000, 0.000000000000000000, 0.000000000000000000 ) ) ;
#19 = DIRECTION ( 'NONE',  ( 1.000000000000000000, 0.000000000000000000, 0.000000000000000000 ) ) ;
#20 =( NAMED_UNIT ( * ) SI_UNIT ( $, .STERADIAN. ) SOLID_ANGLE_UNIT ( ) );
#21 = CARTESIAN_POINT ( 'NONE',  ( 0.000000000000000000, 0.000000000000000000, 3.000000000000000000 ) ) ;
#22 = ORIENTED_EDGE ( 'NONE', *, *, #216, .T. ) ;
#23 = CARTESIAN_POINT ( 'NONE',  ( 0.000000000000000000, 0.000000000000000000, 0.000000000000000000 ) ) ;
#24 = COORDINATED_UNIVERSAL_TIME_OFFSET ( 1, 0, .AHEAD. ) ;
#25 = DESIGN_CONTEXT ( 'detailed design', #185, 'design' ) ;
#26 = CALENDAR_DATE ( 2023, 13, 2 ) ;
#27 = LINE ( 'NONE', #71, #40 ) ;
#28 = CC_DESIGN_PERSON_AND_ORGANIZATION_ASSIGNMENT ( #205, #167, ( #177 ) ) ;
#29 = FACE_OUTER_BOUND ( 'NONE', #179, .T. ) ;
#30 = AXIS2_PLACEMENT_3D ( 'NONE', #81, #239, #19 ) ;
#31 = FACE_OUTER_BOUND ( 'NONE', #80, .T. ) ;
#32 = APPROVAL_PERSON_ORGANIZATION ( #208, #76, #86 ) ;
#33 = LINE ( 'NONE', #111, #171 ) ;
#34 = ADVANCED_FACE ( 'NONE', ( #48, #31 ), #52, .T. ) ;
#35 = AXIS2_PLACEMENT_3D ( 'NONE', #209, #123, #204 ) ;
#36 = DIRECTION ( 'NONE',  ( 1.000000000000000000, 0.000000000000000000, 0.000000000000000000 ) ) ;
#37 = AXIS2_PLACEMENT_3D ( 'NONE', #131, #228, #36 ) ;
#38 = EDGE_CURVE ( 'NONE', #9, #224, #176, .T. ) ;
#39 = ORIENTED_EDGE ( 'NONE', *, *, #38, .F. ) ;
#40 = VECTOR ( 'NONE', #142, 1000.000000000000000 ) ;
#41 = CIRCLE ( 'NONE', #134, 2.250000000000000000 ) ;
#42 = APPLICATION_PROTOCOL_DEFINITION ( 'international standard', 'config_control_design', 1994, #67 ) ;
#43 = ORIENTED_EDGE ( 'NONE', *, *, #213, .T. ) ;
#44 = PRODUCT_DEFINITION_SHAPE ( 'NONE', 'NONE',  #109 ) ;
#45 = CARTESIAN_POINT ( 'NONE',  ( -2.250000000000000000, 0.000000000000000000, 3.000000000000000000 ) ) ;
#46 = EDGE_CURVE ( 'NONE', #118, #97, #27, .T. ) ;
#47 = CALENDAR_DATE ( 2023, 13, 2 ) ;
#48 = FACE_BOUND ( 'NONE', #4, .T. ) ;
#49 = CALENDAR_DATE ( 2023, 13, 2 ) ;
#50 = CYLINDRICAL_SURFACE ( 'NONE', #98, 2.250000000000000000 ) ;
#51 = CALENDAR_DATE ( 2023, 13, 2 ) ;
#52 = PLANE ( 'NONE',  #139 ) ;
#53 = ADVANCED_FACE ( 'NONE', ( #73 ), #50, .T. ) ;
#54 = EDGE_LOOP ( 'NONE', ( #156, #189, #22, #182 ) ) ;
#55 = APPROVAL_PERSON_ORGANIZATION ( #1, #255, #78 ) ;
#56 = CARTESIAN_POINT ( 'NONE',  ( -4.000000000000000000, 0.000000000000000000, 3.000000000000000000 ) ) ;
#57 = CIRCLE ( 'NONE', #203, 2.250000000000000000 ) ;
#58 = DIRECTION ( 'NONE',  ( -0.000000000000000000, -0.000000000000000000, -1.000000000000000000 ) ) ;
#59 = CIRCLE ( 'NONE', #15, 4.000000000000000000 ) ;
#60 = ADVANCED_FACE ( 'NONE', ( #29 ), #191, .T. ) ;
#61 = COORDINATED_UNIVERSAL_TIME_OFFSET ( 1, 0, .AHEAD. ) ;
#62 = DIRECTION ( 'NONE',  ( -1.000000000000000000, 0.000000000000000000, 0.000000000000000000 ) ) ;
#63 = CARTESIAN_POINT ( 'NONE',  ( 2.250000000000000000, 2.755455298081543792E-16, 500.0000000000000000 ) ) ;
#64 = ORIENTED_EDGE ( 'NONE', *, *, #83, .T. ) ;
#65 = CIRCLE ( 'NONE', #124, 4.000000000000000000 ) ;
#66 = ADVANCED_FACE ( 'NONE', ( #168 ), #246, .T. ) ;
#67 = APPLICATION_CONTEXT ( 'configuration controlled 3d designs of mechanical parts and assemblies' ) ;
#68 = EDGE_LOOP ( 'NONE', ( #101, #169, #140, #195 ) ) ;
#69 = EDGE_LOOP ( 'NONE', ( #138, #107 ) ) ;
#70 = CC_DESIGN_PERSON_AND_ORGANIZATION_ASSIGNMENT ( #187, #84, ( #109 ) ) ;
#71 = CARTESIAN_POINT ( 'NONE',  ( 4.000000000000000000, 4.898587196589412829E-16, 3.000000000000000000 ) ) ;
#72 = PERSON_AND_ORGANIZATION_ROLE ( 'classification_officer' ) ;
#73 = FACE_OUTER_BOUND ( 'NONE', #233, .T. ) ;
#74 = DIRECTION ( 'NONE',  ( 0.000000000000000000, 0.000000000000000000, 1.000000000000000000 ) ) ;
#75 = AXIS2_PLACEMENT_3D ( 'NONE', #207, #74, #146 ) ;
#76 = APPROVAL ( #125, 'NEURÈENÝ' ) ;
#77 = CARTESIAN_POINT ( 'NONE',  ( 0.000000000000000000, 0.000000000000000000, 500.0000000000000000 ) ) ;
#78 = APPROVAL_ROLE ( '' ) ;
#79 = CARTESIAN_POINT ( 'NONE',  ( 0.000000000000000000, 0.000000000000000000, 3.000000000000000000 ) ) ;
#80 = EDGE_LOOP ( 'NONE', ( #64, #116 ) ) ;
#81 = CARTESIAN_POINT ( 'NONE',  ( 0.000000000000000000, 0.000000000000000000, 0.000000000000000000 ) ) ;
#82 = ORIENTED_EDGE ( 'NONE', *, *, #3, .F. ) ;
#83 = EDGE_CURVE ( 'NONE', #135, #118, #237, .T. ) ;
#84 = PERSON_AND_ORGANIZATION_ROLE ( 'creator' ) ;
#85 = DIRECTION ( 'NONE',  ( 0.000000000000000000, 0.000000000000000000, 1.000000000000000000 ) ) ;
#86 = APPROVAL_ROLE ( '' ) ;
#87 = DIRECTION ( 'NONE',  ( -1.000000000000000000, 0.000000000000000000, 0.000000000000000000 ) ) ;
#88 = DATE_TIME_ROLE ( 'classification_date' ) ;
#89 = DATE_AND_TIME ( #51, #104 ) ;
#90 = VECTOR ( 'NONE', #58, 1000.000000000000000 ) ;
#91 = ADVANCED_FACE ( 'NONE', ( #129 ), #251, .T. ) ;
#92 = DIRECTION ( 'NONE',  ( 0.000000000000000000, 0.000000000000000000, 1.000000000000000000 ) ) ;
#93 = DIRECTION ( 'NONE',  ( 1.000000000000000000, 0.000000000000000000, -0.000000000000000000 ) ) ;
#94 = CIRCLE ( 'NONE', #37, 4.000000000000000000 ) ;
#95 = ORIENTED_EDGE ( 'NONE', *, *, #183, .F. ) ;
#96 = EDGE_CURVE ( 'NONE', #135, #114, #33, .T. ) ;
#97 = VERTEX_POINT ( 'NONE', #231 ) ;
#98 = AXIS2_PLACEMENT_3D ( 'NONE', #225, #122, #206 ) ;
#99 = CC_DESIGN_DATE_AND_TIME_ASSIGNMENT ( #13, #88, ( #158 ) ) ;
#100 = PERSON_AND_ORGANIZATION ( #161, #219 ) ;
#101 = ORIENTED_EDGE ( 'NONE', *, *, #46, .F. ) ;
#102 = DATE_TIME_ROLE ( 'creation_date' ) ;
#103 = APPROVAL_STATUS ( 'not_yet_approved' ) ;
#104 = LOCAL_TIME ( 16, 51, 36.00000000000000000, #226 ) ;
#105 = COORDINATED_UNIVERSAL_TIME_OFFSET ( 1, 0, .AHEAD. ) ;
#106 = VERTEX_POINT ( 'NONE', #113 ) ;
#107 = ORIENTED_EDGE ( 'NONE', *, *, #127, .T. ) ;
#108 = CLOSED_SHELL ( 'NONE', ( #53, #236, #91, #34, #227, #60, #66 ) ) ;
#109 = PRODUCT_DEFINITION ( 'NEZNÁMÝ', '', #177, #25 ) ;
#110 = DIRECTION ( 'NONE',  ( -0.000000000000000000, -0.000000000000000000, -1.000000000000000000 ) ) ;
#111 = CARTESIAN_POINT ( 'NONE',  ( -4.000000000000000000, 0.000000000000000000, 3.000000000000000000 ) ) ;
#112 = LOCAL_TIME ( 16, 51, 36.00000000000000000, #244 ) ;
#113 = CARTESIAN_POINT ( 'NONE',  ( 2.250000000000000000, 2.755455298081543792E-16, 500.0000000000000000 ) ) ;
#114 = VERTEX_POINT ( 'NONE', #128 ) ;
#115 = CARTESIAN_POINT ( 'NONE',  ( 2.250000000000000000, 2.755455298081543792E-16, 3.000000000000000000 ) ) ;
#116 = ORIENTED_EDGE ( 'NONE', *, *, #229, .T. ) ;
#117 = MECHANICAL_CONTEXT ( 'NONE', #67, 'mechanical' ) ;
#118 = VERTEX_POINT ( 'NONE', #215 ) ;
#119 = APPROVAL_DATE_TIME ( #222, #255 ) ;
#120 = ORIENTED_EDGE ( 'NONE', *, *, #153, .F. ) ;
#121 = DIRECTION ( 'NONE',  ( 0.000000000000000000, 0.000000000000000000, 1.000000000000000000 ) ) ;
#122 = DIRECTION ( 'NONE',  ( -0.000000000000000000, -0.000000000000000000, -1.000000000000000000 ) ) ;
#123 = DIRECTION ( 'NONE',  ( 0.000000000000000000, 0.000000000000000000, 1.000000000000000000 ) ) ;
#124 = AXIS2_PLACEMENT_3D ( 'NONE', #79, #235, #18 ) ;
#125 = APPROVAL_STATUS ( 'not_yet_approved' ) ;
#126 = CARTESIAN_POINT ( 'NONE',  ( 0.000000000000000000, 0.000000000000000000, 3.000000000000000000 ) ) ;
#127 = EDGE_CURVE ( 'NONE', #106, #154, #57, .T. ) ;
#128 = CARTESIAN_POINT ( 'NONE',  ( -4.000000000000000000, 0.000000000000000000, 0.000000000000000000 ) ) ;
#129 = FACE_OUTER_BOUND ( 'NONE', #68, .T. ) ;
#130 = AXIS2_PLACEMENT_3D ( 'NONE', #152, #214, #211 ) ;
#131 = CARTESIAN_POINT ( 'NONE',  ( 0.000000000000000000, 0.000000000000000000, 0.000000000000000000 ) ) ;
#132 = CALENDAR_DATE ( 2023, 13, 2 ) ;
#133 = ORIENTED_EDGE ( 'NONE', *, *, #183, .T. ) ;
#134 = AXIS2_PLACEMENT_3D ( 'NONE', #16, #92, #230 ) ;
#135 = VERTEX_POINT ( 'NONE', #56 ) ;
#136 = DIRECTION ( 'NONE',  ( -0.000000000000000000, -0.000000000000000000, -1.000000000000000000 ) ) ;
#137 = PERSON_AND_ORGANIZATION ( #161, #219 ) ;
#138 = ORIENTED_EDGE ( 'NONE', *, *, #3, .T. ) ;
#139 = AXIS2_PLACEMENT_3D ( 'NONE', #126, #121, #245 ) ;
#140 = ORIENTED_EDGE ( 'NONE', *, *, #96, .T. ) ;
#141 = LOCAL_TIME ( 16, 51, 36.00000000000000000, #61 ) ;
#142 = DIRECTION ( 'NONE',  ( -0.000000000000000000, -0.000000000000000000, -1.000000000000000000 ) ) ;
#143 = CARTESIAN_POINT ( 'NONE',  ( 0.000000000000000000, 0.000000000000000000, 500.0000000000000000 ) ) ;
#144 = PERSON_AND_ORGANIZATION ( #161, #219 ) ;
#145 = PERSON_AND_ORGANIZATION ( #161, #219 ) ;
#146 = DIRECTION ( 'NONE',  ( 1.000000000000000000, 0.000000000000000000, -0.000000000000000000 ) ) ;
#147 = APPROVAL ( #103, 'NEURÈENÝ' ) ;
#148 = UNCERTAINTY_MEASURE_WITH_UNIT (LENGTH_MEASURE( 1.000000000000000082E-05 ), #5, 'distance_accuracy_value', 'NONE');
#149 = LINE ( 'NONE', #63, #238 ) ;
#150 = DIRECTION ( 'NONE',  ( 1.000000000000000000, 0.000000000000000000, 0.000000000000000000 ) ) ;
#151 = DIRECTION ( 'NONE',  ( 1.000000000000000000, 0.000000000000000000, 0.000000000000000000 ) ) ;
#152 = CARTESIAN_POINT ( 'NONE',  ( 0.000000000000000000, 0.000000000000000000, 3.000000000000000000 ) ) ;
#153 = EDGE_CURVE ( 'NONE', #154, #9, #196, .T. ) ;
#154 = VERTEX_POINT ( 'NONE', #173 ) ;
#155 = DIRECTION ( 'NONE',  ( 0.000000000000000000, 0.000000000000000000, 1.000000000000000000 ) ) ;
#156 = ORIENTED_EDGE ( 'NONE', *, *, #229, .F. ) ;
#157 = AXIS2_PLACEMENT_3D ( 'NONE', #174, #252, #150 ) ;
#158 = SECURITY_CLASSIFICATION ( '', '', #164 ) ;
#159 = CARTESIAN_POINT ( 'NONE',  ( 0.000000000000000000, 0.000000000000000000, 0.000000000000000000 ) ) ;
#160 = PRODUCT_RELATED_PRODUCT_CATEGORY ( 'detail', '', ( #193 ) ) ;
#161 = PERSON ( 'NEURÈENÝ', 'NEURÈENÝ', 'NEURÈENÝ', ('NEURÈENÝ'), ('NEURÈENÝ'), ('NEURÈENÝ') ) ;
#162 = EDGE_LOOP ( 'NONE', ( #218, #202 ) ) ;
#163 = CIRCLE ( 'NONE', #247, 2.250000000000000000 ) ;
#164 = SECURITY_CLASSIFICATION_LEVEL ( 'unclassified' ) ;
#165 = ORIENTED_EDGE ( 'NONE', *, *, #213, .F. ) ;
#166 = EDGE_CURVE ( 'NONE', #114, #97, #94, .T. ) ;
#167 = PERSON_AND_ORGANIZATION_ROLE ( 'design_supplier' ) ;
#168 = FACE_OUTER_BOUND ( 'NONE', #69, .T. ) ;
#169 = ORIENTED_EDGE ( 'NONE', *, *, #83, .F. ) ;
#170 = DATE_AND_TIME ( #49, #223 ) ;
#171 = VECTOR ( 'NONE', #110, 1000.000000000000000 ) ;
#172 = DIRECTION ( 'NONE',  ( 0.000000000000000000, 0.000000000000000000, 1.000000000000000000 ) ) ;
#173 = CARTESIAN_POINT ( 'NONE',  ( -2.250000000000000000, 0.000000000000000000, 500.0000000000000000 ) ) ;
#174 = CARTESIAN_POINT ( 'NONE',  ( 0.000000000000000000, 0.000000000000000000, 3.000000000000000000 ) ) ;
#175 =( NAMED_UNIT ( * ) PLANE_ANGLE_UNIT ( ) SI_UNIT ( $, .RADIAN. ) );
#176 = CIRCLE ( 'NONE', #35, 2.250000000000000000 ) ;
#177 = PRODUCT_DEFINITION_FORMATION_WITH_SPECIFIED_SOURCE ( 'LIBOVOLNÝ', '', #193, .NOT_KNOWN. ) ;
#178 = PERSON_AND_ORGANIZATION_ROLE ( 'design_owner' ) ;
#179 = EDGE_LOOP ( 'NONE', ( #165, #82, #180, #241 ) ) ;
#180 = ORIENTED_EDGE ( 'NONE', *, *, #153, .T. ) ;
#181 = CYLINDRICAL_SURFACE ( 'NONE', #243, 4.000000000000000000 ) ;
#182 = ORIENTED_EDGE ( 'NONE', *, *, #96, .F. ) ;
#183 = EDGE_CURVE ( 'NONE', #224, #9, #41, .T. ) ;
#184 = FACE_OUTER_BOUND ( 'NONE', #162, .T. ) ;
#185 = APPLICATION_CONTEXT ( 'configuration controlled 3d designs of mechanical parts and assemblies' ) ;
#186 = APPROVAL_ROLE ( '' ) ;
#187 = PERSON_AND_ORGANIZATION ( #161, #219 ) ;
#188 = CC_DESIGN_PERSON_AND_ORGANIZATION_ASSIGNMENT ( #100, #10, ( #177 ) ) ;
#189 = ORIENTED_EDGE ( 'NONE', *, *, #46, .T. ) ;
#190 = APPROVAL_DATE_TIME ( #170, #76 ) ;
#191 = CYLINDRICAL_SURFACE ( 'NONE', #242, 2.250000000000000000 ) ;
#192 = CC_DESIGN_APPROVAL ( #255, ( #109 ) ) ;
#193 = PRODUCT ( '63ea', '63ea', '', ( #117 ) ) ;
#194 = DATE_AND_TIME ( #26, #112 ) ;
#195 = ORIENTED_EDGE ( 'NONE', *, *, #166, .T. ) ;
#196 = LINE ( 'NONE', #254, #90 ) ;
#197 = CC_DESIGN_PERSON_AND_ORGANIZATION_ASSIGNMENT ( #144, #72, ( #158 ) ) ;
#198 = CC_DESIGN_PERSON_AND_ORGANIZATION_ASSIGNMENT ( #137, #178, ( #193 ) ) ;
#199 = DIRECTION ( 'NONE',  ( 1.000000000000000000, 0.000000000000000000, 0.000000000000000000 ) ) ;
#200 =( GEOMETRIC_REPRESENTATION_CONTEXT ( 3 ) GLOBAL_UNCERTAINTY_ASSIGNED_CONTEXT ( ( #148 ) ) GLOBAL_UNIT_ASSIGNED_CONTEXT ( ( #5, #175, #20 ) ) REPRESENTATION_CONTEXT ( 'NONE', 'WORKASPACE' ) );
#201 = PLANE ( 'NONE',  #250 ) ;
#202 = ORIENTED_EDGE ( 'NONE', *, *, #216, .F. ) ;
#203 = AXIS2_PLACEMENT_3D ( 'NONE', #77, #172, #151 ) ;
#204 = DIRECTION ( 'NONE',  ( 1.000000000000000000, 0.000000000000000000, 0.000000000000000000 ) ) ;
#205 = PERSON_AND_ORGANIZATION ( #161, #219 ) ;
#206 = DIRECTION ( 'NONE',  ( -1.000000000000000000, 0.000000000000000000, 0.000000000000000000 ) ) ;
#207 = CARTESIAN_POINT ( 'NONE',  ( 0.000000000000000000, 0.000000000000000000, 500.0000000000000000 ) ) ;
#208 = PERSON_AND_ORGANIZATION ( #161, #219 ) ;
#209 = CARTESIAN_POINT ( 'NONE',  ( 0.000000000000000000, 0.000000000000000000, 3.000000000000000000 ) ) ;
#210 = CARTESIAN_POINT ( 'NONE',  ( 0.000000000000000000, 0.000000000000000000, 500.0000000000000000 ) ) ;
#211 = DIRECTION ( 'NONE',  ( -1.000000000000000000, 0.000000000000000000, 0.000000000000000000 ) ) ;
#212 = LOCAL_TIME ( 16, 51, 36.00000000000000000, #24 ) ;
#213 = EDGE_CURVE ( 'NONE', #106, #224, #149, .T. ) ;
#214 = DIRECTION ( 'NONE',  ( -0.000000000000000000, -0.000000000000000000, -1.000000000000000000 ) ) ;
#215 = CARTESIAN_POINT ( 'NONE',  ( 4.000000000000000000, 4.898587196589412829E-16, 3.000000000000000000 ) ) ;
#216 = EDGE_CURVE ( 'NONE', #97, #114, #59, .T. ) ;
#217 = DIRECTION ( 'NONE',  ( -0.000000000000000000, -0.000000000000000000, -1.000000000000000000 ) ) ;
#218 = ORIENTED_EDGE ( 'NONE', *, *, #166, .F. ) ;
#219 = ORGANIZATION ( 'NEURÈENÝ', 'NEURÈENÝ', '' ) ;
#220 = FACE_OUTER_BOUND ( 'NONE', #54, .T. ) ;
#221 = APPLICATION_PROTOCOL_DEFINITION ( 'international standard', 'config_control_design', 1994, #185 ) ;
#222 = DATE_AND_TIME ( #132, #141 ) ;
#223 = LOCAL_TIME ( 16, 51, 36.00000000000000000, #105 ) ;
#224 = VERTEX_POINT ( 'NONE', #115 ) ;
#225 = CARTESIAN_POINT ( 'NONE',  ( 0.000000000000000000, 0.000000000000000000, 500.0000000000000000 ) ) ;
#226 = COORDINATED_UNIVERSAL_TIME_OFFSET ( 1, 0, .AHEAD. ) ;
#227 = ADVANCED_FACE ( 'NONE', ( #184 ), #201, .F. ) ;
#228 = DIRECTION ( 'NONE',  ( 0.000000000000000000, 0.000000000000000000, 1.000000000000000000 ) ) ;
#229 = EDGE_CURVE ( 'NONE', #118, #135, #65, .T. ) ;
#230 = DIRECTION ( 'NONE',  ( 1.000000000000000000, 0.000000000000000000, 0.000000000000000000 ) ) ;
#231 = CARTESIAN_POINT ( 'NONE',  ( 4.000000000000000000, 4.898587196589412829E-16, 0.000000000000000000 ) ) ;
#232 = CC_DESIGN_APPROVAL ( #147, ( #158 ) ) ;
#233 = EDGE_LOOP ( 'NONE', ( #11, #43, #133, #120 ) ) ;
#234 = ADVANCED_BREP_SHAPE_REPRESENTATION ( '63ea', ( #240, #30 ), #200 ) ;
#235 = DIRECTION ( 'NONE',  ( 0.000000000000000000, 0.000000000000000000, 1.000000000000000000 ) ) ;
#236 = ADVANCED_FACE ( 'NONE', ( #220 ), #181, .T. ) ;
#237 = CIRCLE ( 'NONE', #157, 4.000000000000000000 ) ;
#238 = VECTOR ( 'NONE', #136, 1000.000000000000000 ) ;
#239 = DIRECTION ( 'NONE',  ( 0.000000000000000000, 0.000000000000000000, 1.000000000000000000 ) ) ;
#240 = MANIFOLD_SOLID_BREP ( 'Pøidat vysunutím3', #108 ) ;
#241 = ORIENTED_EDGE ( 'NONE', *, *, #38, .T. ) ;
#242 = AXIS2_PLACEMENT_3D ( 'NONE', #143, #249, #87 ) ;
#243 = AXIS2_PLACEMENT_3D ( 'NONE', #21, #217, #62 ) ;
#244 = COORDINATED_UNIVERSAL_TIME_OFFSET ( 1, 0, .AHEAD. ) ;
#245 = DIRECTION ( 'NONE',  ( 1.000000000000000000, 0.000000000000000000, -0.000000000000000000 ) ) ;
#246 = PLANE ( 'NONE',  #75 ) ;
#247 = AXIS2_PLACEMENT_3D ( 'NONE', #210, #85, #14 ) ;
#248 = APPROVAL_DATE_TIME ( #89, #147 ) ;
#249 = DIRECTION ( 'NONE',  ( -0.000000000000000000, -0.000000000000000000, -1.000000000000000000 ) ) ;
#250 = AXIS2_PLACEMENT_3D ( 'NONE', #23, #7, #93 ) ;
#251 = CYLINDRICAL_SURFACE ( 'NONE', #130, 4.000000000000000000 ) ;
#252 = DIRECTION ( 'NONE',  ( 0.000000000000000000, 0.000000000000000000, 1.000000000000000000 ) ) ;
#253 = CC_DESIGN_SECURITY_CLASSIFICATION ( #158, ( #177 ) ) ;
#254 = CARTESIAN_POINT ( 'NONE',  ( -2.250000000000000000, 0.000000000000000000, 500.0000000000000000 ) ) ;
#255 = APPROVAL ( #2, 'NEURÈENÝ' ) ;
ENDSEC;
END-ISO-10303-21;
