ISO-10303-21;
HEADER;
FILE_DESCRIPTION (( 'STEP AP203' ),
    '1' );
FILE_NAME ('1079.STEP',
    '2023-02-13T14:20:40',
    ( '' ),
    ( '' ),
    'SwSTEP 2.0',
    'SolidWorks 2019',
    '' );
FILE_SCHEMA (( 'CONFIG_CONTROL_DESIGN' ));
ENDSEC;

DATA;
#1 = CIRCLE ( 'NONE', #17, 7.000000000000000000 ) ;
#2 = CARTESIAN_POINT ( 'NONE',  ( 0.000000000000000000, 0.000000000000000000, 5.000000000000000000 ) ) ;
#3 = CC_DESIGN_PERSON_AND_ORGANIZATION_ASSIGNMENT ( #83, #62, ( #33 ) ) ;
#4 = COORDINATED_UNIVERSAL_TIME_OFFSET ( 1, 0, .AHEAD. ) ;
#5 = EDGE_LOOP ( 'NONE', ( #240, #58 ) ) ;
#6 = COORDINATED_UNIVERSAL_TIME_OFFSET ( 1, 0, .AHEAD. ) ;
#7 = FACE_OUTER_BOUND ( 'NONE', #193, .T. ) ;
#8 = VERTEX_POINT ( 'NONE', #178 ) ;
#9 = CC_DESIGN_PERSON_AND_ORGANIZATION_ASSIGNMENT ( #250, #132, ( #254 ) ) ;
#10 = CARTESIAN_POINT ( 'NONE',  ( 0.000000000000000000, 0.000000000000000000, 0.000000000000000000 ) ) ;
#11 = ORIENTED_EDGE ( 'NONE', *, *, #211, .F. ) ;
#12 = CARTESIAN_POINT ( 'NONE',  ( 0.000000000000000000, 0.000000000000000000, 5.000000000000000000 ) ) ;
#13 = EDGE_CURVE ( 'NONE', #102, #195, #160, .T. ) ;
#14 = PLANE ( 'NONE',  #188 ) ;
#15 = ORGANIZATION ( 'NEURÈENÝ', 'NEURÈENÝ', '' ) ;
#16 = APPROVAL_ROLE ( '' ) ;
#17 = AXIS2_PLACEMENT_3D ( 'NONE', #119, #109, #187 ) ;
#18 = APPROVAL_ROLE ( '' ) ;
#19 = PRODUCT ( '1079', '1079', '', ( #191 ) ) ;
#20 = AXIS2_PLACEMENT_3D ( 'NONE', #26, #146, #130 ) ;
#21 = ADVANCED_FACE ( 'NONE', ( #7 ), #66, .T. ) ;
#22 = ORIENTED_EDGE ( 'NONE', *, *, #98, .T. ) ;
#23 = DATE_AND_TIME ( #152, #138 ) ;
#24 = ORIENTED_EDGE ( 'NONE', *, *, #110, .F. ) ;
#25 = EDGE_LOOP ( 'NONE', ( #175, #217 ) ) ;
#26 = CARTESIAN_POINT ( 'NONE',  ( 0.000000000000000000, 0.000000000000000000, 400.0000000000000000 ) ) ;
#27 = CARTESIAN_POINT ( 'NONE',  ( 4.099999999999999645, 5.021051876504146399E-16, 400.0000000000000000 ) ) ;
#28 = EDGE_LOOP ( 'NONE', ( #225, #88, #194, #196 ) ) ;
#29 = PLANE ( 'NONE',  #166 ) ;
#30 = CARTESIAN_POINT ( 'NONE',  ( -7.000000000000000000, 0.000000000000000000, 5.000000000000000000 ) ) ;
#31 = AXIS2_PLACEMENT_3D ( 'NONE', #226, #56, #222 ) ;
#32 = ORIENTED_EDGE ( 'NONE', *, *, #57, .F. ) ;
#33 = PRODUCT_DEFINITION ( 'NEZNÁMÝ', '', #254, #199 ) ;
#34 = CYLINDRICAL_SURFACE ( 'NONE', #135, 7.000000000000000000 ) ;
#35 = FACE_OUTER_BOUND ( 'NONE', #85, .T. ) ;
#36 =( NAMED_UNIT ( * ) SI_UNIT ( $, .STERADIAN. ) SOLID_ANGLE_UNIT ( ) );
#37 = PERSON_AND_ORGANIZATION_ROLE ( 'design_supplier' ) ;
#38 = DIRECTION ( 'NONE',  ( -0.000000000000000000, -0.000000000000000000, -1.000000000000000000 ) ) ;
#39 = AXIS2_PLACEMENT_3D ( 'NONE', #164, #180, #106 ) ;
#40 = CC_DESIGN_PERSON_AND_ORGANIZATION_ASSIGNMENT ( #74, #232, ( #231 ) ) ;
#41 = DATE_TIME_ROLE ( 'classification_date' ) ;
#42 = PERSON_AND_ORGANIZATION_ROLE ( 'design_owner' ) ;
#43 = EDGE_CURVE ( 'NONE', #102, #73, #129, .T. ) ;
#44 = APPLICATION_CONTEXT ( 'configuration controlled 3d designs of mechanical parts and assemblies' ) ;
#45 = CC_DESIGN_APPROVAL ( #96, ( #33 ) ) ;
#46 = DIRECTION ( 'NONE',  ( 0.000000000000000000, 0.000000000000000000, 1.000000000000000000 ) ) ;
#47 = EDGE_LOOP ( 'NONE', ( #70, #179 ) ) ;
#48 = DIRECTION ( 'NONE',  ( 0.000000000000000000, 0.000000000000000000, 1.000000000000000000 ) ) ;
#49 = APPROVAL_DATE_TIME ( #156, #80 ) ;
#50 = APPLICATION_CONTEXT ( 'configuration controlled 3d designs of mechanical parts and assemblies' ) ;
#51 = DIRECTION ( 'NONE',  ( -0.000000000000000000, -0.000000000000000000, -1.000000000000000000 ) ) ;
#52 = CARTESIAN_POINT ( 'NONE',  ( 7.000000000000000000, 8.572527594031473190E-16, 0.000000000000000000 ) ) ;
#53 = CARTESIAN_POINT ( 'NONE',  ( 0.000000000000000000, 0.000000000000000000, 5.000000000000000000 ) ) ;
#54 = CARTESIAN_POINT ( 'NONE',  ( -4.099999999999999645, 0.000000000000000000, 5.000000000000000000 ) ) ;
#55 = ORIENTED_EDGE ( 'NONE', *, *, #82, .F. ) ;
#56 = DIRECTION ( 'NONE',  ( 0.000000000000000000, 0.000000000000000000, 1.000000000000000000 ) ) ;
#57 = EDGE_CURVE ( 'NONE', #73, #102, #76, .T. ) ;
#58 = ORIENTED_EDGE ( 'NONE', *, *, #239, .T. ) ;
#59 = CARTESIAN_POINT ( 'NONE',  ( -7.000000000000000000, 0.000000000000000000, 5.000000000000000000 ) ) ;
#60 = CALENDAR_DATE ( 2023, 13, 2 ) ;
#61 = APPLICATION_PROTOCOL_DEFINITION ( 'international standard', 'config_control_design', 1994, #44 ) ;
#62 = PERSON_AND_ORGANIZATION_ROLE ( 'creator' ) ;
#63 = AXIS2_PLACEMENT_3D ( 'NONE', #10, #120, #68 ) ;
#64 = CARTESIAN_POINT ( 'NONE',  ( 0.000000000000000000, 0.000000000000000000, 400.0000000000000000 ) ) ;
#65 = AXIS2_PLACEMENT_3D ( 'NONE', #64, #48, #159 ) ;
#66 = CYLINDRICAL_SURFACE ( 'NONE', #173, 7.000000000000000000 ) ;
#67 = DIRECTION ( 'NONE',  ( 1.000000000000000000, 0.000000000000000000, -0.000000000000000000 ) ) ;
#68 = DIRECTION ( 'NONE',  ( 1.000000000000000000, 0.000000000000000000, 0.000000000000000000 ) ) ;
#69 = CARTESIAN_POINT ( 'NONE',  ( 7.000000000000000000, 8.572527594031473190E-16, 5.000000000000000000 ) ) ;
#70 = ORIENTED_EDGE ( 'NONE', *, *, #186, .F. ) ;
#71 = DIRECTION ( 'NONE',  ( -0.000000000000000000, -0.000000000000000000, -1.000000000000000000 ) ) ;
#72 = DIRECTION ( 'NONE',  ( -0.000000000000000000, -0.000000000000000000, -1.000000000000000000 ) ) ;
#73 = VERTEX_POINT ( 'NONE', #247 ) ;
#74 = PERSON_AND_ORGANIZATION ( #236, #15 ) ;
#75 = ADVANCED_FACE ( 'NONE', ( #201 ), #108, .T. ) ;
#76 = CIRCLE ( 'NONE', #241, 4.099999999999999645 ) ;
#77 = APPROVAL_STATUS ( 'not_yet_approved' ) ;
#78 = CC_DESIGN_PERSON_AND_ORGANIZATION_ASSIGNMENT ( #113, #42, ( #19 ) ) ;
#79 = COORDINATED_UNIVERSAL_TIME_OFFSET ( 1, 0, .AHEAD. ) ;
#80 = APPROVAL ( #255, 'NEURÈENÝ' ) ;
#81 = APPROVAL_ROLE ( '' ) ;
#82 = EDGE_CURVE ( 'NONE', #99, #215, #253, .T. ) ;
#83 = PERSON_AND_ORGANIZATION ( #236, #15 ) ;
#84 = VECTOR ( 'NONE', #121, 1000.000000000000000 ) ;
#85 = EDGE_LOOP ( 'NONE', ( #11, #24 ) ) ;
#86 = ADVANCED_BREP_SHAPE_REPRESENTATION ( '1079', ( #131, #112 ), #219 ) ;
#87 = DIRECTION ( 'NONE',  ( 0.000000000000000000, 0.000000000000000000, 1.000000000000000000 ) ) ;
#88 = ORIENTED_EDGE ( 'NONE', *, *, #43, .F. ) ;
#89 =( NAMED_UNIT ( * ) PLANE_ANGLE_UNIT ( ) SI_UNIT ( $, .RADIAN. ) );
#90 = COORDINATED_UNIVERSAL_TIME_OFFSET ( 1, 0, .AHEAD. ) ;
#91 = CARTESIAN_POINT ( 'NONE',  ( 0.000000000000000000, 0.000000000000000000, 0.000000000000000000 ) ) ;
#92 = FACE_BOUND ( 'NONE', #47, .T. ) ;
#93 = VECTOR ( 'NONE', #242, 1000.000000000000000 ) ;
#94 = DATE_AND_TIME ( #60, #140 ) ;
#95 = LOCAL_TIME ( 15, 20, 40.00000000000000000, #4 ) ;
#96 = APPROVAL ( #210, 'NEURÈENÝ' ) ;
#97 = AXIS2_PLACEMENT_3D ( 'NONE', #53, #163, #126 ) ;
#98 = EDGE_CURVE ( 'NONE', #203, #195, #204, .T. ) ;
#99 = VERTEX_POINT ( 'NONE', #59 ) ;
#100 = CALENDAR_DATE ( 2023, 13, 2 ) ;
#101 = CALENDAR_DATE ( 2023, 13, 2 ) ;
#102 = VERTEX_POINT ( 'NONE', #205 ) ;
#103 = LINE ( 'NONE', #30, #84 ) ;
#104 = LOCAL_TIME ( 15, 20, 40.00000000000000000, #90 ) ;
#105 = CARTESIAN_POINT ( 'NONE',  ( 0.000000000000000000, 0.000000000000000000, 400.0000000000000000 ) ) ;
#106 = DIRECTION ( 'NONE',  ( 1.000000000000000000, 0.000000000000000000, -0.000000000000000000 ) ) ;
#107 = ORIENTED_EDGE ( 'NONE', *, *, #158, .T. ) ;
#108 = CYLINDRICAL_SURFACE ( 'NONE', #139, 4.099999999999999645 ) ;
#109 = DIRECTION ( 'NONE',  ( 0.000000000000000000, 0.000000000000000000, 1.000000000000000000 ) ) ;
#110 = EDGE_CURVE ( 'NONE', #229, #8, #155, .T. ) ;
#111 = DIRECTION ( 'NONE',  ( 0.000000000000000000, 0.000000000000000000, 1.000000000000000000 ) ) ;
#112 = AXIS2_PLACEMENT_3D ( 'NONE', #233, #46, #149 ) ;
#113 = PERSON_AND_ORGANIZATION ( #236, #15 ) ;
#114 = PERSON_AND_ORGANIZATION ( #236, #15 ) ;
#115 = ORIENTED_EDGE ( 'NONE', *, *, #162, .F. ) ;
#116 = ORIENTED_EDGE ( 'NONE', *, *, #13, .F. ) ;
#117 = ORIENTED_EDGE ( 'NONE', *, *, #208, .F. ) ;
#118 = ORIENTED_EDGE ( 'NONE', *, *, #239, .F. ) ;
#119 = CARTESIAN_POINT ( 'NONE',  ( 0.000000000000000000, 0.000000000000000000, 5.000000000000000000 ) ) ;
#120 = DIRECTION ( 'NONE',  ( 0.000000000000000000, 0.000000000000000000, 1.000000000000000000 ) ) ;
#121 = DIRECTION ( 'NONE',  ( -0.000000000000000000, -0.000000000000000000, -1.000000000000000000 ) ) ;
#122 = EDGE_LOOP ( 'NONE', ( #32, #107, #22, #116 ) ) ;
#123 = APPROVAL_PERSON_ORGANIZATION ( #251, #96, #18 ) ;
#124 = FACE_OUTER_BOUND ( 'NONE', #25, .T. ) ;
#125 = DIRECTION ( 'NONE',  ( 0.000000000000000000, 0.000000000000000000, 1.000000000000000000 ) ) ;
#126 = DIRECTION ( 'NONE',  ( 1.000000000000000000, 0.000000000000000000, 0.000000000000000000 ) ) ;
#127 = APPROVAL_DATE_TIME ( #94, #238 ) ;
#128 = FACE_OUTER_BOUND ( 'NONE', #5, .T. ) ;
#129 = CIRCLE ( 'NONE', #65, 4.099999999999999645 ) ;
#130 = DIRECTION ( 'NONE',  ( -1.000000000000000000, 0.000000000000000000, 0.000000000000000000 ) ) ;
#131 = MANIFOLD_SOLID_BREP ( 'Pøidat vysunutím3', #212 ) ;
#132 = PERSON_AND_ORGANIZATION_ROLE ( 'creator' ) ;
#133 = PERSON_AND_ORGANIZATION ( #236, #15 ) ;
#134 = CC_DESIGN_SECURITY_CLASSIFICATION ( #231, ( #254 ) ) ;
#135 = AXIS2_PLACEMENT_3D ( 'NONE', #12, #223, #182 ) ;
#136 = ADVANCED_FACE ( 'NONE', ( #165 ), #34, .T. ) ;
#137 = DIRECTION ( 'NONE',  ( 0.000000000000000000, 0.000000000000000000, 1.000000000000000000 ) ) ;
#138 = LOCAL_TIME ( 15, 20, 40.00000000000000000, #79 ) ;
#139 = AXIS2_PLACEMENT_3D ( 'NONE', #105, #71, #144 ) ;
#140 = LOCAL_TIME ( 15, 20, 40.00000000000000000, #170 ) ;
#141 = CARTESIAN_POINT ( 'NONE',  ( -4.099999999999999645, 0.000000000000000000, 400.0000000000000000 ) ) ;
#142 = CARTESIAN_POINT ( 'NONE',  ( 4.099999999999999645, 5.021051876504146399E-16, 5.000000000000000000 ) ) ;
#143 = ADVANCED_FACE ( 'NONE', ( #124 ), #29, .T. ) ;
#144 = DIRECTION ( 'NONE',  ( -1.000000000000000000, 0.000000000000000000, 0.000000000000000000 ) ) ;
#145 = LINE ( 'NONE', #206, #252 ) ;
#146 = DIRECTION ( 'NONE',  ( -0.000000000000000000, -0.000000000000000000, -1.000000000000000000 ) ) ;
#147 = PRODUCT_RELATED_PRODUCT_CATEGORY ( 'detail', '', ( #19 ) ) ;
#148 = CYLINDRICAL_SURFACE ( 'NONE', #20, 4.099999999999999645 ) ;
#149 = DIRECTION ( 'NONE',  ( 1.000000000000000000, 0.000000000000000000, 0.000000000000000000 ) ) ;
#150 = APPROVAL_DATE_TIME ( #23, #96 ) ;
#151 = AXIS2_PLACEMENT_3D ( 'NONE', #91, #125, #227 ) ;
#152 = CALENDAR_DATE ( 2023, 13, 2 ) ;
#153 = CC_DESIGN_DATE_AND_TIME_ASSIGNMENT ( #174, #177, ( #33 ) ) ;
#154 = EDGE_LOOP ( 'NONE', ( #118, #218, #200, #117 ) ) ;
#155 = CIRCLE ( 'NONE', #63, 7.000000000000000000 ) ;
#156 = DATE_AND_TIME ( #100, #95 ) ;
#157 = ORIENTED_EDGE ( 'NONE', *, *, #208, .T. ) ;
#158 = EDGE_CURVE ( 'NONE', #73, #203, #198, .T. ) ;
#159 = DIRECTION ( 'NONE',  ( 1.000000000000000000, 0.000000000000000000, 0.000000000000000000 ) ) ;
#160 = LINE ( 'NONE', #141, #93 ) ;
#161 = DIRECTION ( 'NONE',  ( 1.000000000000000000, 0.000000000000000000, 0.000000000000000000 ) ) ;
#162 = EDGE_CURVE ( 'NONE', #215, #229, #145, .T. ) ;
#163 = DIRECTION ( 'NONE',  ( 0.000000000000000000, 0.000000000000000000, 1.000000000000000000 ) ) ;
#164 = CARTESIAN_POINT ( 'NONE',  ( 0.000000000000000000, 0.000000000000000000, 5.000000000000000000 ) ) ;
#165 = FACE_OUTER_BOUND ( 'NONE', #154, .T. ) ;
#166 = AXIS2_PLACEMENT_3D ( 'NONE', #248, #111, #67 ) ;
#167 = DATE_AND_TIME ( #209, #104 ) ;
#168 = PLANE ( 'NONE',  #39 ) ;
#169 = APPROVAL_PERSON_ORGANIZATION ( #114, #80, #81 ) ;
#170 = COORDINATED_UNIVERSAL_TIME_OFFSET ( 1, 0, .AHEAD. ) ;
#171 = ADVANCED_FACE ( 'NONE', ( #249 ), #148, .T. ) ;
#172 = PERSON_AND_ORGANIZATION ( #236, #15 ) ;
#173 = AXIS2_PLACEMENT_3D ( 'NONE', #2, #51, #245 ) ;
#174 = DATE_AND_TIME ( #101, #244 ) ;
#175 = ORIENTED_EDGE ( 'NONE', *, *, #43, .T. ) ;
#176 = ADVANCED_FACE ( 'NONE', ( #92, #128 ), #168, .T. ) ;
#177 = DATE_TIME_ROLE ( 'creation_date' ) ;
#178 = CARTESIAN_POINT ( 'NONE',  ( -7.000000000000000000, 0.000000000000000000, 0.000000000000000000 ) ) ;
#179 = ORIENTED_EDGE ( 'NONE', *, *, #98, .F. ) ;
#180 = DIRECTION ( 'NONE',  ( 0.000000000000000000, 0.000000000000000000, 1.000000000000000000 ) ) ;
#181 = CC_DESIGN_APPROVAL ( #80, ( #254 ) ) ;
#182 = DIRECTION ( 'NONE',  ( -1.000000000000000000, 0.000000000000000000, 0.000000000000000000 ) ) ;
#183 = CARTESIAN_POINT ( 'NONE',  ( 0.000000000000000000, 0.000000000000000000, 5.000000000000000000 ) ) ;
#184 = VECTOR ( 'NONE', #72, 1000.000000000000000 ) ;
#185 = PRODUCT_DEFINITION_SHAPE ( 'NONE', 'NONE',  #33 ) ;
#186 = EDGE_CURVE ( 'NONE', #195, #203, #228, .T. ) ;
#187 = DIRECTION ( 'NONE',  ( 1.000000000000000000, 0.000000000000000000, 0.000000000000000000 ) ) ;
#188 = AXIS2_PLACEMENT_3D ( 'NONE', #202, #87, #224 ) ;
#189 = SECURITY_CLASSIFICATION_LEVEL ( 'unclassified' ) ;
#190 = APPLICATION_PROTOCOL_DEFINITION ( 'international standard', 'config_control_design', 1994, #50 ) ;
#191 = MECHANICAL_CONTEXT ( 'NONE', #44, 'mechanical' ) ;
#192 = CC_DESIGN_APPROVAL ( #238, ( #231 ) ) ;
#193 = EDGE_LOOP ( 'NONE', ( #115, #55, #157, #220 ) ) ;
#194 = ORIENTED_EDGE ( 'NONE', *, *, #13, .T. ) ;
#195 = VERTEX_POINT ( 'NONE', #54 ) ;
#196 = ORIENTED_EDGE ( 'NONE', *, *, #186, .T. ) ;
#197 =( LENGTH_UNIT ( ) NAMED_UNIT ( * ) SI_UNIT ( .MILLI., .METRE. ) );
#198 = LINE ( 'NONE', #27, #184 ) ;
#199 = DESIGN_CONTEXT ( 'detailed design', #50, 'design' ) ;
#200 = ORIENTED_EDGE ( 'NONE', *, *, #110, .T. ) ;
#201 = FACE_OUTER_BOUND ( 'NONE', #28, .T. ) ;
#202 = CARTESIAN_POINT ( 'NONE',  ( 0.000000000000000000, 0.000000000000000000, 0.000000000000000000 ) ) ;
#203 = VERTEX_POINT ( 'NONE', #142 ) ;
#204 = CIRCLE ( 'NONE', #97, 4.099999999999999645 ) ;
#205 = CARTESIAN_POINT ( 'NONE',  ( -4.099999999999999645, 0.000000000000000000, 400.0000000000000000 ) ) ;
#206 = CARTESIAN_POINT ( 'NONE',  ( 7.000000000000000000, 8.572527594031473190E-16, 5.000000000000000000 ) ) ;
#207 = DIRECTION ( 'NONE',  ( 0.000000000000000000, 0.000000000000000000, 1.000000000000000000 ) ) ;
#208 = EDGE_CURVE ( 'NONE', #99, #8, #103, .T. ) ;
#209 = CALENDAR_DATE ( 2023, 13, 2 ) ;
#210 = APPROVAL_STATUS ( 'not_yet_approved' ) ;
#211 = EDGE_CURVE ( 'NONE', #8, #229, #216, .T. ) ;
#212 = CLOSED_SHELL ( 'NONE', ( #171, #136, #21, #176, #234, #75, #143 ) ) ;
#213 = CC_DESIGN_PERSON_AND_ORGANIZATION_ASSIGNMENT ( #133, #37, ( #254 ) ) ;
#214 = DIRECTION ( 'NONE',  ( 1.000000000000000000, 0.000000000000000000, 0.000000000000000000 ) ) ;
#215 = VERTEX_POINT ( 'NONE', #69 ) ;
#216 = CIRCLE ( 'NONE', #151, 7.000000000000000000 ) ;
#217 = ORIENTED_EDGE ( 'NONE', *, *, #57, .T. ) ;
#218 = ORIENTED_EDGE ( 'NONE', *, *, #162, .T. ) ;
#219 =( GEOMETRIC_REPRESENTATION_CONTEXT ( 3 ) GLOBAL_UNCERTAINTY_ASSIGNED_CONTEXT ( ( #221 ) ) GLOBAL_UNIT_ASSIGNED_CONTEXT ( ( #197, #89, #36 ) ) REPRESENTATION_CONTEXT ( 'NONE', 'WORKASPACE' ) );
#220 = ORIENTED_EDGE ( 'NONE', *, *, #211, .T. ) ;
#221 = UNCERTAINTY_MEASURE_WITH_UNIT (LENGTH_MEASURE( 1.000000000000000082E-05 ), #197, 'distance_accuracy_value', 'NONE');
#222 = DIRECTION ( 'NONE',  ( 1.000000000000000000, 0.000000000000000000, 0.000000000000000000 ) ) ;
#223 = DIRECTION ( 'NONE',  ( -0.000000000000000000, -0.000000000000000000, -1.000000000000000000 ) ) ;
#224 = DIRECTION ( 'NONE',  ( 1.000000000000000000, 0.000000000000000000, -0.000000000000000000 ) ) ;
#225 = ORIENTED_EDGE ( 'NONE', *, *, #158, .F. ) ;
#226 = CARTESIAN_POINT ( 'NONE',  ( 0.000000000000000000, 0.000000000000000000, 5.000000000000000000 ) ) ;
#227 = DIRECTION ( 'NONE',  ( 1.000000000000000000, 0.000000000000000000, 0.000000000000000000 ) ) ;
#228 = CIRCLE ( 'NONE', #237, 4.099999999999999645 ) ;
#229 = VERTEX_POINT ( 'NONE', #52 ) ;
#230 = SHAPE_DEFINITION_REPRESENTATION ( #185, #86 ) ;
#231 = SECURITY_CLASSIFICATION ( '', '', #189 ) ;
#232 = PERSON_AND_ORGANIZATION_ROLE ( 'classification_officer' ) ;
#233 = CARTESIAN_POINT ( 'NONE',  ( 0.000000000000000000, 0.000000000000000000, 0.000000000000000000 ) ) ;
#234 = ADVANCED_FACE ( 'NONE', ( #35 ), #14, .F. ) ;
#235 = APPROVAL_PERSON_ORGANIZATION ( #172, #238, #16 ) ;
#236 = PERSON ( 'NEURÈENÝ', 'NEURÈENÝ', 'NEURÈENÝ', ('NEURÈENÝ'), ('NEURÈENÝ'), ('NEURÈENÝ') ) ;
#237 = AXIS2_PLACEMENT_3D ( 'NONE', #183, #207, #161 ) ;
#238 = APPROVAL ( #77, 'NEURÈENÝ' ) ;
#239 = EDGE_CURVE ( 'NONE', #215, #99, #1, .T. ) ;
#240 = ORIENTED_EDGE ( 'NONE', *, *, #82, .T. ) ;
#241 = AXIS2_PLACEMENT_3D ( 'NONE', #243, #137, #214 ) ;
#242 = DIRECTION ( 'NONE',  ( -0.000000000000000000, -0.000000000000000000, -1.000000000000000000 ) ) ;
#243 = CARTESIAN_POINT ( 'NONE',  ( 0.000000000000000000, 0.000000000000000000, 400.0000000000000000 ) ) ;
#244 = LOCAL_TIME ( 15, 20, 40.00000000000000000, #6 ) ;
#245 = DIRECTION ( 'NONE',  ( -1.000000000000000000, 0.000000000000000000, 0.000000000000000000 ) ) ;
#246 = CC_DESIGN_DATE_AND_TIME_ASSIGNMENT ( #167, #41, ( #231 ) ) ;
#247 = CARTESIAN_POINT ( 'NONE',  ( 4.099999999999999645, 5.021051876504146399E-16, 400.0000000000000000 ) ) ;
#248 = CARTESIAN_POINT ( 'NONE',  ( 0.000000000000000000, 0.000000000000000000, 400.0000000000000000 ) ) ;
#249 = FACE_OUTER_BOUND ( 'NONE', #122, .T. ) ;
#250 = PERSON_AND_ORGANIZATION ( #236, #15 ) ;
#251 = PERSON_AND_ORGANIZATION ( #236, #15 ) ;
#252 = VECTOR ( 'NONE', #38, 1000.000000000000000 ) ;
#253 = CIRCLE ( 'NONE', #31, 7.000000000000000000 ) ;
#254 = PRODUCT_DEFINITION_FORMATION_WITH_SPECIFIED_SOURCE ( 'LIBOVOLNÝ', '', #19, .NOT_KNOWN. ) ;
#255 = APPROVAL_STATUS ( 'not_yet_approved' ) ;
ENDSEC;
END-ISO-10303-21;
