ISO-10303-21;
HEADER;
FILE_DESCRIPTION (( 'STEP AP203' ),
    '1' );
FILE_NAME ('af67.STEP',
    '2023-02-13T09:48:26',
    ( '' ),
    ( '' ),
    'SwSTEP 2.0',
    'SolidWorks 2019',
    '' );
FILE_SCHEMA (( 'CONFIG_CONTROL_DESIGN' ));
ENDSEC;

DATA;
#1 = CARTESIAN_POINT ( 'NONE',  ( -7.750000000000000000, 0.000000000000000000, 7.000000000000000000 ) ) ;
#2 = EDGE_CURVE ( 'NONE', #175, #106, #82, .T. ) ;
#3 = FACE_OUTER_BOUND ( 'NONE', #8, .T. ) ;
#4 = DIRECTION ( 'NONE',  ( 1.000000000000000000, 0.000000000000000000, -0.000000000000000000 ) ) ;
#5 = PRODUCT_DEFINITION_FORMATION_WITH_SPECIFIED_SOURCE ( 'LIBOVOLNÝ', '', #37, .NOT_KNOWN. ) ;
#6 = CARTESIAN_POINT ( 'NONE',  ( 11.00000000000000000, 1.347111479062088405E-15, 0.000000000000000000 ) ) ;
#7 = DATE_AND_TIME ( #136, #202 ) ;
#8 = EDGE_LOOP ( 'NONE', ( #192, #152, #94, #249 ) ) ;
#9 = CIRCLE ( 'NONE', #14, 7.750000000000000000 ) ;
#10 = PERSON_AND_ORGANIZATION ( #19, #76 ) ;
#11 = VERTEX_POINT ( 'NONE', #57 ) ;
#12 = CALENDAR_DATE ( 2023, 13, 2 ) ;
#13 = ORIENTED_EDGE ( 'NONE', *, *, #2, .T. ) ;
#14 = AXIS2_PLACEMENT_3D ( 'NONE', #225, #47, #88 ) ;
#15 = DATE_TIME_ROLE ( 'creation_date' ) ;
#16 = CC_DESIGN_PERSON_AND_ORGANIZATION_ASSIGNMENT ( #97, #91, ( #77 ) ) ;
#17 = ADVANCED_FACE ( 'NONE', ( #143, #199 ), #181, .T. ) ;
#18 = CARTESIAN_POINT ( 'NONE',  ( 0.000000000000000000, 0.000000000000000000, 0.000000000000000000 ) ) ;
#19 = PERSON ( 'NEURÈENÝ', 'NEURÈENÝ', 'NEURÈENÝ', ('NEURÈENÝ'), ('NEURÈENÝ'), ('NEURÈENÝ') ) ;
#20 = AXIS2_PLACEMENT_3D ( 'NONE', #107, #93, #134 ) ;
#21 = CARTESIAN_POINT ( 'NONE',  ( 0.000000000000000000, 0.000000000000000000, 7.000000000000000000 ) ) ;
#22 = CARTESIAN_POINT ( 'NONE',  ( 0.000000000000000000, 0.000000000000000000, 250.0000000000000000 ) ) ;
#23 = CC_DESIGN_PERSON_AND_ORGANIZATION_ASSIGNMENT ( #130, #214, ( #5 ) ) ;
#24 = ADVANCED_FACE ( 'NONE', ( #245 ), #62, .T. ) ;
#25 = PLANE ( 'NONE',  #32 ) ;
#26 = AXIS2_PLACEMENT_3D ( 'NONE', #176, #235, #234 ) ;
#27 = PERSON_AND_ORGANIZATION ( #19, #76 ) ;
#28 = ADVANCED_FACE ( 'NONE', ( #83 ), #101, .T. ) ;
#29 = ORIENTED_EDGE ( 'NONE', *, *, #211, .T. ) ;
#30 = DATE_AND_TIME ( #50, #198 ) ;
#31 = AXIS2_PLACEMENT_3D ( 'NONE', #21, #244, #124 ) ;
#32 = AXIS2_PLACEMENT_3D ( 'NONE', #174, #250, #155 ) ;
#33 = MANIFOLD_SOLID_BREP ( 'Pøidat vysunutím3', #182 ) ;
#34 = DIRECTION ( 'NONE',  ( 0.000000000000000000, 0.000000000000000000, 1.000000000000000000 ) ) ;
#35 = ORIENTED_EDGE ( 'NONE', *, *, #150, .T. ) ;
#36 = CIRCLE ( 'NONE', #56, 11.00000000000000000 ) ;
#37 = PRODUCT ( 'af67', 'af67', '', ( #154 ) ) ;
#38 = PLANE ( 'NONE',  #122 ) ;
#39 = CARTESIAN_POINT ( 'NONE',  ( 0.000000000000000000, 0.000000000000000000, 7.000000000000000000 ) ) ;
#40 = CARTESIAN_POINT ( 'NONE',  ( 0.000000000000000000, 0.000000000000000000, 250.0000000000000000 ) ) ;
#41 = CARTESIAN_POINT ( 'NONE',  ( 7.750000000000000000, 9.491012693391987787E-16, 250.0000000000000000 ) ) ;
#42 = DIRECTION ( 'NONE',  ( -0.000000000000000000, -0.000000000000000000, -1.000000000000000000 ) ) ;
#43 = FACE_OUTER_BOUND ( 'NONE', #116, .T. ) ;
#44 = CC_DESIGN_APPROVAL ( #109, ( #5 ) ) ;
#45 = APPROVAL_ROLE ( '' ) ;
#46 = EDGE_CURVE ( 'NONE', #66, #11, #201, .T. ) ;
#47 = DIRECTION ( 'NONE',  ( 0.000000000000000000, 0.000000000000000000, 1.000000000000000000 ) ) ;
#48 = COORDINATED_UNIVERSAL_TIME_OFFSET ( 1, 0, .AHEAD. ) ;
#49 = ORIENTED_EDGE ( 'NONE', *, *, #2, .F. ) ;
#50 = CALENDAR_DATE ( 2023, 13, 2 ) ;
#51 = DIRECTION ( 'NONE',  ( -0.000000000000000000, -0.000000000000000000, -1.000000000000000000 ) ) ;
#52 = CIRCLE ( 'NONE', #240, 11.00000000000000000 ) ;
#53 = PERSON_AND_ORGANIZATION ( #19, #76 ) ;
#54 = PERSON_AND_ORGANIZATION ( #19, #76 ) ;
#55 = VECTOR ( 'NONE', #59, 1000.000000000000000 ) ;
#56 = AXIS2_PLACEMENT_3D ( 'NONE', #39, #99, #184 ) ;
#57 = CARTESIAN_POINT ( 'NONE',  ( 7.750000000000000000, 9.491012693391987787E-16, 7.000000000000000000 ) ) ;
#58 = CARTESIAN_POINT ( 'NONE',  ( 11.00000000000000000, 1.347111479062088405E-15, 7.000000000000000000 ) ) ;
#59 = DIRECTION ( 'NONE',  ( -0.000000000000000000, -0.000000000000000000, -1.000000000000000000 ) ) ;
#60 = AXIS2_PLACEMENT_3D ( 'NONE', #125, #147, #127 ) ;
#61 = APPROVAL_PERSON_ORGANIZATION ( #54, #109, #45 ) ;
#62 = CYLINDRICAL_SURFACE ( 'NONE', #218, 11.00000000000000000 ) ;
#63 =( GEOMETRIC_REPRESENTATION_CONTEXT ( 3 ) GLOBAL_UNCERTAINTY_ASSIGNED_CONTEXT ( ( #102 ) ) GLOBAL_UNIT_ASSIGNED_CONTEXT ( ( #188, #85, #165 ) ) REPRESENTATION_CONTEXT ( 'NONE', 'WORKASPACE' ) );
#64 = ORIENTED_EDGE ( 'NONE', *, *, #200, .T. ) ;
#65 = DIRECTION ( 'NONE',  ( 0.000000000000000000, 0.000000000000000000, 1.000000000000000000 ) ) ;
#66 = VERTEX_POINT ( 'NONE', #98 ) ;
#67 = CARTESIAN_POINT ( 'NONE',  ( 0.000000000000000000, 0.000000000000000000, 0.000000000000000000 ) ) ;
#68 = APPROVAL ( #73, 'NEURÈENÝ' ) ;
#69 = PERSON_AND_ORGANIZATION_ROLE ( 'design_owner' ) ;
#70 = AXIS2_PLACEMENT_3D ( 'NONE', #40, #42, #183 ) ;
#71 = DATE_AND_TIME ( #12, #120 ) ;
#72 = ORIENTED_EDGE ( 'NONE', *, *, #239, .F. ) ;
#73 = APPROVAL_STATUS ( 'not_yet_approved' ) ;
#74 = EDGE_CURVE ( 'NONE', #11, #96, #209, .T. ) ;
#75 = APPLICATION_CONTEXT ( 'configuration controlled 3d designs of mechanical parts and assemblies' ) ;
#76 = ORGANIZATION ( 'NEURÈENÝ', 'NEURÈENÝ', '' ) ;
#77 = PRODUCT_DEFINITION ( 'NEZNÁMÝ', '', #5, #162 ) ;
#78 = DIRECTION ( 'NONE',  ( -0.000000000000000000, -0.000000000000000000, -1.000000000000000000 ) ) ;
#79 = ADVANCED_FACE ( 'NONE', ( #185 ), #38, .F. ) ;
#80 = DIRECTION ( 'NONE',  ( 1.000000000000000000, 0.000000000000000000, 0.000000000000000000 ) ) ;
#81 = DIRECTION ( 'NONE',  ( -0.000000000000000000, -0.000000000000000000, -1.000000000000000000 ) ) ;
#82 = CIRCLE ( 'NONE', #118, 11.00000000000000000 ) ;
#83 = FACE_OUTER_BOUND ( 'NONE', #108, .T. ) ;
#84 = DIRECTION ( 'NONE',  ( -1.000000000000000000, 0.000000000000000000, 0.000000000000000000 ) ) ;
#85 =( NAMED_UNIT ( * ) PLANE_ANGLE_UNIT ( ) SI_UNIT ( $, .RADIAN. ) );
#86 = DIRECTION ( 'NONE',  ( -1.000000000000000000, 0.000000000000000000, 0.000000000000000000 ) ) ;
#87 = PERSON_AND_ORGANIZATION_ROLE ( 'classification_officer' ) ;
#88 = DIRECTION ( 'NONE',  ( 1.000000000000000000, 0.000000000000000000, 0.000000000000000000 ) ) ;
#89 = APPROVAL_PERSON_ORGANIZATION ( #140, #242, #227 ) ;
#90 = ORIENTED_EDGE ( 'NONE', *, *, #74, .F. ) ;
#91 = PERSON_AND_ORGANIZATION_ROLE ( 'creator' ) ;
#92 = PRODUCT_RELATED_PRODUCT_CATEGORY ( 'detail', '', ( #37 ) ) ;
#93 = DIRECTION ( 'NONE',  ( 0.000000000000000000, 0.000000000000000000, 1.000000000000000000 ) ) ;
#94 = ORIENTED_EDGE ( 'NONE', *, *, #74, .T. ) ;
#95 = APPLICATION_PROTOCOL_DEFINITION ( 'international standard', 'config_control_design', 1994, #75 ) ;
#96 = VERTEX_POINT ( 'NONE', #1 ) ;
#97 = PERSON_AND_ORGANIZATION ( #19, #76 ) ;
#98 = CARTESIAN_POINT ( 'NONE',  ( 7.750000000000000000, 9.491012693391987787E-16, 250.0000000000000000 ) ) ;
#99 = DIRECTION ( 'NONE',  ( 0.000000000000000000, 0.000000000000000000, 1.000000000000000000 ) ) ;
#100 = EDGE_CURVE ( 'NONE', #112, #66, #110, .T. ) ;
#101 = CYLINDRICAL_SURFACE ( 'NONE', #231, 11.00000000000000000 ) ;
#102 = UNCERTAINTY_MEASURE_WITH_UNIT (LENGTH_MEASURE( 1.000000000000000082E-05 ), #188, 'distance_accuracy_value', 'NONE');
#103 = CARTESIAN_POINT ( 'NONE',  ( -7.750000000000000000, 0.000000000000000000, 250.0000000000000000 ) ) ;
#104 = CC_DESIGN_DATE_AND_TIME_ASSIGNMENT ( #71, #159, ( #224 ) ) ;
#105 = LINE ( 'NONE', #103, #157 ) ;
#106 = VERTEX_POINT ( 'NONE', #187 ) ;
#107 = CARTESIAN_POINT ( 'NONE',  ( 0.000000000000000000, 0.000000000000000000, 0.000000000000000000 ) ) ;
#108 = EDGE_LOOP ( 'NONE', ( #190, #114, #135, #137 ) ) ;
#109 = APPROVAL ( #252, 'NEURÈENÝ' ) ;
#110 = CIRCLE ( 'NONE', #60, 7.750000000000000000 ) ;
#111 = CC_DESIGN_SECURITY_CLASSIFICATION ( #224, ( #5 ) ) ;
#112 = VERTEX_POINT ( 'NONE', #219 ) ;
#113 = PRODUCT_DEFINITION_SHAPE ( 'NONE', 'NONE',  #77 ) ;
#114 = ORIENTED_EDGE ( 'NONE', *, *, #189, .T. ) ;
#115 = SECURITY_CLASSIFICATION_LEVEL ( 'unclassified' ) ;
#116 = EDGE_LOOP ( 'NONE', ( #236, #253 ) ) ;
#117 = COORDINATED_UNIVERSAL_TIME_OFFSET ( 1, 0, .AHEAD. ) ;
#118 = AXIS2_PLACEMENT_3D ( 'NONE', #145, #34, #119 ) ;
#119 = DIRECTION ( 'NONE',  ( 1.000000000000000000, 0.000000000000000000, 0.000000000000000000 ) ) ;
#120 = LOCAL_TIME ( 10, 48, 26.00000000000000000, #248 ) ;
#121 = CC_DESIGN_PERSON_AND_ORGANIZATION_ASSIGNMENT ( #27, #69, ( #37 ) ) ;
#122 = AXIS2_PLACEMENT_3D ( 'NONE', #18, #243, #4 ) ;
#123 = CC_DESIGN_APPROVAL ( #68, ( #77 ) ) ;
#124 = DIRECTION ( 'NONE',  ( 1.000000000000000000, 0.000000000000000000, -0.000000000000000000 ) ) ;
#125 = CARTESIAN_POINT ( 'NONE',  ( 0.000000000000000000, 0.000000000000000000, 250.0000000000000000 ) ) ;
#126 = CARTESIAN_POINT ( 'NONE',  ( -11.00000000000000000, 0.000000000000000000, 7.000000000000000000 ) ) ;
#127 = DIRECTION ( 'NONE',  ( 1.000000000000000000, 0.000000000000000000, 0.000000000000000000 ) ) ;
#128 = DIRECTION ( 'NONE',  ( -0.000000000000000000, -0.000000000000000000, -1.000000000000000000 ) ) ;
#129 = AXIS2_PLACEMENT_3D ( 'NONE', #22, #51, #86 ) ;
#130 = PERSON_AND_ORGANIZATION ( #19, #76 ) ;
#131 = ADVANCED_FACE ( 'NONE', ( #247 ), #204, .T. ) ;
#132 = EDGE_LOOP ( 'NONE', ( #210, #90 ) ) ;
#133 = CALENDAR_DATE ( 2023, 13, 2 ) ;
#134 = DIRECTION ( 'NONE',  ( 1.000000000000000000, 0.000000000000000000, 0.000000000000000000 ) ) ;
#135 = ORIENTED_EDGE ( 'NONE', *, *, #239, .T. ) ;
#136 = CALENDAR_DATE ( 2023, 13, 2 ) ;
#137 = ORIENTED_EDGE ( 'NONE', *, *, #167, .F. ) ;
#138 = APPROVAL_ROLE ( '' ) ;
#139 = EDGE_LOOP ( 'NONE', ( #13, #64 ) ) ;
#140 = PERSON_AND_ORGANIZATION ( #19, #76 ) ;
#141 = ORIENTED_EDGE ( 'NONE', *, *, #100, .F. ) ;
#142 = APPROVAL_PERSON_ORGANIZATION ( #10, #68, #138 ) ;
#143 = FACE_BOUND ( 'NONE', #132, .T. ) ;
#144 = VECTOR ( 'NONE', #128, 1000.000000000000000 ) ;
#145 = CARTESIAN_POINT ( 'NONE',  ( 0.000000000000000000, 0.000000000000000000, 7.000000000000000000 ) ) ;
#146 = DIRECTION ( 'NONE',  ( -0.000000000000000000, -0.000000000000000000, -1.000000000000000000 ) ) ;
#147 = DIRECTION ( 'NONE',  ( 0.000000000000000000, 0.000000000000000000, 1.000000000000000000 ) ) ;
#148 = CIRCLE ( 'NONE', #20, 11.00000000000000000 ) ;
#149 = CARTESIAN_POINT ( 'NONE',  ( 0.000000000000000000, 0.000000000000000000, 7.000000000000000000 ) ) ;
#150 = EDGE_CURVE ( 'NONE', #112, #96, #105, .T. ) ;
#151 = CARTESIAN_POINT ( 'NONE',  ( -11.00000000000000000, 0.000000000000000000, 7.000000000000000000 ) ) ;
#152 = ORIENTED_EDGE ( 'NONE', *, *, #46, .T. ) ;
#153 = APPLICATION_PROTOCOL_DEFINITION ( 'international standard', 'config_control_design', 1994, #233 ) ;
#154 = MECHANICAL_CONTEXT ( 'NONE', #75, 'mechanical' ) ;
#155 = DIRECTION ( 'NONE',  ( 1.000000000000000000, 0.000000000000000000, -0.000000000000000000 ) ) ;
#156 = EDGE_LOOP ( 'NONE', ( #195, #72 ) ) ;
#157 = VECTOR ( 'NONE', #78, 1000.000000000000000 ) ;
#158 = EDGE_CURVE ( 'NONE', #66, #112, #215, .T. ) ;
#159 = DATE_TIME_ROLE ( 'classification_date' ) ;
#160 = EDGE_LOOP ( 'NONE', ( #232, #49, #213, #29 ) ) ;
#161 = COORDINATED_UNIVERSAL_TIME_OFFSET ( 1, 0, .AHEAD. ) ;
#162 = DESIGN_CONTEXT ( 'detailed design', #233, 'design' ) ;
#163 = CC_DESIGN_PERSON_AND_ORGANIZATION_ASSIGNMENT ( #194, #87, ( #224 ) ) ;
#164 = CARTESIAN_POINT ( 'NONE',  ( 0.000000000000000000, 0.000000000000000000, 250.0000000000000000 ) ) ;
#165 =( NAMED_UNIT ( * ) SI_UNIT ( $, .STERADIAN. ) SOLID_ANGLE_UNIT ( ) );
#166 = DIRECTION ( 'NONE',  ( 0.000000000000000000, 0.000000000000000000, 1.000000000000000000 ) ) ;
#167 = EDGE_CURVE ( 'NONE', #175, #173, #186, .T. ) ;
#168 = VECTOR ( 'NONE', #146, 1000.000000000000000 ) ;
#169 = DIRECTION ( 'NONE',  ( 1.000000000000000000, 0.000000000000000000, 0.000000000000000000 ) ) ;
#170 = CARTESIAN_POINT ( 'NONE',  ( 0.000000000000000000, 0.000000000000000000, 7.000000000000000000 ) ) ;
#171 = APPROVAL_DATE_TIME ( #7, #109 ) ;
#172 = LOCAL_TIME ( 10, 48, 26.00000000000000000, #48 ) ;
#173 = VERTEX_POINT ( 'NONE', #205 ) ;
#174 = CARTESIAN_POINT ( 'NONE',  ( 0.000000000000000000, 0.000000000000000000, 250.0000000000000000 ) ) ;
#175 = VERTEX_POINT ( 'NONE', #126 ) ;
#176 = CARTESIAN_POINT ( 'NONE',  ( 0.000000000000000000, 0.000000000000000000, 0.000000000000000000 ) ) ;
#177 = AXIS2_PLACEMENT_3D ( 'NONE', #164, #166, #169 ) ;
#178 = COORDINATED_UNIVERSAL_TIME_OFFSET ( 1, 0, .AHEAD. ) ;
#179 = VERTEX_POINT ( 'NONE', #6 ) ;
#180 = DATE_AND_TIME ( #208, #238 ) ;
#181 = PLANE ( 'NONE',  #31 ) ;
#182 = CLOSED_SHELL ( 'NONE', ( #206, #28, #24, #17, #79, #131, #246 ) ) ;
#183 = DIRECTION ( 'NONE',  ( -1.000000000000000000, 0.000000000000000000, 0.000000000000000000 ) ) ;
#184 = DIRECTION ( 'NONE',  ( 1.000000000000000000, 0.000000000000000000, 0.000000000000000000 ) ) ;
#185 = FACE_OUTER_BOUND ( 'NONE', #156, .T. ) ;
#186 = LINE ( 'NONE', #151, #144 ) ;
#187 = CARTESIAN_POINT ( 'NONE',  ( 11.00000000000000000, 1.347111479062088405E-15, 7.000000000000000000 ) ) ;
#188 =( LENGTH_UNIT ( ) NAMED_UNIT ( * ) SI_UNIT ( .MILLI., .METRE. ) );
#189 = EDGE_CURVE ( 'NONE', #106, #179, #241, .T. ) ;
#190 = ORIENTED_EDGE ( 'NONE', *, *, #200, .F. ) ;
#191 = AXIS2_PLACEMENT_3D ( 'NONE', #170, #222, #80 ) ;
#192 = ORIENTED_EDGE ( 'NONE', *, *, #158, .F. ) ;
#193 = CC_DESIGN_DATE_AND_TIME_ASSIGNMENT ( #30, #15, ( #77 ) ) ;
#194 = PERSON_AND_ORGANIZATION ( #19, #76 ) ;
#195 = ORIENTED_EDGE ( 'NONE', *, *, #211, .F. ) ;
#196 = ADVANCED_BREP_SHAPE_REPRESENTATION ( 'af67', ( #33, #26 ), #63 ) ;
#197 = SHAPE_DEFINITION_REPRESENTATION ( #113, #196 ) ;
#198 = LOCAL_TIME ( 10, 48, 26.00000000000000000, #161 ) ;
#199 = FACE_OUTER_BOUND ( 'NONE', #139, .T. ) ;
#200 = EDGE_CURVE ( 'NONE', #106, #175, #36, .T. ) ;
#201 = LINE ( 'NONE', #41, #55 ) ;
#202 = LOCAL_TIME ( 10, 48, 26.00000000000000000, #178 ) ;
#203 = CYLINDRICAL_SURFACE ( 'NONE', #129, 7.750000000000000000 ) ;
#204 = CYLINDRICAL_SURFACE ( 'NONE', #70, 7.750000000000000000 ) ;
#205 = CARTESIAN_POINT ( 'NONE',  ( -11.00000000000000000, 0.000000000000000000, 0.000000000000000000 ) ) ;
#206 = ADVANCED_FACE ( 'NONE', ( #3 ), #203, .T. ) ;
#207 = APPROVAL_STATUS ( 'not_yet_approved' ) ;
#208 = CALENDAR_DATE ( 2023, 13, 2 ) ;
#209 = CIRCLE ( 'NONE', #191, 7.750000000000000000 ) ;
#210 = ORIENTED_EDGE ( 'NONE', *, *, #237, .F. ) ;
#211 = EDGE_CURVE ( 'NONE', #173, #179, #52, .T. ) ;
#212 = DATE_AND_TIME ( #133, #172 ) ;
#213 = ORIENTED_EDGE ( 'NONE', *, *, #167, .T. ) ;
#214 = PERSON_AND_ORGANIZATION_ROLE ( 'design_supplier' ) ;
#215 = CIRCLE ( 'NONE', #177, 7.750000000000000000 ) ;
#216 = DIRECTION ( 'NONE',  ( -1.000000000000000000, 0.000000000000000000, 0.000000000000000000 ) ) ;
#217 = CARTESIAN_POINT ( 'NONE',  ( 0.000000000000000000, 0.000000000000000000, 7.000000000000000000 ) ) ;
#218 = AXIS2_PLACEMENT_3D ( 'NONE', #217, #81, #216 ) ;
#219 = CARTESIAN_POINT ( 'NONE',  ( -7.750000000000000000, 0.000000000000000000, 250.0000000000000000 ) ) ;
#220 = CC_DESIGN_APPROVAL ( #242, ( #224 ) ) ;
#221 = DIRECTION ( 'NONE',  ( -0.000000000000000000, -0.000000000000000000, -1.000000000000000000 ) ) ;
#222 = DIRECTION ( 'NONE',  ( 0.000000000000000000, 0.000000000000000000, 1.000000000000000000 ) ) ;
#223 = DIRECTION ( 'NONE',  ( 1.000000000000000000, 0.000000000000000000, 0.000000000000000000 ) ) ;
#224 = SECURITY_CLASSIFICATION ( '', '', #115 ) ;
#225 = CARTESIAN_POINT ( 'NONE',  ( 0.000000000000000000, 0.000000000000000000, 7.000000000000000000 ) ) ;
#226 = ORIENTED_EDGE ( 'NONE', *, *, #237, .T. ) ;
#227 = APPROVAL_ROLE ( '' ) ;
#228 = CC_DESIGN_PERSON_AND_ORGANIZATION_ASSIGNMENT ( #53, #254, ( #5 ) ) ;
#229 = EDGE_LOOP ( 'NONE', ( #251, #141, #35, #226 ) ) ;
#230 = APPROVAL_DATE_TIME ( #212, #68 ) ;
#231 = AXIS2_PLACEMENT_3D ( 'NONE', #149, #221, #84 ) ;
#232 = ORIENTED_EDGE ( 'NONE', *, *, #189, .F. ) ;
#233 = APPLICATION_CONTEXT ( 'configuration controlled 3d designs of mechanical parts and assemblies' ) ;
#234 = DIRECTION ( 'NONE',  ( 1.000000000000000000, 0.000000000000000000, 0.000000000000000000 ) ) ;
#235 = DIRECTION ( 'NONE',  ( 0.000000000000000000, 0.000000000000000000, 1.000000000000000000 ) ) ;
#236 = ORIENTED_EDGE ( 'NONE', *, *, #100, .T. ) ;
#237 = EDGE_CURVE ( 'NONE', #96, #11, #9, .T. ) ;
#238 = LOCAL_TIME ( 10, 48, 26.00000000000000000, #117 ) ;
#239 = EDGE_CURVE ( 'NONE', #179, #173, #148, .T. ) ;
#240 = AXIS2_PLACEMENT_3D ( 'NONE', #67, #65, #223 ) ;
#241 = LINE ( 'NONE', #58, #168 ) ;
#242 = APPROVAL ( #207, 'NEURÈENÝ' ) ;
#243 = DIRECTION ( 'NONE',  ( 0.000000000000000000, 0.000000000000000000, 1.000000000000000000 ) ) ;
#244 = DIRECTION ( 'NONE',  ( 0.000000000000000000, 0.000000000000000000, 1.000000000000000000 ) ) ;
#245 = FACE_OUTER_BOUND ( 'NONE', #160, .T. ) ;
#246 = ADVANCED_FACE ( 'NONE', ( #43 ), #25, .T. ) ;
#247 = FACE_OUTER_BOUND ( 'NONE', #229, .T. ) ;
#248 = COORDINATED_UNIVERSAL_TIME_OFFSET ( 1, 0, .AHEAD. ) ;
#249 = ORIENTED_EDGE ( 'NONE', *, *, #150, .F. ) ;
#250 = DIRECTION ( 'NONE',  ( 0.000000000000000000, 0.000000000000000000, 1.000000000000000000 ) ) ;
#251 = ORIENTED_EDGE ( 'NONE', *, *, #46, .F. ) ;
#252 = APPROVAL_STATUS ( 'not_yet_approved' ) ;
#253 = ORIENTED_EDGE ( 'NONE', *, *, #158, .T. ) ;
#254 = PERSON_AND_ORGANIZATION_ROLE ( 'creator' ) ;
#255 = APPROVAL_DATE_TIME ( #180, #242 ) ;
ENDSEC;
END-ISO-10303-21;
