ISO-10303-21;
HEADER;
FILE_DESCRIPTION (( 'STEP AP203' ),
    '1' );
FILE_NAME ('aa88.STEP',
    '2023-02-13T10:40:07',
    ( '' ),
    ( '' ),
    'SwSTEP 2.0',
    'SolidWorks 2019',
    '' );
FILE_SCHEMA (( 'CONFIG_CONTROL_DESIGN' ));
ENDSEC;

DATA;
#1 = PERSON_AND_ORGANIZATION ( #154, #167 ) ;
#2 = PRODUCT_DEFINITION_FORMATION_WITH_SPECIFIED_SOURCE ( 'LIBOVOLNÝ', '', #111, .NOT_KNOWN. ) ;
#3 = SHAPE_DEFINITION_REPRESENTATION ( #72, #4 ) ;
#4 = ADVANCED_BREP_SHAPE_REPRESENTATION ( 'aa88', ( #108, #229 ), #242 ) ;
#5 = DIRECTION ( 'NONE',  ( -1.000000000000000000, 0.000000000000000000, 0.000000000000000000 ) ) ;
#6 = APPROVAL_DATE_TIME ( #141, #186 ) ;
#7 = VERTEX_POINT ( 'NONE', #85 ) ;
#8 = EDGE_CURVE ( 'NONE', #7, #153, #223, .T. ) ;
#9 = DIRECTION ( 'NONE',  ( -0.000000000000000000, -0.000000000000000000, -1.000000000000000000 ) ) ;
#10 = ADVANCED_FACE ( 'NONE', ( #83 ), #201, .T. ) ;
#11 = EDGE_CURVE ( 'NONE', #32, #121, #255, .T. ) ;
#12 = DIRECTION ( 'NONE',  ( 1.000000000000000000, 0.000000000000000000, 0.000000000000000000 ) ) ;
#13 = ORIENTED_EDGE ( 'NONE', *, *, #204, .F. ) ;
#14 = CC_DESIGN_PERSON_AND_ORGANIZATION_ASSIGNMENT ( #238, #39, ( #111 ) ) ;
#15 = ORIENTED_EDGE ( 'NONE', *, *, #152, .T. ) ;
#16 = DIRECTION ( 'NONE',  ( 0.000000000000000000, 0.000000000000000000, 1.000000000000000000 ) ) ;
#17 = PERSON_AND_ORGANIZATION_ROLE ( 'design_supplier' ) ;
#18 = CARTESIAN_POINT ( 'NONE',  ( 0.000000000000000000, 0.000000000000000000, 7.000000000000000000 ) ) ;
#19 = APPROVAL ( #144, 'NEURÈENÝ' ) ;
#20 = DIRECTION ( 'NONE',  ( -0.000000000000000000, -0.000000000000000000, -1.000000000000000000 ) ) ;
#21 = PERSON_AND_ORGANIZATION_ROLE ( 'classification_officer' ) ;
#22 = CYLINDRICAL_SURFACE ( 'NONE', #165, 7.500000000000000000 ) ;
#23 = AXIS2_PLACEMENT_3D ( 'NONE', #120, #73, #31 ) ;
#24 = COORDINATED_UNIVERSAL_TIME_OFFSET ( 1, 0, .AHEAD. ) ;
#25 = ORIENTED_EDGE ( 'NONE', *, *, #11, .F. ) ;
#26 = DIRECTION ( 'NONE',  ( 1.000000000000000000, 0.000000000000000000, -0.000000000000000000 ) ) ;
#27 = VECTOR ( 'NONE', #236, 1000.000000000000000 ) ;
#28 = CC_DESIGN_PERSON_AND_ORGANIZATION_ASSIGNMENT ( #200, #158, ( #2 ) ) ;
#29 = AXIS2_PLACEMENT_3D ( 'NONE', #18, #181, #162 ) ;
#30 = CARTESIAN_POINT ( 'NONE',  ( -7.500000000000000000, 0.000000000000000000, 125.0000000000000000 ) ) ;
#31 = DIRECTION ( 'NONE',  ( 1.000000000000000000, 0.000000000000000000, 0.000000000000000000 ) ) ;
#32 = VERTEX_POINT ( 'NONE', #123 ) ;
#33 = CYLINDRICAL_SURFACE ( 'NONE', #134, 7.500000000000000000 ) ;
#34 = VERTEX_POINT ( 'NONE', #147 ) ;
#35 = ORIENTED_EDGE ( 'NONE', *, *, #8, .T. ) ;
#36 = AXIS2_PLACEMENT_3D ( 'NONE', #48, #64, #26 ) ;
#37 = ORIENTED_EDGE ( 'NONE', *, *, #251, .F. ) ;
#38 = CARTESIAN_POINT ( 'NONE',  ( 7.500000000000000000, 9.184850993605147944E-16, 7.000000000000000000 ) ) ;
#39 = PERSON_AND_ORGANIZATION_ROLE ( 'design_owner' ) ;
#40 = DIRECTION ( 'NONE',  ( -1.000000000000000000, 0.000000000000000000, 0.000000000000000000 ) ) ;
#41 = DATE_AND_TIME ( #59, #44 ) ;
#42 = CARTESIAN_POINT ( 'NONE',  ( 0.000000000000000000, 0.000000000000000000, 0.000000000000000000 ) ) ;
#43 = VECTOR ( 'NONE', #149, 1000.000000000000000 ) ;
#44 = LOCAL_TIME ( 11, 40, 7.000000000000000000, #161 ) ;
#45 = FACE_OUTER_BOUND ( 'NONE', #77, .T. ) ;
#46 = APPROVAL_PERSON_ORGANIZATION ( #54, #186, #131 ) ;
#47 = APPROVAL_ROLE ( '' ) ;
#48 = CARTESIAN_POINT ( 'NONE',  ( 0.000000000000000000, 0.000000000000000000, 125.0000000000000000 ) ) ;
#49 = CC_DESIGN_SECURITY_CLASSIFICATION ( #185, ( #2 ) ) ;
#50 = DIRECTION ( 'NONE',  ( 1.000000000000000000, 0.000000000000000000, -0.000000000000000000 ) ) ;
#51 = DIRECTION ( 'NONE',  ( -0.000000000000000000, -0.000000000000000000, -1.000000000000000000 ) ) ;
#52 = CARTESIAN_POINT ( 'NONE',  ( 0.000000000000000000, 0.000000000000000000, 7.000000000000000000 ) ) ;
#53 = ORIENTED_EDGE ( 'NONE', *, *, #152, .F. ) ;
#54 = PERSON_AND_ORGANIZATION ( #154, #167 ) ;
#55 = CARTESIAN_POINT ( 'NONE',  ( 7.500000000000000000, 9.184850993605147944E-16, 125.0000000000000000 ) ) ;
#56 = ADVANCED_FACE ( 'NONE', ( #45 ), #130, .T. ) ;
#57 = CALENDAR_DATE ( 2023, 13, 2 ) ;
#58 = VERTEX_POINT ( 'NONE', #38 ) ;
#59 = CALENDAR_DATE ( 2023, 13, 2 ) ;
#60 = CARTESIAN_POINT ( 'NONE',  ( -11.00000000000000000, 0.000000000000000000, 0.000000000000000000 ) ) ;
#61 = MECHANICAL_CONTEXT ( 'NONE', #101, 'mechanical' ) ;
#62 = ORIENTED_EDGE ( 'NONE', *, *, #150, .F. ) ;
#63 = PERSON_AND_ORGANIZATION ( #154, #167 ) ;
#64 = DIRECTION ( 'NONE',  ( 0.000000000000000000, 0.000000000000000000, 1.000000000000000000 ) ) ;
#65 = CC_DESIGN_PERSON_AND_ORGANIZATION_ASSIGNMENT ( #124, #17, ( #2 ) ) ;
#66 = AXIS2_PLACEMENT_3D ( 'NONE', #42, #240, #106 ) ;
#67 = CIRCLE ( 'NONE', #23, 7.500000000000000000 ) ;
#68 = AXIS2_PLACEMENT_3D ( 'NONE', #80, #159, #132 ) ;
#69 = DIRECTION ( 'NONE',  ( 0.000000000000000000, 0.000000000000000000, 1.000000000000000000 ) ) ;
#70 = CARTESIAN_POINT ( 'NONE',  ( 0.000000000000000000, 0.000000000000000000, 7.000000000000000000 ) ) ;
#71 = ORIENTED_EDGE ( 'NONE', *, *, #207, .T. ) ;
#72 = PRODUCT_DEFINITION_SHAPE ( 'NONE', 'NONE',  #114 ) ;
#73 = DIRECTION ( 'NONE',  ( 0.000000000000000000, 0.000000000000000000, 1.000000000000000000 ) ) ;
#74 = CIRCLE ( 'NONE', #68, 11.00000000000000000 ) ;
#75 = DIRECTION ( 'NONE',  ( -0.000000000000000000, -0.000000000000000000, -1.000000000000000000 ) ) ;
#76 = AXIS2_PLACEMENT_3D ( 'NONE', #52, #151, #91 ) ;
#77 = EDGE_LOOP ( 'NONE', ( #53, #198, #156, #94 ) ) ;
#78 = APPROVAL ( #100, 'NEURÈENÝ' ) ;
#79 = CALENDAR_DATE ( 2023, 13, 2 ) ;
#80 = CARTESIAN_POINT ( 'NONE',  ( 0.000000000000000000, 0.000000000000000000, 7.000000000000000000 ) ) ;
#81 = PERSON_AND_ORGANIZATION ( #154, #167 ) ;
#82 = AXIS2_PLACEMENT_3D ( 'NONE', #211, #157, #117 ) ;
#83 = FACE_OUTER_BOUND ( 'NONE', #196, .T. ) ;
#84 = EDGE_CURVE ( 'NONE', #58, #233, #95, .T. ) ;
#85 = CARTESIAN_POINT ( 'NONE',  ( -11.00000000000000000, 0.000000000000000000, 7.000000000000000000 ) ) ;
#86 = DIRECTION ( 'NONE',  ( 0.000000000000000000, 0.000000000000000000, 1.000000000000000000 ) ) ;
#87 = CARTESIAN_POINT ( 'NONE',  ( 11.00000000000000000, 1.347111479062088405E-15, 7.000000000000000000 ) ) ;
#88 = CC_DESIGN_APPROVAL ( #186, ( #114 ) ) ;
#89 = AXIS2_PLACEMENT_3D ( 'NONE', #70, #69, #50 ) ;
#90 = ADVANCED_FACE ( 'NONE', ( #145 ), #176, .F. ) ;
#91 = DIRECTION ( 'NONE',  ( 1.000000000000000000, 0.000000000000000000, 0.000000000000000000 ) ) ;
#92 = CARTESIAN_POINT ( 'NONE',  ( 0.000000000000000000, 0.000000000000000000, 125.0000000000000000 ) ) ;
#93 = FACE_OUTER_BOUND ( 'NONE', #203, .T. ) ;
#94 = ORIENTED_EDGE ( 'NONE', *, *, #231, .F. ) ;
#95 = CIRCLE ( 'NONE', #29, 7.500000000000000000 ) ;
#96 = CARTESIAN_POINT ( 'NONE',  ( -7.500000000000000000, 0.000000000000000000, 7.000000000000000000 ) ) ;
#97 = LOCAL_TIME ( 11, 40, 7.000000000000000000, #197 ) ;
#98 = DATE_AND_TIME ( #57, #97 ) ;
#99 = EDGE_LOOP ( 'NONE', ( #190, #71 ) ) ;
#100 = APPROVAL_STATUS ( 'not_yet_approved' ) ;
#101 = APPLICATION_CONTEXT ( 'configuration controlled 3d designs of mechanical parts and assemblies' ) ;
#102 = ORIENTED_EDGE ( 'NONE', *, *, #164, .T. ) ;
#103 = ORIENTED_EDGE ( 'NONE', *, *, #164, .F. ) ;
#104 = CIRCLE ( 'NONE', #76, 7.500000000000000000 ) ;
#105 = CARTESIAN_POINT ( 'NONE',  ( 0.000000000000000000, 0.000000000000000000, 0.000000000000000000 ) ) ;
#106 = DIRECTION ( 'NONE',  ( 1.000000000000000000, 0.000000000000000000, 0.000000000000000000 ) ) ;
#107 = ORIENTED_EDGE ( 'NONE', *, *, #160, .T. ) ;
#108 = MANIFOLD_SOLID_BREP ( 'Pøidat vysunutím3', #228 ) ;
#109 = DIRECTION ( 'NONE',  ( -0.000000000000000000, -0.000000000000000000, -1.000000000000000000 ) ) ;
#110 = VECTOR ( 'NONE', #109, 1000.000000000000000 ) ;
#111 = PRODUCT ( 'aa88', 'aa88', '', ( #61 ) ) ;
#112 = CARTESIAN_POINT ( 'NONE',  ( 0.000000000000000000, 0.000000000000000000, 0.000000000000000000 ) ) ;
#113 = AXIS2_PLACEMENT_3D ( 'NONE', #163, #215, #217 ) ;
#114 = PRODUCT_DEFINITION ( 'NEZNÁMÝ', '', #2, #206 ) ;
#115 = APPLICATION_PROTOCOL_DEFINITION ( 'international standard', 'config_control_design', 1994, #101 ) ;
#116 = EDGE_LOOP ( 'NONE', ( #194, #107, #248, #103 ) ) ;
#117 = DIRECTION ( 'NONE',  ( 1.000000000000000000, 0.000000000000000000, 0.000000000000000000 ) ) ;
#118 = ORIENTED_EDGE ( 'NONE', *, *, #160, .F. ) ;
#119 = ADVANCED_FACE ( 'NONE', ( #180 ), #22, .T. ) ;
#120 = CARTESIAN_POINT ( 'NONE',  ( 0.000000000000000000, 0.000000000000000000, 125.0000000000000000 ) ) ;
#121 = VERTEX_POINT ( 'NONE', #60 ) ;
#122 = APPROVAL_STATUS ( 'not_yet_approved' ) ;
#123 = CARTESIAN_POINT ( 'NONE',  ( 11.00000000000000000, 1.347111479062088405E-15, 0.000000000000000000 ) ) ;
#124 = PERSON_AND_ORGANIZATION ( #154, #167 ) ;
#125 = CARTESIAN_POINT ( 'NONE',  ( 11.00000000000000000, 1.347111479062088405E-15, 7.000000000000000000 ) ) ;
#126 = AXIS2_PLACEMENT_3D ( 'NONE', #178, #239, #219 ) ;
#127 = APPROVAL_ROLE ( '' ) ;
#128 = LINE ( 'NONE', #125, #43 ) ;
#129 = AXIS2_PLACEMENT_3D ( 'NONE', #112, #16, #12 ) ;
#130 = CYLINDRICAL_SURFACE ( 'NONE', #140, 11.00000000000000000 ) ;
#131 = APPROVAL_ROLE ( '' ) ;
#132 = DIRECTION ( 'NONE',  ( 1.000000000000000000, 0.000000000000000000, 0.000000000000000000 ) ) ;
#133 = APPLICATION_CONTEXT ( 'configuration controlled 3d designs of mechanical parts and assemblies' ) ;
#134 = AXIS2_PLACEMENT_3D ( 'NONE', #92, #75, #225 ) ;
#135 = PLANE ( 'NONE',  #89 ) ;
#136 = ORIENTED_EDGE ( 'NONE', *, *, #231, .T. ) ;
#137 = CC_DESIGN_APPROVAL ( #78, ( #185 ) ) ;
#138 =( NAMED_UNIT ( * ) PLANE_ANGLE_UNIT ( ) SI_UNIT ( $, .RADIAN. ) );
#139 = ORIENTED_EDGE ( 'NONE', *, *, #84, .F. ) ;
#140 = AXIS2_PLACEMENT_3D ( 'NONE', #182, #9, #40 ) ;
#141 = DATE_AND_TIME ( #146, #199 ) ;
#142 = LINE ( 'NONE', #224, #110 ) ;
#143 = ADVANCED_FACE ( 'NONE', ( #166 ), #254, .T. ) ;
#144 = APPROVAL_STATUS ( 'not_yet_approved' ) ;
#145 = FACE_OUTER_BOUND ( 'NONE', #205, .T. ) ;
#146 = CALENDAR_DATE ( 2023, 13, 2 ) ;
#147 = CARTESIAN_POINT ( 'NONE',  ( 7.500000000000000000, 9.184850993605147944E-16, 125.0000000000000000 ) ) ;
#148 = CALENDAR_DATE ( 2023, 13, 2 ) ;
#149 = DIRECTION ( 'NONE',  ( -0.000000000000000000, -0.000000000000000000, -1.000000000000000000 ) ) ;
#150 = EDGE_CURVE ( 'NONE', #153, #32, #128, .T. ) ;
#151 = DIRECTION ( 'NONE',  ( 0.000000000000000000, 0.000000000000000000, 1.000000000000000000 ) ) ;
#152 = EDGE_CURVE ( 'NONE', #153, #7, #74, .T. ) ;
#153 = VERTEX_POINT ( 'NONE', #87 ) ;
#154 = PERSON ( 'NEURÈENÝ', 'NEURÈENÝ', 'NEURÈENÝ', ('NEURÈENÝ'), ('NEURÈENÝ'), ('NEURÈENÝ') ) ;
#155 = LOCAL_TIME ( 11, 40, 7.000000000000000000, #218 ) ;
#156 = ORIENTED_EDGE ( 'NONE', *, *, #11, .T. ) ;
#157 = DIRECTION ( 'NONE',  ( 0.000000000000000000, 0.000000000000000000, 1.000000000000000000 ) ) ;
#158 = PERSON_AND_ORGANIZATION_ROLE ( 'creator' ) ;
#159 = DIRECTION ( 'NONE',  ( 0.000000000000000000, 0.000000000000000000, 1.000000000000000000 ) ) ;
#160 = EDGE_CURVE ( 'NONE', #34, #58, #168, .T. ) ;
#161 = COORDINATED_UNIVERSAL_TIME_OFFSET ( 1, 0, .AHEAD. ) ;
#162 = DIRECTION ( 'NONE',  ( 1.000000000000000000, 0.000000000000000000, 0.000000000000000000 ) ) ;
#163 = CARTESIAN_POINT ( 'NONE',  ( 0.000000000000000000, 0.000000000000000000, 7.000000000000000000 ) ) ;
#164 = EDGE_CURVE ( 'NONE', #173, #233, #142, .T. ) ;
#165 = AXIS2_PLACEMENT_3D ( 'NONE', #222, #20, #5 ) ;
#166 = FACE_OUTER_BOUND ( 'NONE', #99, .T. ) ;
#167 = ORGANIZATION ( 'NEURÈENÝ', 'NEURÈENÝ', '' ) ;
#168 = LINE ( 'NONE', #55, #27 ) ;
#169 = CC_DESIGN_PERSON_AND_ORGANIZATION_ASSIGNMENT ( #1, #21, ( #185 ) ) ;
#170 = CARTESIAN_POINT ( 'NONE',  ( 0.000000000000000000, 0.000000000000000000, 0.000000000000000000 ) ) ;
#171 = CARTESIAN_POINT ( 'NONE',  ( -11.00000000000000000, 0.000000000000000000, 7.000000000000000000 ) ) ;
#172 = LOCAL_TIME ( 11, 40, 7.000000000000000000, #24 ) ;
#173 = VERTEX_POINT ( 'NONE', #30 ) ;
#174 = DATE_AND_TIME ( #148, #155 ) ;
#175 = DIRECTION ( 'NONE',  ( 1.000000000000000000, 0.000000000000000000, 0.000000000000000000 ) ) ;
#176 = PLANE ( 'NONE',  #245 ) ;
#177 = PERSON_AND_ORGANIZATION_ROLE ( 'creator' ) ;
#178 = CARTESIAN_POINT ( 'NONE',  ( 0.000000000000000000, 0.000000000000000000, 7.000000000000000000 ) ) ;
#179 = DIRECTION ( 'NONE',  ( 0.000000000000000000, 0.000000000000000000, 1.000000000000000000 ) ) ;
#180 = FACE_OUTER_BOUND ( 'NONE', #227, .T. ) ;
#181 = DIRECTION ( 'NONE',  ( 0.000000000000000000, 0.000000000000000000, 1.000000000000000000 ) ) ;
#182 = CARTESIAN_POINT ( 'NONE',  ( 0.000000000000000000, 0.000000000000000000, 7.000000000000000000 ) ) ;
#183 = EDGE_CURVE ( 'NONE', #173, #34, #184, .T. ) ;
#184 = CIRCLE ( 'NONE', #82, 7.500000000000000000 ) ;
#185 = SECURITY_CLASSIFICATION ( '', '', #235 ) ;
#186 = APPROVAL ( #122, 'NEURÈENÝ' ) ;
#187 = ADVANCED_FACE ( 'NONE', ( #189, #93 ), #135, .T. ) ;
#188 = ORIENTED_EDGE ( 'NONE', *, *, #251, .T. ) ;
#189 = FACE_BOUND ( 'NONE', #210, .T. ) ;
#190 = ORIENTED_EDGE ( 'NONE', *, *, #183, .T. ) ;
#191 = ORIENTED_EDGE ( 'NONE', *, *, #8, .F. ) ;
#192 = ADVANCED_FACE ( 'NONE', ( #232 ), #33, .T. ) ;
#193 = DATE_AND_TIME ( #79, #172 ) ;
#194 = ORIENTED_EDGE ( 'NONE', *, *, #207, .F. ) ;
#195 = APPROVAL_DATE_TIME ( #98, #78 ) ;
#196 = EDGE_LOOP ( 'NONE', ( #62, #191, #136, #188 ) ) ;
#197 = COORDINATED_UNIVERSAL_TIME_OFFSET ( 1, 0, .AHEAD. ) ;
#198 = ORIENTED_EDGE ( 'NONE', *, *, #150, .T. ) ;
#199 = LOCAL_TIME ( 11, 40, 7.000000000000000000, #253 ) ;
#200 = PERSON_AND_ORGANIZATION ( #154, #167 ) ;
#201 = CYLINDRICAL_SURFACE ( 'NONE', #113, 11.00000000000000000 ) ;
#202 = PERSON_AND_ORGANIZATION ( #154, #167 ) ;
#203 = EDGE_LOOP ( 'NONE', ( #35, #15 ) ) ;
#204 = EDGE_CURVE ( 'NONE', #233, #58, #104, .T. ) ;
#205 = EDGE_LOOP ( 'NONE', ( #37, #25 ) ) ;
#206 = DESIGN_CONTEXT ( 'detailed design', #133, 'design' ) ;
#207 = EDGE_CURVE ( 'NONE', #34, #173, #67, .T. ) ;
#208 = LINE ( 'NONE', #171, #230 ) ;
#209 = CC_DESIGN_APPROVAL ( #19, ( #2 ) ) ;
#210 = EDGE_LOOP ( 'NONE', ( #13, #139 ) ) ;
#211 = CARTESIAN_POINT ( 'NONE',  ( 0.000000000000000000, 0.000000000000000000, 125.0000000000000000 ) ) ;
#212 = CC_DESIGN_DATE_AND_TIME_ASSIGNMENT ( #174, #213, ( #114 ) ) ;
#213 = DATE_TIME_ROLE ( 'creation_date' ) ;
#214 = ORIENTED_EDGE ( 'NONE', *, *, #183, .F. ) ;
#215 = DIRECTION ( 'NONE',  ( -0.000000000000000000, -0.000000000000000000, -1.000000000000000000 ) ) ;
#216 = DATE_TIME_ROLE ( 'classification_date' ) ;
#217 = DIRECTION ( 'NONE',  ( -1.000000000000000000, 0.000000000000000000, 0.000000000000000000 ) ) ;
#218 = COORDINATED_UNIVERSAL_TIME_OFFSET ( 1, 0, .AHEAD. ) ;
#219 = DIRECTION ( 'NONE',  ( 1.000000000000000000, 0.000000000000000000, 0.000000000000000000 ) ) ;
#220 = APPROVAL_PERSON_ORGANIZATION ( #63, #78, #47 ) ;
#221 = APPROVAL_DATE_TIME ( #193, #19 ) ;
#222 = CARTESIAN_POINT ( 'NONE',  ( 0.000000000000000000, 0.000000000000000000, 125.0000000000000000 ) ) ;
#223 = CIRCLE ( 'NONE', #126, 11.00000000000000000 ) ;
#224 = CARTESIAN_POINT ( 'NONE',  ( -7.500000000000000000, 0.000000000000000000, 125.0000000000000000 ) ) ;
#225 = DIRECTION ( 'NONE',  ( -1.000000000000000000, 0.000000000000000000, 0.000000000000000000 ) ) ;
#226 =( NAMED_UNIT ( * ) SI_UNIT ( $, .STERADIAN. ) SOLID_ANGLE_UNIT ( ) );
#227 = EDGE_LOOP ( 'NONE', ( #118, #214, #102, #252 ) ) ;
#228 = CLOSED_SHELL ( 'NONE', ( #192, #56, #10, #187, #90, #119, #143 ) ) ;
#229 = AXIS2_PLACEMENT_3D ( 'NONE', #170, #179, #175 ) ;
#230 = VECTOR ( 'NONE', #51, 1000.000000000000000 ) ;
#231 = EDGE_CURVE ( 'NONE', #7, #121, #208, .T. ) ;
#232 = FACE_OUTER_BOUND ( 'NONE', #116, .T. ) ;
#233 = VERTEX_POINT ( 'NONE', #96 ) ;
#234 = APPLICATION_PROTOCOL_DEFINITION ( 'international standard', 'config_control_design', 1994, #133 ) ;
#235 = SECURITY_CLASSIFICATION_LEVEL ( 'unclassified' ) ;
#236 = DIRECTION ( 'NONE',  ( -0.000000000000000000, -0.000000000000000000, -1.000000000000000000 ) ) ;
#237 = CC_DESIGN_DATE_AND_TIME_ASSIGNMENT ( #41, #216, ( #185 ) ) ;
#238 = PERSON_AND_ORGANIZATION ( #154, #167 ) ;
#239 = DIRECTION ( 'NONE',  ( 0.000000000000000000, 0.000000000000000000, 1.000000000000000000 ) ) ;
#240 = DIRECTION ( 'NONE',  ( 0.000000000000000000, 0.000000000000000000, 1.000000000000000000 ) ) ;
#241 = DIRECTION ( 'NONE',  ( 1.000000000000000000, 0.000000000000000000, -0.000000000000000000 ) ) ;
#242 =( GEOMETRIC_REPRESENTATION_CONTEXT ( 3 ) GLOBAL_UNCERTAINTY_ASSIGNED_CONTEXT ( ( #249 ) ) GLOBAL_UNIT_ASSIGNED_CONTEXT ( ( #250, #138, #226 ) ) REPRESENTATION_CONTEXT ( 'NONE', 'WORKASPACE' ) );
#243 = CIRCLE ( 'NONE', #129, 11.00000000000000000 ) ;
#244 = PRODUCT_RELATED_PRODUCT_CATEGORY ( 'detail', '', ( #111 ) ) ;
#245 = AXIS2_PLACEMENT_3D ( 'NONE', #105, #86, #241 ) ;
#246 = APPROVAL_PERSON_ORGANIZATION ( #81, #19, #127 ) ;
#247 = CC_DESIGN_PERSON_AND_ORGANIZATION_ASSIGNMENT ( #202, #177, ( #114 ) ) ;
#248 = ORIENTED_EDGE ( 'NONE', *, *, #84, .T. ) ;
#249 = UNCERTAINTY_MEASURE_WITH_UNIT (LENGTH_MEASURE( 1.000000000000000082E-05 ), #250, 'distance_accuracy_value', 'NONE');
#250 =( LENGTH_UNIT ( ) NAMED_UNIT ( * ) SI_UNIT ( .MILLI., .METRE. ) );
#251 = EDGE_CURVE ( 'NONE', #121, #32, #243, .T. ) ;
#252 = ORIENTED_EDGE ( 'NONE', *, *, #204, .T. ) ;
#253 = COORDINATED_UNIVERSAL_TIME_OFFSET ( 1, 0, .AHEAD. ) ;
#254 = PLANE ( 'NONE',  #36 ) ;
#255 = CIRCLE ( 'NONE', #66, 11.00000000000000000 ) ;
ENDSEC;
END-ISO-10303-21;
