ISO-10303-21;
HEADER;
FILE_DESCRIPTION (( 'STEP AP203' ),
    '1' );
FILE_NAME ('0030.STEP',
    '2023-02-13T16:10:42',
    ( '' ),
    ( '' ),
    'SwSTEP 2.0',
    'SolidWorks 2019',
    '' );
FILE_SCHEMA (( 'CONFIG_CONTROL_DESIGN' ));
ENDSEC;

DATA;
#1 = APPLICATION_PROTOCOL_DEFINITION ( 'international standard', 'config_control_design', 1994, #8 ) ;
#2 = PERSON_AND_ORGANIZATION_ROLE ( 'classification_officer' ) ;
#3 = AXIS2_PLACEMENT_3D ( 'NONE', #33, #50, #74 ) ;
#4 = FACE_OUTER_BOUND ( 'NONE', #174, .T. ) ;
#5 = DIRECTION ( 'NONE',  ( 1.000000000000000000, 0.000000000000000000, 0.000000000000000000 ) ) ;
#6 = ORIENTED_EDGE ( 'NONE', *, *, #21, .T. ) ;
#7 = COORDINATED_UNIVERSAL_TIME_OFFSET ( 1, 0, .AHEAD. ) ;
#8 = APPLICATION_CONTEXT ( 'configuration controlled 3d designs of mechanical parts and assemblies' ) ;
#9 = DIRECTION ( 'NONE',  ( 0.000000000000000000, 0.000000000000000000, 1.000000000000000000 ) ) ;
#10 = PERSON ( 'NEURÈENÝ', 'NEURÈENÝ', 'NEURÈENÝ', ('NEURÈENÝ'), ('NEURÈENÝ'), ('NEURÈENÝ') ) ;
#11 = ADVANCED_FACE ( 'NONE', ( #213 ), #180, .T. ) ;
#12 = CARTESIAN_POINT ( 'NONE',  ( 0.000000000000000000, 0.000000000000000000, 0.000000000000000000 ) ) ;
#13 = DIRECTION ( 'NONE',  ( -0.000000000000000000, -0.000000000000000000, -1.000000000000000000 ) ) ;
#14 = AXIS2_PLACEMENT_3D ( 'NONE', #73, #96, #52 ) ;
#15 = EDGE_LOOP ( 'NONE', ( #246, #131 ) ) ;
#16 = DIRECTION ( 'NONE',  ( 0.000000000000000000, 0.000000000000000000, 1.000000000000000000 ) ) ;
#17 = ORIENTED_EDGE ( 'NONE', *, *, #124, .F. ) ;
#18 = ORIENTED_EDGE ( 'NONE', *, *, #71, .F. ) ;
#19 = CALENDAR_DATE ( 2023, 13, 2 ) ;
#20 = PERSON_AND_ORGANIZATION ( #10, #116 ) ;
#21 = EDGE_CURVE ( 'NONE', #155, #94, #117, .T. ) ;
#22 = APPROVAL_DATE_TIME ( #159, #31 ) ;
#23 = EDGE_CURVE ( 'NONE', #69, #172, #84, .T. ) ;
#24 = CARTESIAN_POINT ( 'NONE',  ( 0.000000000000000000, 0.000000000000000000, 3.000000000000000000 ) ) ;
#25 = COORDINATED_UNIVERSAL_TIME_OFFSET ( 1, 0, .AHEAD. ) ;
#26 = PERSON_AND_ORGANIZATION ( #10, #116 ) ;
#27 = DIRECTION ( 'NONE',  ( 1.000000000000000000, 0.000000000000000000, 0.000000000000000000 ) ) ;
#28 = APPROVAL_DATE_TIME ( #61, #163 ) ;
#29 = CARTESIAN_POINT ( 'NONE',  ( -2.000000000000000000, 0.000000000000000000, 3.000000000000000000 ) ) ;
#30 = ORIENTED_EDGE ( 'NONE', *, *, #23, .F. ) ;
#31 = APPROVAL ( #72, 'NEURÈENÝ' ) ;
#32 = CARTESIAN_POINT ( 'NONE',  ( -4.000000000000000000, 0.000000000000000000, 3.000000000000000000 ) ) ;
#33 = CARTESIAN_POINT ( 'NONE',  ( 0.000000000000000000, 0.000000000000000000, 125.0000000000000000 ) ) ;
#34 =( NAMED_UNIT ( * ) PLANE_ANGLE_UNIT ( ) SI_UNIT ( $, .RADIAN. ) );
#35 = DESIGN_CONTEXT ( 'detailed design', #239, 'design' ) ;
#36 = DIRECTION ( 'NONE',  ( 1.000000000000000000, 0.000000000000000000, 0.000000000000000000 ) ) ;
#37 = EDGE_CURVE ( 'NONE', #172, #69, #152, .T. ) ;
#38 = PRODUCT_DEFINITION_FORMATION_WITH_SPECIFIED_SOURCE ( 'LIBOVOLNÝ', '', #168, .NOT_KNOWN. ) ;
#39 = FACE_BOUND ( 'NONE', #251, .T. ) ;
#40 = ORIENTED_EDGE ( 'NONE', *, *, #49, .T. ) ;
#41 = FACE_OUTER_BOUND ( 'NONE', #43, .T. ) ;
#42 = ORIENTED_EDGE ( 'NONE', *, *, #219, .T. ) ;
#43 = EDGE_LOOP ( 'NONE', ( #92, #18, #42, #40 ) ) ;
#44 = CC_DESIGN_PERSON_AND_ORGANIZATION_ASSIGNMENT ( #20, #101, ( #168 ) ) ;
#45 = CARTESIAN_POINT ( 'NONE',  ( 4.000000000000000000, 4.898587196589412829E-16, 3.000000000000000000 ) ) ;
#46 = CIRCLE ( 'NONE', #234, 2.000000000000000000 ) ;
#47 = ORIENTED_EDGE ( 'NONE', *, *, #134, .T. ) ;
#48 =( LENGTH_UNIT ( ) NAMED_UNIT ( * ) SI_UNIT ( .MILLI., .METRE. ) );
#49 = EDGE_CURVE ( 'NONE', #173, #68, #243, .T. ) ;
#50 = DIRECTION ( 'NONE',  ( -0.000000000000000000, -0.000000000000000000, -1.000000000000000000 ) ) ;
#51 = DATE_AND_TIME ( #77, #187 ) ;
#52 = DIRECTION ( 'NONE',  ( 1.000000000000000000, 0.000000000000000000, 0.000000000000000000 ) ) ;
#53 = LOCAL_TIME ( 17, 10, 42.00000000000000000, #25 ) ;
#54 = SECURITY_CLASSIFICATION ( '', '', #145 ) ;
#55 = PERSON_AND_ORGANIZATION_ROLE ( 'creator' ) ;
#56 = CALENDAR_DATE ( 2023, 13, 2 ) ;
#57 = DIRECTION ( 'NONE',  ( 0.000000000000000000, 0.000000000000000000, 1.000000000000000000 ) ) ;
#58 = AXIS2_PLACEMENT_3D ( 'NONE', #167, #9, #81 ) ;
#59 = DIRECTION ( 'NONE',  ( 0.000000000000000000, 0.000000000000000000, 1.000000000000000000 ) ) ;
#60 = APPROVAL_PERSON_ORGANIZATION ( #137, #242, #118 ) ;
#61 = DATE_AND_TIME ( #166, #158 ) ;
#62 = DIRECTION ( 'NONE',  ( -0.000000000000000000, -0.000000000000000000, -1.000000000000000000 ) ) ;
#63 = ORIENTED_EDGE ( 'NONE', *, *, #230, .F. ) ;
#64 = FACE_OUTER_BOUND ( 'NONE', #15, .T. ) ;
#65 = CARTESIAN_POINT ( 'NONE',  ( 0.000000000000000000, 0.000000000000000000, 125.0000000000000000 ) ) ;
#66 = CC_DESIGN_PERSON_AND_ORGANIZATION_ASSIGNMENT ( #235, #55, ( #115 ) ) ;
#67 = CC_DESIGN_APPROVAL ( #242, ( #38 ) ) ;
#68 = VERTEX_POINT ( 'NONE', #190 ) ;
#69 = VERTEX_POINT ( 'NONE', #108 ) ;
#70 = CARTESIAN_POINT ( 'NONE',  ( 0.000000000000000000, 0.000000000000000000, 3.000000000000000000 ) ) ;
#71 = EDGE_CURVE ( 'NONE', #99, #250, #90, .T. ) ;
#72 = APPROVAL_STATUS ( 'not_yet_approved' ) ;
#73 = CARTESIAN_POINT ( 'NONE',  ( 0.000000000000000000, 0.000000000000000000, 125.0000000000000000 ) ) ;
#74 = DIRECTION ( 'NONE',  ( -1.000000000000000000, 0.000000000000000000, 0.000000000000000000 ) ) ;
#75 = CARTESIAN_POINT ( 'NONE',  ( 0.000000000000000000, 0.000000000000000000, 0.000000000000000000 ) ) ;
#76 = APPLICATION_PROTOCOL_DEFINITION ( 'international standard', 'config_control_design', 1994, #239 ) ;
#77 = CALENDAR_DATE ( 2023, 13, 2 ) ;
#78 = APPROVAL_STATUS ( 'not_yet_approved' ) ;
#79 = CYLINDRICAL_SURFACE ( 'NONE', #238, 4.000000000000000000 ) ;
#80 = PERSON_AND_ORGANIZATION ( #10, #116 ) ;
#81 = DIRECTION ( 'NONE',  ( 1.000000000000000000, 0.000000000000000000, -0.000000000000000000 ) ) ;
#82 = ADVANCED_FACE ( 'NONE', ( #39, #64 ), #126, .T. ) ;
#83 = APPROVAL_ROLE ( '' ) ;
#84 = CIRCLE ( 'NONE', #255, 2.000000000000000000 ) ;
#85 = LINE ( 'NONE', #203, #132 ) ;
#86 = ORIENTED_EDGE ( 'NONE', *, *, #134, .F. ) ;
#87 = LINE ( 'NONE', #144, #211 ) ;
#88 = ORIENTED_EDGE ( 'NONE', *, *, #236, .T. ) ;
#89 = DIRECTION ( 'NONE',  ( -1.000000000000000000, 0.000000000000000000, 0.000000000000000000 ) ) ;
#90 = CIRCLE ( 'NONE', #122, 4.000000000000000000 ) ;
#91 = CC_DESIGN_DATE_AND_TIME_ASSIGNMENT ( #51, #141, ( #115 ) ) ;
#92 = ORIENTED_EDGE ( 'NONE', *, *, #236, .F. ) ;
#93 = CC_DESIGN_SECURITY_CLASSIFICATION ( #54, ( #38 ) ) ;
#94 = VERTEX_POINT ( 'NONE', #121 ) ;
#95 = DIRECTION ( 'NONE',  ( 0.000000000000000000, 0.000000000000000000, 1.000000000000000000 ) ) ;
#96 = DIRECTION ( 'NONE',  ( 0.000000000000000000, 0.000000000000000000, 1.000000000000000000 ) ) ;
#97 = LINE ( 'NONE', #136, #194 ) ;
#98 = DIRECTION ( 'NONE',  ( 0.000000000000000000, 0.000000000000000000, 1.000000000000000000 ) ) ;
#99 = VERTEX_POINT ( 'NONE', #146 ) ;
#100 = COORDINATED_UNIVERSAL_TIME_OFFSET ( 1, 0, .AHEAD. ) ;
#101 = PERSON_AND_ORGANIZATION_ROLE ( 'design_owner' ) ;
#102 = PRODUCT_RELATED_PRODUCT_CATEGORY ( 'detail', '', ( #168 ) ) ;
#103 = EDGE_LOOP ( 'NONE', ( #86, #210, #192, #205 ) ) ;
#104 = PERSON_AND_ORGANIZATION_ROLE ( 'design_supplier' ) ;
#105 = DIRECTION ( 'NONE',  ( -0.000000000000000000, -0.000000000000000000, -1.000000000000000000 ) ) ;
#106 = ORIENTED_EDGE ( 'NONE', *, *, #23, .T. ) ;
#107 = CALENDAR_DATE ( 2023, 13, 2 ) ;
#108 = CARTESIAN_POINT ( 'NONE',  ( 2.000000000000000000, 2.449293598294705921E-16, 3.000000000000000000 ) ) ;
#109 = CC_DESIGN_APPROVAL ( #31, ( #115 ) ) ;
#110 = CARTESIAN_POINT ( 'NONE',  ( 0.000000000000000000, 0.000000000000000000, 0.000000000000000000 ) ) ;
#111 = DIRECTION ( 'NONE',  ( 0.000000000000000000, 0.000000000000000000, 1.000000000000000000 ) ) ;
#112 = EDGE_LOOP ( 'NONE', ( #129, #254 ) ) ;
#113 = AXIS2_PLACEMENT_3D ( 'NONE', #70, #135, #5 ) ;
#114 = CARTESIAN_POINT ( 'NONE',  ( 0.000000000000000000, 0.000000000000000000, 125.0000000000000000 ) ) ;
#115 = PRODUCT_DEFINITION ( 'NEZNÁMÝ', '', #38, #35 ) ;
#116 = ORGANIZATION ( 'NEURÈENÝ', 'NEURÈENÝ', '' ) ;
#117 = CIRCLE ( 'NONE', #14, 2.000000000000000000 ) ;
#118 = APPROVAL_ROLE ( '' ) ;
#119 = ADVANCED_FACE ( 'NONE', ( #209 ), #128, .F. ) ;
#120 = CIRCLE ( 'NONE', #127, 4.000000000000000000 ) ;
#121 = CARTESIAN_POINT ( 'NONE',  ( 2.000000000000000000, 2.449293598294705921E-16, 125.0000000000000000 ) ) ;
#122 = AXIS2_PLACEMENT_3D ( 'NONE', #228, #125, #27 ) ;
#123 = PERSON_AND_ORGANIZATION ( #10, #116 ) ;
#124 = EDGE_CURVE ( 'NONE', #155, #172, #87, .T. ) ;
#125 = DIRECTION ( 'NONE',  ( 0.000000000000000000, 0.000000000000000000, 1.000000000000000000 ) ) ;
#126 = PLANE ( 'NONE',  #182 ) ;
#127 = AXIS2_PLACEMENT_3D ( 'NONE', #175, #16, #248 ) ;
#128 = PLANE ( 'NONE',  #58 ) ;
#129 = ORIENTED_EDGE ( 'NONE', *, *, #49, .F. ) ;
#130 = UNCERTAINTY_MEASURE_WITH_UNIT (LENGTH_MEASURE( 1.000000000000000082E-05 ), #48, 'distance_accuracy_value', 'NONE');
#131 = ORIENTED_EDGE ( 'NONE', *, *, #230, .T. ) ;
#132 = VECTOR ( 'NONE', #171, 1000.000000000000000 ) ;
#133 = DIRECTION ( 'NONE',  ( 1.000000000000000000, 0.000000000000000000, -0.000000000000000000 ) ) ;
#134 = EDGE_CURVE ( 'NONE', #94, #69, #85, .T. ) ;
#135 = DIRECTION ( 'NONE',  ( 0.000000000000000000, 0.000000000000000000, 1.000000000000000000 ) ) ;
#136 = CARTESIAN_POINT ( 'NONE',  ( 4.000000000000000000, 4.898587196589412829E-16, 3.000000000000000000 ) ) ;
#137 = PERSON_AND_ORGANIZATION ( #10, #116 ) ;
#138 = MANIFOLD_SOLID_BREP ( 'Pøidat vysunutím3', #208 ) ;
#139 = CARTESIAN_POINT ( 'NONE',  ( 0.000000000000000000, 0.000000000000000000, 3.000000000000000000 ) ) ;
#140 = CC_DESIGN_PERSON_AND_ORGANIZATION_ASSIGNMENT ( #26, #206, ( #38 ) ) ;
#141 = DATE_TIME_ROLE ( 'creation_date' ) ;
#142 =( GEOMETRIC_REPRESENTATION_CONTEXT ( 3 ) GLOBAL_UNCERTAINTY_ASSIGNED_CONTEXT ( ( #130 ) ) GLOBAL_UNIT_ASSIGNED_CONTEXT ( ( #48, #34, #216 ) ) REPRESENTATION_CONTEXT ( 'NONE', 'WORKASPACE' ) );
#143 = ADVANCED_FACE ( 'NONE', ( #41 ), #245, .T. ) ;
#144 = CARTESIAN_POINT ( 'NONE',  ( -2.000000000000000000, 0.000000000000000000, 125.0000000000000000 ) ) ;
#145 = SECURITY_CLASSIFICATION_LEVEL ( 'unclassified' ) ;
#146 = CARTESIAN_POINT ( 'NONE',  ( -4.000000000000000000, 0.000000000000000000, 3.000000000000000000 ) ) ;
#147 = DIRECTION ( 'NONE',  ( 1.000000000000000000, 0.000000000000000000, 0.000000000000000000 ) ) ;
#148 = APPROVAL_PERSON_ORGANIZATION ( #80, #163, #83 ) ;
#149 = CARTESIAN_POINT ( 'NONE',  ( -4.000000000000000000, 0.000000000000000000, 0.000000000000000000 ) ) ;
#150 = CC_DESIGN_PERSON_AND_ORGANIZATION_ASSIGNMENT ( #200, #104, ( #38 ) ) ;
#151 = ORIENTED_EDGE ( 'NONE', *, *, #219, .F. ) ;
#152 = CIRCLE ( 'NONE', #113, 2.000000000000000000 ) ;
#153 = EDGE_LOOP ( 'NONE', ( #6, #226 ) ) ;
#154 = CARTESIAN_POINT ( 'NONE',  ( 0.000000000000000000, 0.000000000000000000, 125.0000000000000000 ) ) ;
#155 = VERTEX_POINT ( 'NONE', #207 ) ;
#156 = ORIENTED_EDGE ( 'NONE', *, *, #233, .F. ) ;
#157 = DIRECTION ( 'NONE',  ( 1.000000000000000000, 0.000000000000000000, 0.000000000000000000 ) ) ;
#158 = LOCAL_TIME ( 17, 10, 42.00000000000000000, #7 ) ;
#159 = DATE_AND_TIME ( #56, #249 ) ;
#160 = DIRECTION ( 'NONE',  ( 0.000000000000000000, 0.000000000000000000, 1.000000000000000000 ) ) ;
#161 = COORDINATED_UNIVERSAL_TIME_OFFSET ( 1, 0, .AHEAD. ) ;
#162 = DIRECTION ( 'NONE',  ( 0.000000000000000000, 0.000000000000000000, 1.000000000000000000 ) ) ;
#163 = APPROVAL ( #78, 'NEURÈENÝ' ) ;
#164 = DATE_AND_TIME ( #19, #176 ) ;
#165 = CARTESIAN_POINT ( 'NONE',  ( 0.000000000000000000, 0.000000000000000000, 3.000000000000000000 ) ) ;
#166 = CALENDAR_DATE ( 2023, 13, 2 ) ;
#167 = CARTESIAN_POINT ( 'NONE',  ( 0.000000000000000000, 0.000000000000000000, 0.000000000000000000 ) ) ;
#168 = PRODUCT ( '0030', '0030', '', ( #198 ) ) ;
#169 = CIRCLE ( 'NONE', #201, 4.000000000000000000 ) ;
#170 = AXIS2_PLACEMENT_3D ( 'NONE', #24, #62, #224 ) ;
#171 = DIRECTION ( 'NONE',  ( -0.000000000000000000, -0.000000000000000000, -1.000000000000000000 ) ) ;
#172 = VERTEX_POINT ( 'NONE', #29 ) ;
#173 = VERTEX_POINT ( 'NONE', #149 ) ;
#174 = EDGE_LOOP ( 'NONE', ( #63, #88, #177, #151 ) ) ;
#175 = CARTESIAN_POINT ( 'NONE',  ( 0.000000000000000000, 0.000000000000000000, 3.000000000000000000 ) ) ;
#176 = LOCAL_TIME ( 17, 10, 42.00000000000000000, #196 ) ;
#177 = ORIENTED_EDGE ( 'NONE', *, *, #183, .T. ) ;
#178 = AXIS2_PLACEMENT_3D ( 'NONE', #65, #229, #89 ) ;
#179 = CC_DESIGN_PERSON_AND_ORGANIZATION_ASSIGNMENT ( #123, #2, ( #54 ) ) ;
#180 = CYLINDRICAL_SURFACE ( 'NONE', #3, 2.000000000000000000 ) ;
#181 = PERSON_AND_ORGANIZATION ( #10, #116 ) ;
#182 = AXIS2_PLACEMENT_3D ( 'NONE', #240, #57, #221 ) ;
#183 = EDGE_CURVE ( 'NONE', #68, #173, #169, .T. ) ;
#184 = ADVANCED_BREP_SHAPE_REPRESENTATION ( '0030', ( #138, #225 ), #142 ) ;
#185 = ADVANCED_FACE ( 'NONE', ( #4 ), #79, .T. ) ;
#186 = DIRECTION ( 'NONE',  ( 1.000000000000000000, 0.000000000000000000, 0.000000000000000000 ) ) ;
#187 = LOCAL_TIME ( 17, 10, 42.00000000000000000, #100 ) ;
#188 = DATE_AND_TIME ( #107, #53 ) ;
#189 = DATE_TIME_ROLE ( 'classification_date' ) ;
#190 = CARTESIAN_POINT ( 'NONE',  ( 4.000000000000000000, 4.898587196589412829E-16, 0.000000000000000000 ) ) ;
#191 = SHAPE_DEFINITION_REPRESENTATION ( #223, #184 ) ;
#192 = ORIENTED_EDGE ( 'NONE', *, *, #124, .T. ) ;
#193 = PLANE ( 'NONE',  #220 ) ;
#194 = VECTOR ( 'NONE', #232, 1000.000000000000000 ) ;
#195 = FACE_OUTER_BOUND ( 'NONE', #231, .T. ) ;
#196 = COORDINATED_UNIVERSAL_TIME_OFFSET ( 1, 0, .AHEAD. ) ;
#197 = ORIENTED_EDGE ( 'NONE', *, *, #37, .F. ) ;
#198 = MECHANICAL_CONTEXT ( 'NONE', #8, 'mechanical' ) ;
#199 = CC_DESIGN_DATE_AND_TIME_ASSIGNMENT ( #188, #189, ( #54 ) ) ;
#200 = PERSON_AND_ORGANIZATION ( #10, #116 ) ;
#201 = AXIS2_PLACEMENT_3D ( 'NONE', #110, #162, #186 ) ;
#202 = ADVANCED_FACE ( 'NONE', ( #253 ), #193, .T. ) ;
#203 = CARTESIAN_POINT ( 'NONE',  ( 2.000000000000000000, 2.449293598294705921E-16, 125.0000000000000000 ) ) ;
#204 = DIRECTION ( 'NONE',  ( -1.000000000000000000, 0.000000000000000000, 0.000000000000000000 ) ) ;
#205 = ORIENTED_EDGE ( 'NONE', *, *, #37, .T. ) ;
#206 = PERSON_AND_ORGANIZATION_ROLE ( 'creator' ) ;
#207 = CARTESIAN_POINT ( 'NONE',  ( -2.000000000000000000, 0.000000000000000000, 125.0000000000000000 ) ) ;
#208 = CLOSED_SHELL ( 'NONE', ( #222, #185, #143, #82, #119, #11, #202 ) ) ;
#209 = FACE_OUTER_BOUND ( 'NONE', #112, .T. ) ;
#210 = ORIENTED_EDGE ( 'NONE', *, *, #21, .F. ) ;
#211 = VECTOR ( 'NONE', #105, 1000.000000000000000 ) ;
#212 = LINE ( 'NONE', #32, #217 ) ;
#213 = FACE_OUTER_BOUND ( 'NONE', #103, .T. ) ;
#214 = APPROVAL_STATUS ( 'not_yet_approved' ) ;
#215 = APPROVAL_PERSON_ORGANIZATION ( #181, #31, #218 ) ;
#216 =( NAMED_UNIT ( * ) SI_UNIT ( $, .STERADIAN. ) SOLID_ANGLE_UNIT ( ) );
#217 = VECTOR ( 'NONE', #13, 1000.000000000000000 ) ;
#218 = APPROVAL_ROLE ( '' ) ;
#219 = EDGE_CURVE ( 'NONE', #99, #173, #212, .T. ) ;
#220 = AXIS2_PLACEMENT_3D ( 'NONE', #114, #111, #133 ) ;
#221 = DIRECTION ( 'NONE',  ( 1.000000000000000000, 0.000000000000000000, -0.000000000000000000 ) ) ;
#222 = ADVANCED_FACE ( 'NONE', ( #195 ), #247, .T. ) ;
#223 = PRODUCT_DEFINITION_SHAPE ( 'NONE', 'NONE',  #115 ) ;
#224 = DIRECTION ( 'NONE',  ( -1.000000000000000000, 0.000000000000000000, 0.000000000000000000 ) ) ;
#225 = AXIS2_PLACEMENT_3D ( 'NONE', #75, #98, #36 ) ;
#226 = ORIENTED_EDGE ( 'NONE', *, *, #233, .T. ) ;
#227 = APPROVAL_DATE_TIME ( #164, #242 ) ;
#228 = CARTESIAN_POINT ( 'NONE',  ( 0.000000000000000000, 0.000000000000000000, 3.000000000000000000 ) ) ;
#229 = DIRECTION ( 'NONE',  ( -0.000000000000000000, -0.000000000000000000, -1.000000000000000000 ) ) ;
#230 = EDGE_CURVE ( 'NONE', #250, #99, #120, .T. ) ;
#231 = EDGE_LOOP ( 'NONE', ( #156, #47, #106, #17 ) ) ;
#232 = DIRECTION ( 'NONE',  ( -0.000000000000000000, -0.000000000000000000, -1.000000000000000000 ) ) ;
#233 = EDGE_CURVE ( 'NONE', #94, #155, #46, .T. ) ;
#234 = AXIS2_PLACEMENT_3D ( 'NONE', #154, #95, #157 ) ;
#235 = PERSON_AND_ORGANIZATION ( #10, #116 ) ;
#236 = EDGE_CURVE ( 'NONE', #250, #68, #97, .T. ) ;
#237 = AXIS2_PLACEMENT_3D ( 'NONE', #12, #59, #147 ) ;
#238 = AXIS2_PLACEMENT_3D ( 'NONE', #165, #241, #204 ) ;
#239 = APPLICATION_CONTEXT ( 'configuration controlled 3d designs of mechanical parts and assemblies' ) ;
#240 = CARTESIAN_POINT ( 'NONE',  ( 0.000000000000000000, 0.000000000000000000, 3.000000000000000000 ) ) ;
#241 = DIRECTION ( 'NONE',  ( -0.000000000000000000, -0.000000000000000000, -1.000000000000000000 ) ) ;
#242 = APPROVAL ( #214, 'NEURÈENÝ' ) ;
#243 = CIRCLE ( 'NONE', #237, 4.000000000000000000 ) ;
#244 = CC_DESIGN_APPROVAL ( #163, ( #54 ) ) ;
#245 = CYLINDRICAL_SURFACE ( 'NONE', #170, 4.000000000000000000 ) ;
#246 = ORIENTED_EDGE ( 'NONE', *, *, #71, .T. ) ;
#247 = CYLINDRICAL_SURFACE ( 'NONE', #178, 2.000000000000000000 ) ;
#248 = DIRECTION ( 'NONE',  ( 1.000000000000000000, 0.000000000000000000, 0.000000000000000000 ) ) ;
#249 = LOCAL_TIME ( 17, 10, 42.00000000000000000, #161 ) ;
#250 = VERTEX_POINT ( 'NONE', #45 ) ;
#251 = EDGE_LOOP ( 'NONE', ( #197, #30 ) ) ;
#252 = DIRECTION ( 'NONE',  ( 1.000000000000000000, 0.000000000000000000, 0.000000000000000000 ) ) ;
#253 = FACE_OUTER_BOUND ( 'NONE', #153, .T. ) ;
#254 = ORIENTED_EDGE ( 'NONE', *, *, #183, .F. ) ;
#255 = AXIS2_PLACEMENT_3D ( 'NONE', #139, #160, #252 ) ;
ENDSEC;
END-ISO-10303-21;
