ISO-10303-21;
HEADER;
FILE_DESCRIPTION (( 'STEP AP203' ),
    '1' );
FILE_NAME ('ab55.STEP',
    '2023-02-13T10:43:58',
    ( '' ),
    ( '' ),
    'SwSTEP 2.0',
    'SolidWorks 2019',
    '' );
FILE_SCHEMA (( 'CONFIG_CONTROL_DESIGN' ));
ENDSEC;

DATA;
#1 = CARTESIAN_POINT ( 'NONE',  ( 0.000000000000000000, 0.000000000000000000, 0.000000000000000000 ) ) ;
#2 = CARTESIAN_POINT ( 'NONE',  ( 11.00000000000000000, 1.347111479062088405E-15, 7.000000000000000000 ) ) ;
#3 = CIRCLE ( 'NONE', #106, 11.00000000000000000 ) ;
#4 = CARTESIAN_POINT ( 'NONE',  ( -7.000000000000000000, 0.000000000000000000, 100.0000000000000000 ) ) ;
#5 = VECTOR ( 'NONE', #129, 1000.000000000000000 ) ;
#6 = CALENDAR_DATE ( 2023, 13, 2 ) ;
#7 = EDGE_CURVE ( 'NONE', #82, #214, #91, .T. ) ;
#8 = EDGE_CURVE ( 'NONE', #114, #20, #128, .T. ) ;
#9 = CARTESIAN_POINT ( 'NONE',  ( 7.000000000000000000, 8.572527594031471218E-16, 7.000000000000000000 ) ) ;
#10 = CC_DESIGN_DATE_AND_TIME_ASSIGNMENT ( #131, #173, ( #121 ) ) ;
#11 = CARTESIAN_POINT ( 'NONE',  ( 0.000000000000000000, 0.000000000000000000, 100.0000000000000000 ) ) ;
#12 = CARTESIAN_POINT ( 'NONE',  ( 0.000000000000000000, 0.000000000000000000, 0.000000000000000000 ) ) ;
#13 = APPROVAL ( #210, 'NEURÈENÝ' ) ;
#14 = CALENDAR_DATE ( 2023, 13, 2 ) ;
#15 = PRODUCT_DEFINITION_SHAPE ( 'NONE', 'NONE',  #48 ) ;
#16 = DATE_AND_TIME ( #14, #74 ) ;
#17 = ORIENTED_EDGE ( 'NONE', *, *, #208, .T. ) ;
#18 = CC_DESIGN_APPROVAL ( #13, ( #117 ) ) ;
#19 = PERSON_AND_ORGANIZATION ( #33, #60 ) ;
#20 = VERTEX_POINT ( 'NONE', #2 ) ;
#21 = DIRECTION ( 'NONE',  ( 1.000000000000000000, 0.000000000000000000, 0.000000000000000000 ) ) ;
#22 = CARTESIAN_POINT ( 'NONE',  ( 11.00000000000000000, 1.347111479062088405E-15, 0.000000000000000000 ) ) ;
#23 = DESIGN_CONTEXT ( 'detailed design', #79, 'design' ) ;
#24 = FACE_OUTER_BOUND ( 'NONE', #234, .T. ) ;
#25 = AXIS2_PLACEMENT_3D ( 'NONE', #211, #32, #170 ) ;
#26 = CARTESIAN_POINT ( 'NONE',  ( 0.000000000000000000, 0.000000000000000000, 100.0000000000000000 ) ) ;
#27 = LINE ( 'NONE', #4, #144 ) ;
#28 = AXIS2_PLACEMENT_3D ( 'NONE', #238, #223, #101 ) ;
#29 = COORDINATED_UNIVERSAL_TIME_OFFSET ( 1, 0, .AHEAD. ) ;
#30 = CARTESIAN_POINT ( 'NONE',  ( -7.000000000000000000, 0.000000000000000000, 100.0000000000000000 ) ) ;
#31 = CLOSED_SHELL ( 'NONE', ( #156, #127, #137, #166, #221, #247, #136 ) ) ;
#32 = DIRECTION ( 'NONE',  ( 0.000000000000000000, 0.000000000000000000, 1.000000000000000000 ) ) ;
#33 = PERSON ( 'NEURÈENÝ', 'NEURÈENÝ', 'NEURÈENÝ', ('NEURÈENÝ'), ('NEURÈENÝ'), ('NEURÈENÝ') ) ;
#34 = EDGE_LOOP ( 'NONE', ( #81, #253, #56, #152 ) ) ;
#35 = AXIS2_PLACEMENT_3D ( 'NONE', #11, #92, #242 ) ;
#36 = VERTEX_POINT ( 'NONE', #22 ) ;
#37 = ORIENTED_EDGE ( 'NONE', *, *, #46, .T. ) ;
#38 = ORIENTED_EDGE ( 'NONE', *, *, #123, .F. ) ;
#39 = AXIS2_PLACEMENT_3D ( 'NONE', #103, #255, #83 ) ;
#40 = DIRECTION ( 'NONE',  ( -0.000000000000000000, -0.000000000000000000, -1.000000000000000000 ) ) ;
#41 = ORIENTED_EDGE ( 'NONE', *, *, #208, .F. ) ;
#42 = CARTESIAN_POINT ( 'NONE',  ( -11.00000000000000000, 0.000000000000000000, 7.000000000000000000 ) ) ;
#43 = FACE_OUTER_BOUND ( 'NONE', #150, .T. ) ;
#44 = DIRECTION ( 'NONE',  ( 0.000000000000000000, 0.000000000000000000, 1.000000000000000000 ) ) ;
#45 = FACE_OUTER_BOUND ( 'NONE', #140, .T. ) ;
#46 = EDGE_CURVE ( 'NONE', #214, #82, #235, .T. ) ;
#47 = CIRCLE ( 'NONE', #195, 11.00000000000000000 ) ;
#48 = PRODUCT_DEFINITION ( 'NEZNÁMÝ', '', #117, #23 ) ;
#49 = DATE_TIME_ROLE ( 'creation_date' ) ;
#50 = PERSON_AND_ORGANIZATION ( #33, #60 ) ;
#51 = AXIS2_PLACEMENT_3D ( 'NONE', #120, #204, #224 ) ;
#52 = DATE_AND_TIME ( #6, #57 ) ;
#53 = APPROVAL_PERSON_ORGANIZATION ( #199, #226, #99 ) ;
#54 = CARTESIAN_POINT ( 'NONE',  ( 11.00000000000000000, 1.347111479062088405E-15, 7.000000000000000000 ) ) ;
#55 = CALENDAR_DATE ( 2023, 13, 2 ) ;
#56 = ORIENTED_EDGE ( 'NONE', *, *, #95, .T. ) ;
#57 = LOCAL_TIME ( 11, 43, 58.00000000000000000, #148 ) ;
#58 = APPLICATION_CONTEXT ( 'configuration controlled 3d designs of mechanical parts and assemblies' ) ;
#59 = ORIENTED_EDGE ( 'NONE', *, *, #69, .T. ) ;
#60 = ORGANIZATION ( 'NEURÈENÝ', 'NEURÈENÝ', '' ) ;
#61 = CARTESIAN_POINT ( 'NONE',  ( 0.000000000000000000, 0.000000000000000000, 7.000000000000000000 ) ) ;
#62 = UNCERTAINTY_MEASURE_WITH_UNIT (LENGTH_MEASURE( 1.000000000000000082E-05 ), #191, 'distance_accuracy_value', 'NONE');
#63 = CYLINDRICAL_SURFACE ( 'NONE', #147, 11.00000000000000000 ) ;
#64 = CARTESIAN_POINT ( 'NONE',  ( 0.000000000000000000, 0.000000000000000000, 7.000000000000000000 ) ) ;
#65 = DIRECTION ( 'NONE',  ( 1.000000000000000000, 0.000000000000000000, 0.000000000000000000 ) ) ;
#66 = DIRECTION ( 'NONE',  ( 0.000000000000000000, 0.000000000000000000, 1.000000000000000000 ) ) ;
#67 = DIRECTION ( 'NONE',  ( 0.000000000000000000, 0.000000000000000000, 1.000000000000000000 ) ) ;
#68 = APPLICATION_PROTOCOL_DEFINITION ( 'international standard', 'config_control_design', 1994, #79 ) ;
#69 = EDGE_CURVE ( 'NONE', #114, #233, #219, .T. ) ;
#70 = CC_DESIGN_APPROVAL ( #158, ( #48 ) ) ;
#71 = PLANE ( 'NONE',  #87 ) ;
#72 = APPROVAL_ROLE ( '' ) ;
#73 = DIRECTION ( 'NONE',  ( 1.000000000000000000, 0.000000000000000000, 0.000000000000000000 ) ) ;
#74 = LOCAL_TIME ( 11, 43, 58.00000000000000000, #151 ) ;
#75 = ORIENTED_EDGE ( 'NONE', *, *, #123, .T. ) ;
#76 = CC_DESIGN_PERSON_AND_ORGANIZATION_ASSIGNMENT ( #50, #248, ( #98 ) ) ;
#77 = COORDINATED_UNIVERSAL_TIME_OFFSET ( 1, 0, .AHEAD. ) ;
#78 = ORIENTED_EDGE ( 'NONE', *, *, #176, .F. ) ;
#79 = APPLICATION_CONTEXT ( 'configuration controlled 3d designs of mechanical parts and assemblies' ) ;
#80 = EDGE_LOOP ( 'NONE', ( #78, #175, #59, #17 ) ) ;
#81 = ORIENTED_EDGE ( 'NONE', *, *, #133, .F. ) ;
#82 = VERTEX_POINT ( 'NONE', #107 ) ;
#83 = DIRECTION ( 'NONE',  ( -1.000000000000000000, 0.000000000000000000, 0.000000000000000000 ) ) ;
#84 = ORIENTED_EDGE ( 'NONE', *, *, #95, .F. ) ;
#85 = CIRCLE ( 'NONE', #153, 7.000000000000000000 ) ;
#86 = LINE ( 'NONE', #157, #230 ) ;
#87 = AXIS2_PLACEMENT_3D ( 'NONE', #12, #93, #171 ) ;
#88 = CARTESIAN_POINT ( 'NONE',  ( 0.000000000000000000, 0.000000000000000000, 100.0000000000000000 ) ) ;
#89 = EDGE_CURVE ( 'NONE', #155, #214, #86, .T. ) ;
#90 = CARTESIAN_POINT ( 'NONE',  ( 0.000000000000000000, 0.000000000000000000, 0.000000000000000000 ) ) ;
#91 = CIRCLE ( 'NONE', #97, 7.000000000000000000 ) ;
#92 = DIRECTION ( 'NONE',  ( -0.000000000000000000, -0.000000000000000000, -1.000000000000000000 ) ) ;
#93 = DIRECTION ( 'NONE',  ( 0.000000000000000000, 0.000000000000000000, 1.000000000000000000 ) ) ;
#94 = ORIENTED_EDGE ( 'NONE', *, *, #172, .T. ) ;
#95 = EDGE_CURVE ( 'NONE', #36, #233, #243, .T. ) ;
#96 = ORIENTED_EDGE ( 'NONE', *, *, #46, .F. ) ;
#97 = AXIS2_PLACEMENT_3D ( 'NONE', #239, #159, #207 ) ;
#98 = PRODUCT ( 'ab55', 'ab55', '', ( #228 ) ) ;
#99 = APPROVAL_ROLE ( '' ) ;
#100 = EDGE_LOOP ( 'NONE', ( #180, #75 ) ) ;
#101 = DIRECTION ( 'NONE',  ( -1.000000000000000000, 0.000000000000000000, 0.000000000000000000 ) ) ;
#102 = VECTOR ( 'NONE', #40, 1000.000000000000000 ) ;
#103 = CARTESIAN_POINT ( 'NONE',  ( 0.000000000000000000, 0.000000000000000000, 7.000000000000000000 ) ) ;
#104 = DIRECTION ( 'NONE',  ( 0.000000000000000000, 0.000000000000000000, 1.000000000000000000 ) ) ;
#105 = DIRECTION ( 'NONE',  ( 1.000000000000000000, 0.000000000000000000, 0.000000000000000000 ) ) ;
#106 = AXIS2_PLACEMENT_3D ( 'NONE', #64, #139, #105 ) ;
#107 = CARTESIAN_POINT ( 'NONE',  ( -7.000000000000000000, 0.000000000000000000, 7.000000000000000000 ) ) ;
#108 = LOCAL_TIME ( 11, 43, 58.00000000000000000, #29 ) ;
#109 = PERSON_AND_ORGANIZATION ( #33, #60 ) ;
#110 = CALENDAR_DATE ( 2023, 13, 2 ) ;
#111 = FACE_OUTER_BOUND ( 'NONE', #182, .T. ) ;
#112 = DIRECTION ( 'NONE',  ( 1.000000000000000000, 0.000000000000000000, 0.000000000000000000 ) ) ;
#113 = APPROVAL_DATE_TIME ( #251, #13 ) ;
#114 = VERTEX_POINT ( 'NONE', #138 ) ;
#115 = PERSON_AND_ORGANIZATION_ROLE ( 'design_supplier' ) ;
#116 = ORIENTED_EDGE ( 'NONE', *, *, #172, .F. ) ;
#117 = PRODUCT_DEFINITION_FORMATION_WITH_SPECIFIED_SOURCE ( 'LIBOVOLNÝ', '', #98, .NOT_KNOWN. ) ;
#118 = DIRECTION ( 'NONE',  ( -0.000000000000000000, -0.000000000000000000, -1.000000000000000000 ) ) ;
#119 = AXIS2_PLACEMENT_3D ( 'NONE', #1, #44, #21 ) ;
#120 = CARTESIAN_POINT ( 'NONE',  ( 0.000000000000000000, 0.000000000000000000, 7.000000000000000000 ) ) ;
#121 = SECURITY_CLASSIFICATION ( '', '', #178 ) ;
#122 = CYLINDRICAL_SURFACE ( 'NONE', #39, 11.00000000000000000 ) ;
#123 = EDGE_CURVE ( 'NONE', #155, #201, #85, .T. ) ;
#124 = PLANE ( 'NONE',  #229 ) ;
#125 = CARTESIAN_POINT ( 'NONE',  ( 7.000000000000000000, 8.572527594031471218E-16, 100.0000000000000000 ) ) ;
#126 = PERSON_AND_ORGANIZATION ( #33, #60 ) ;
#127 = ADVANCED_FACE ( 'NONE', ( #183 ), #63, .T. ) ;
#128 = CIRCLE ( 'NONE', #161, 11.00000000000000000 ) ;
#129 = DIRECTION ( 'NONE',  ( -0.000000000000000000, -0.000000000000000000, -1.000000000000000000 ) ) ;
#130 = DIRECTION ( 'NONE',  ( 0.000000000000000000, 0.000000000000000000, 1.000000000000000000 ) ) ;
#131 = DATE_AND_TIME ( #55, #163 ) ;
#132 = PERSON_AND_ORGANIZATION ( #33, #60 ) ;
#133 = EDGE_CURVE ( 'NONE', #20, #114, #3, .T. ) ;
#134 = SHAPE_DEFINITION_REPRESENTATION ( #15, #177 ) ;
#135 = AXIS2_PLACEMENT_3D ( 'NONE', #88, #66, #186 ) ;
#136 = ADVANCED_FACE ( 'NONE', ( #240 ), #220, .T. ) ;
#137 = ADVANCED_FACE ( 'NONE', ( #141 ), #122, .T. ) ;
#138 = CARTESIAN_POINT ( 'NONE',  ( -11.00000000000000000, 0.000000000000000000, 7.000000000000000000 ) ) ;
#139 = DIRECTION ( 'NONE',  ( 0.000000000000000000, 0.000000000000000000, 1.000000000000000000 ) ) ;
#140 = EDGE_LOOP ( 'NONE', ( #41, #84 ) ) ;
#141 = FACE_OUTER_BOUND ( 'NONE', #80, .T. ) ;
#142 = DIRECTION ( 'NONE',  ( -0.000000000000000000, -0.000000000000000000, -1.000000000000000000 ) ) ;
#143 = CYLINDRICAL_SURFACE ( 'NONE', #35, 7.000000000000000000 ) ;
#144 = VECTOR ( 'NONE', #142, 1000.000000000000000 ) ;
#145 = DATE_AND_TIME ( #110, #108 ) ;
#146 = CC_DESIGN_PERSON_AND_ORGANIZATION_ASSIGNMENT ( #132, #216, ( #121 ) ) ;
#147 = AXIS2_PLACEMENT_3D ( 'NONE', #237, #118, #162 ) ;
#148 = COORDINATED_UNIVERSAL_TIME_OFFSET ( 1, 0, .AHEAD. ) ;
#149 = LINE ( 'NONE', #54, #5 ) ;
#150 = EDGE_LOOP ( 'NONE', ( #250, #241 ) ) ;
#151 = COORDINATED_UNIVERSAL_TIME_OFFSET ( 1, 0, .AHEAD. ) ;
#152 = ORIENTED_EDGE ( 'NONE', *, *, #69, .F. ) ;
#153 = AXIS2_PLACEMENT_3D ( 'NONE', #26, #206, #160 ) ;
#154 = APPROVAL_ROLE ( '' ) ;
#155 = VERTEX_POINT ( 'NONE', #125 ) ;
#156 = ADVANCED_FACE ( 'NONE', ( #24 ), #185, .T. ) ;
#157 = CARTESIAN_POINT ( 'NONE',  ( 7.000000000000000000, 8.572527594031471218E-16, 100.0000000000000000 ) ) ;
#158 = APPROVAL ( #212, 'NEURÈENÝ' ) ;
#159 = DIRECTION ( 'NONE',  ( 0.000000000000000000, 0.000000000000000000, 1.000000000000000000 ) ) ;
#160 = DIRECTION ( 'NONE',  ( 1.000000000000000000, 0.000000000000000000, 0.000000000000000000 ) ) ;
#161 = AXIS2_PLACEMENT_3D ( 'NONE', #203, #222, #65 ) ;
#162 = DIRECTION ( 'NONE',  ( -1.000000000000000000, 0.000000000000000000, 0.000000000000000000 ) ) ;
#163 = LOCAL_TIME ( 11, 43, 58.00000000000000000, #77 ) ;
#164 = DIRECTION ( 'NONE',  ( -0.000000000000000000, -0.000000000000000000, -1.000000000000000000 ) ) ;
#165 = PERSON_AND_ORGANIZATION ( #33, #60 ) ;
#166 = ADVANCED_FACE ( 'NONE', ( #254, #43 ), #124, .T. ) ;
#167 = CARTESIAN_POINT ( 'NONE',  ( -11.00000000000000000, 0.000000000000000000, 0.000000000000000000 ) ) ;
#168 = CC_DESIGN_PERSON_AND_ORGANIZATION_ASSIGNMENT ( #19, #252, ( #117 ) ) ;
#169 =( GEOMETRIC_REPRESENTATION_CONTEXT ( 3 ) GLOBAL_UNCERTAINTY_ASSIGNED_CONTEXT ( ( #62 ) ) GLOBAL_UNIT_ASSIGNED_CONTEXT ( ( #191, #244, #246 ) ) REPRESENTATION_CONTEXT ( 'NONE', 'WORKASPACE' ) );
#170 = DIRECTION ( 'NONE',  ( 1.000000000000000000, 0.000000000000000000, 0.000000000000000000 ) ) ;
#171 = DIRECTION ( 'NONE',  ( 1.000000000000000000, 0.000000000000000000, -0.000000000000000000 ) ) ;
#172 = EDGE_CURVE ( 'NONE', #201, #82, #27, .T. ) ;
#173 = DATE_TIME_ROLE ( 'classification_date' ) ;
#174 = EDGE_LOOP ( 'NONE', ( #213, #96 ) ) ;
#175 = ORIENTED_EDGE ( 'NONE', *, *, #8, .F. ) ;
#176 = EDGE_CURVE ( 'NONE', #20, #36, #149, .T. ) ;
#177 = ADVANCED_BREP_SHAPE_REPRESENTATION ( 'ab55', ( #236, #187 ), #169 ) ;
#178 = SECURITY_CLASSIFICATION_LEVEL ( 'unclassified' ) ;
#179 = COORDINATED_UNIVERSAL_TIME_OFFSET ( 1, 0, .AHEAD. ) ;
#180 = ORIENTED_EDGE ( 'NONE', *, *, #192, .T. ) ;
#181 = CC_DESIGN_DATE_AND_TIME_ASSIGNMENT ( #145, #49, ( #48 ) ) ;
#182 = EDGE_LOOP ( 'NONE', ( #215, #217, #94, #198 ) ) ;
#183 = FACE_OUTER_BOUND ( 'NONE', #34, .T. ) ;
#184 = DIRECTION ( 'NONE',  ( 1.000000000000000000, 0.000000000000000000, -0.000000000000000000 ) ) ;
#185 = CYLINDRICAL_SURFACE ( 'NONE', #28, 7.000000000000000000 ) ;
#186 = DIRECTION ( 'NONE',  ( 1.000000000000000000, 0.000000000000000000, -0.000000000000000000 ) ) ;
#187 = AXIS2_PLACEMENT_3D ( 'NONE', #227, #67, #112 ) ;
#188 = APPROVAL_DATE_TIME ( #52, #158 ) ;
#189 = APPLICATION_PROTOCOL_DEFINITION ( 'international standard', 'config_control_design', 1994, #58 ) ;
#190 = CC_DESIGN_PERSON_AND_ORGANIZATION_ASSIGNMENT ( #165, #209, ( #48 ) ) ;
#191 =( LENGTH_UNIT ( ) NAMED_UNIT ( * ) SI_UNIT ( .MILLI., .METRE. ) );
#192 = EDGE_CURVE ( 'NONE', #201, #155, #194, .T. ) ;
#193 = APPROVAL_STATUS ( 'not_yet_approved' ) ;
#194 = CIRCLE ( 'NONE', #25, 7.000000000000000000 ) ;
#195 = AXIS2_PLACEMENT_3D ( 'NONE', #90, #130, #73 ) ;
#196 = ORIENTED_EDGE ( 'NONE', *, *, #89, .T. ) ;
#197 = CC_DESIGN_PERSON_AND_ORGANIZATION_ASSIGNMENT ( #249, #115, ( #117 ) ) ;
#198 = ORIENTED_EDGE ( 'NONE', *, *, #7, .T. ) ;
#199 = PERSON_AND_ORGANIZATION ( #33, #60 ) ;
#200 = CALENDAR_DATE ( 2023, 13, 2 ) ;
#201 = VERTEX_POINT ( 'NONE', #30 ) ;
#202 = CC_DESIGN_APPROVAL ( #226, ( #121 ) ) ;
#203 = CARTESIAN_POINT ( 'NONE',  ( 0.000000000000000000, 0.000000000000000000, 7.000000000000000000 ) ) ;
#204 = DIRECTION ( 'NONE',  ( 0.000000000000000000, 0.000000000000000000, 1.000000000000000000 ) ) ;
#205 = APPROVAL_PERSON_ORGANIZATION ( #126, #13, #154 ) ;
#206 = DIRECTION ( 'NONE',  ( 0.000000000000000000, 0.000000000000000000, 1.000000000000000000 ) ) ;
#207 = DIRECTION ( 'NONE',  ( 1.000000000000000000, 0.000000000000000000, 0.000000000000000000 ) ) ;
#208 = EDGE_CURVE ( 'NONE', #233, #36, #47, .T. ) ;
#209 = PERSON_AND_ORGANIZATION_ROLE ( 'creator' ) ;
#210 = APPROVAL_STATUS ( 'not_yet_approved' ) ;
#211 = CARTESIAN_POINT ( 'NONE',  ( 0.000000000000000000, 0.000000000000000000, 100.0000000000000000 ) ) ;
#212 = APPROVAL_STATUS ( 'not_yet_approved' ) ;
#213 = ORIENTED_EDGE ( 'NONE', *, *, #7, .F. ) ;
#214 = VERTEX_POINT ( 'NONE', #9 ) ;
#215 = ORIENTED_EDGE ( 'NONE', *, *, #89, .F. ) ;
#216 = PERSON_AND_ORGANIZATION_ROLE ( 'classification_officer' ) ;
#217 = ORIENTED_EDGE ( 'NONE', *, *, #192, .F. ) ;
#218 = CC_DESIGN_SECURITY_CLASSIFICATION ( #121, ( #117 ) ) ;
#219 = LINE ( 'NONE', #42, #102 ) ;
#220 = PLANE ( 'NONE',  #135 ) ;
#221 = ADVANCED_FACE ( 'NONE', ( #45 ), #71, .F. ) ;
#222 = DIRECTION ( 'NONE',  ( 0.000000000000000000, 0.000000000000000000, 1.000000000000000000 ) ) ;
#223 = DIRECTION ( 'NONE',  ( -0.000000000000000000, -0.000000000000000000, -1.000000000000000000 ) ) ;
#224 = DIRECTION ( 'NONE',  ( 1.000000000000000000, 0.000000000000000000, 0.000000000000000000 ) ) ;
#225 = APPROVAL_PERSON_ORGANIZATION ( #109, #158, #72 ) ;
#226 = APPROVAL ( #193, 'NEURÈENÝ' ) ;
#227 = CARTESIAN_POINT ( 'NONE',  ( 0.000000000000000000, 0.000000000000000000, 0.000000000000000000 ) ) ;
#228 = MECHANICAL_CONTEXT ( 'NONE', #58, 'mechanical' ) ;
#229 = AXIS2_PLACEMENT_3D ( 'NONE', #61, #104, #184 ) ;
#230 = VECTOR ( 'NONE', #164, 1000.000000000000000 ) ;
#231 = APPROVAL_DATE_TIME ( #16, #226 ) ;
#232 = LOCAL_TIME ( 11, 43, 58.00000000000000000, #179 ) ;
#233 = VERTEX_POINT ( 'NONE', #167 ) ;
#234 = EDGE_LOOP ( 'NONE', ( #38, #196, #37, #116 ) ) ;
#235 = CIRCLE ( 'NONE', #51, 7.000000000000000000 ) ;
#236 = MANIFOLD_SOLID_BREP ( 'Pøidat vysunutím3', #31 ) ;
#237 = CARTESIAN_POINT ( 'NONE',  ( 0.000000000000000000, 0.000000000000000000, 7.000000000000000000 ) ) ;
#238 = CARTESIAN_POINT ( 'NONE',  ( 0.000000000000000000, 0.000000000000000000, 100.0000000000000000 ) ) ;
#239 = CARTESIAN_POINT ( 'NONE',  ( 0.000000000000000000, 0.000000000000000000, 7.000000000000000000 ) ) ;
#240 = FACE_OUTER_BOUND ( 'NONE', #100, .T. ) ;
#241 = ORIENTED_EDGE ( 'NONE', *, *, #133, .T. ) ;
#242 = DIRECTION ( 'NONE',  ( -1.000000000000000000, 0.000000000000000000, 0.000000000000000000 ) ) ;
#243 = CIRCLE ( 'NONE', #119, 11.00000000000000000 ) ;
#244 =( NAMED_UNIT ( * ) PLANE_ANGLE_UNIT ( ) SI_UNIT ( $, .RADIAN. ) );
#245 = PRODUCT_RELATED_PRODUCT_CATEGORY ( 'detail', '', ( #98 ) ) ;
#246 =( NAMED_UNIT ( * ) SI_UNIT ( $, .STERADIAN. ) SOLID_ANGLE_UNIT ( ) );
#247 = ADVANCED_FACE ( 'NONE', ( #111 ), #143, .T. ) ;
#248 = PERSON_AND_ORGANIZATION_ROLE ( 'design_owner' ) ;
#249 = PERSON_AND_ORGANIZATION ( #33, #60 ) ;
#250 = ORIENTED_EDGE ( 'NONE', *, *, #8, .T. ) ;
#251 = DATE_AND_TIME ( #200, #232 ) ;
#252 = PERSON_AND_ORGANIZATION_ROLE ( 'creator' ) ;
#253 = ORIENTED_EDGE ( 'NONE', *, *, #176, .T. ) ;
#254 = FACE_BOUND ( 'NONE', #174, .T. ) ;
#255 = DIRECTION ( 'NONE',  ( -0.000000000000000000, -0.000000000000000000, -1.000000000000000000 ) ) ;
ENDSEC;
END-ISO-10303-21;
