ISO-10303-21;
HEADER;
FILE_DESCRIPTION (( 'STEP AP203' ),
    '1' );
FILE_NAME ('6fb3.STEP',
    '2023-02-13T14:52:22',
    ( '' ),
    ( '' ),
    'SwSTEP 2.0',
    'SolidWorks 2019',
    '' );
FILE_SCHEMA (( 'CONFIG_CONTROL_DESIGN' ));
ENDSEC;

DATA;
#1 = CALENDAR_DATE ( 2023, 13, 2 ) ;
#2 = CARTESIAN_POINT ( 'NONE',  ( 0.000000000000000000, 0.000000000000000000, 0.000000000000000000 ) ) ;
#3 = CIRCLE ( 'NONE', #139, 6.000000000000000888 ) ;
#4 = LOCAL_TIME ( 15, 52, 22.00000000000000000, #194 ) ;
#5 = ORIENTED_EDGE ( 'NONE', *, *, #185, .T. ) ;
#6 = PERSON ( 'NEURÈENÝ', 'NEURÈENÝ', 'NEURÈENÝ', ('NEURÈENÝ'), ('NEURÈENÝ'), ('NEURÈENÝ') ) ;
#7 = AXIS2_PLACEMENT_3D ( 'NONE', #107, #242, #90 ) ;
#8 = ORIENTED_EDGE ( 'NONE', *, *, #61, .T. ) ;
#9 = APPROVAL_STATUS ( 'not_yet_approved' ) ;
#10 = ORIENTED_EDGE ( 'NONE', *, *, #83, .F. ) ;
#11 = DIRECTION ( 'NONE',  ( 0.000000000000000000, 0.000000000000000000, 1.000000000000000000 ) ) ;
#12 = ADVANCED_FACE ( 'NONE', ( #175 ), #193, .T. ) ;
#13 = AXIS2_PLACEMENT_3D ( 'NONE', #77, #179, #98 ) ;
#14 = LOCAL_TIME ( 15, 52, 22.00000000000000000, #203 ) ;
#15 = PRODUCT ( '6fb3', '6fb3', '', ( #176 ) ) ;
#16 = APPROVAL ( #100, 'NEURÈENÝ' ) ;
#17 = DATE_AND_TIME ( #103, #14 ) ;
#18 = AXIS2_PLACEMENT_3D ( 'NONE', #97, #35, #217 ) ;
#19 = PERSON_AND_ORGANIZATION ( #6, #62 ) ;
#20 = SHAPE_DEFINITION_REPRESENTATION ( #199, #140 ) ;
#21 = APPROVAL_ROLE ( '' ) ;
#22 = DIRECTION ( 'NONE',  ( 1.000000000000000000, 0.000000000000000000, 0.000000000000000000 ) ) ;
#23 = CARTESIAN_POINT ( 'NONE',  ( 6.000000000000000888, 7.347880794884120722E-16, 5.000000000000000000 ) ) ;
#24 = APPROVAL ( #9, 'NEURÈENÝ' ) ;
#25 = DIRECTION ( 'NONE',  ( 0.000000000000000000, 0.000000000000000000, 1.000000000000000000 ) ) ;
#26 = CIRCLE ( 'NONE', #13, 6.000000000000000888 ) ;
#27 = DIRECTION ( 'NONE',  ( -1.000000000000000000, 0.000000000000000000, 0.000000000000000000 ) ) ;
#28 = ORIENTED_EDGE ( 'NONE', *, *, #152, .T. ) ;
#29 = DIRECTION ( 'NONE',  ( 1.000000000000000000, 0.000000000000000000, 0.000000000000000000 ) ) ;
#30 = LOCAL_TIME ( 15, 52, 22.00000000000000000, #37 ) ;
#31 = ORIENTED_EDGE ( 'NONE', *, *, #155, .T. ) ;
#32 =( NAMED_UNIT ( * ) PLANE_ANGLE_UNIT ( ) SI_UNIT ( $, .RADIAN. ) );
#33 = ORIENTED_EDGE ( 'NONE', *, *, #185, .F. ) ;
#34 = ORIENTED_EDGE ( 'NONE', *, *, #54, .F. ) ;
#35 = DIRECTION ( 'NONE',  ( 0.000000000000000000, 0.000000000000000000, 1.000000000000000000 ) ) ;
#36 = VERTEX_POINT ( 'NONE', #251 ) ;
#37 = COORDINATED_UNIVERSAL_TIME_OFFSET ( 1, 0, .AHEAD. ) ;
#38 = CC_DESIGN_PERSON_AND_ORGANIZATION_ASSIGNMENT ( #197, #53, ( #15 ) ) ;
#39 =( NAMED_UNIT ( * ) SI_UNIT ( $, .STERADIAN. ) SOLID_ANGLE_UNIT ( ) );
#40 = CIRCLE ( 'NONE', #164, 3.250000000000000444 ) ;
#41 = CARTESIAN_POINT ( 'NONE',  ( -6.000000000000000888, 0.000000000000000000, 5.000000000000000000 ) ) ;
#42 = PERSON_AND_ORGANIZATION_ROLE ( 'classification_officer' ) ;
#43 = PERSON_AND_ORGANIZATION ( #6, #62 ) ;
#44 = APPROVAL_PERSON_ORGANIZATION ( #128, #142, #58 ) ;
#45 = EDGE_CURVE ( 'NONE', #36, #76, #26, .T. ) ;
#46 = DIRECTION ( 'NONE',  ( -0.000000000000000000, -0.000000000000000000, -1.000000000000000000 ) ) ;
#47 = VECTOR ( 'NONE', #227, 1000.000000000000000 ) ;
#48 = AXIS2_PLACEMENT_3D ( 'NONE', #160, #240, #22 ) ;
#49 = DIRECTION ( 'NONE',  ( -1.000000000000000000, 0.000000000000000000, 0.000000000000000000 ) ) ;
#50 = SECURITY_CLASSIFICATION ( '', '', #182 ) ;
#51 = EDGE_LOOP ( 'NONE', ( #170, #209 ) ) ;
#52 = ORIENTED_EDGE ( 'NONE', *, *, #108, .T. ) ;
#53 = PERSON_AND_ORGANIZATION_ROLE ( 'design_owner' ) ;
#54 = EDGE_CURVE ( 'NONE', #214, #133, #40, .T. ) ;
#55 = DIRECTION ( 'NONE',  ( 1.000000000000000000, 0.000000000000000000, -0.000000000000000000 ) ) ;
#56 = ORIENTED_EDGE ( 'NONE', *, *, #83, .T. ) ;
#57 = APPROVAL_STATUS ( 'not_yet_approved' ) ;
#58 = APPROVAL_ROLE ( '' ) ;
#59 = DIRECTION ( 'NONE',  ( 1.000000000000000000, 0.000000000000000000, 0.000000000000000000 ) ) ;
#60 = DIRECTION ( 'NONE',  ( 0.000000000000000000, 0.000000000000000000, 1.000000000000000000 ) ) ;
#61 = EDGE_CURVE ( 'NONE', #229, #247, #221, .T. ) ;
#62 = ORGANIZATION ( 'NEURÈENÝ', 'NEURÈENÝ', '' ) ;
#63 = AXIS2_PLACEMENT_3D ( 'NONE', #141, #46, #27 ) ;
#64 = DATE_AND_TIME ( #1, #188 ) ;
#65 = ADVANCED_FACE ( 'NONE', ( #218 ), #82, .F. ) ;
#66 = LINE ( 'NONE', #23, #196 ) ;
#67 = CARTESIAN_POINT ( 'NONE',  ( 0.000000000000000000, 0.000000000000000000, 5.000000000000000000 ) ) ;
#68 = AXIS2_PLACEMENT_3D ( 'NONE', #165, #206, #49 ) ;
#69 = CARTESIAN_POINT ( 'NONE',  ( -3.250000000000000444, 0.000000000000000000, 500.0000000000000000 ) ) ;
#70 = EDGE_LOOP ( 'NONE', ( #130, #10 ) ) ;
#71 = CYLINDRICAL_SURFACE ( 'NONE', #63, 6.000000000000000888 ) ;
#72 = ORIENTED_EDGE ( 'NONE', *, *, #220, .F. ) ;
#73 = DATE_AND_TIME ( #248, #4 ) ;
#74 = CC_DESIGN_PERSON_AND_ORGANIZATION_ASSIGNMENT ( #79, #80, ( #117 ) ) ;
#75 = AXIS2_PLACEMENT_3D ( 'NONE', #238, #60, #222 ) ;
#76 = VERTEX_POINT ( 'NONE', #41 ) ;
#77 = CARTESIAN_POINT ( 'NONE',  ( 0.000000000000000000, 0.000000000000000000, 5.000000000000000000 ) ) ;
#78 = CARTESIAN_POINT ( 'NONE',  ( -3.250000000000000444, 0.000000000000000000, 500.0000000000000000 ) ) ;
#79 = PERSON_AND_ORGANIZATION ( #6, #62 ) ;
#80 = PERSON_AND_ORGANIZATION_ROLE ( 'creator' ) ;
#81 = CC_DESIGN_APPROVAL ( #24, ( #180 ) ) ;
#82 = PLANE ( 'NONE',  #75 ) ;
#83 = EDGE_CURVE ( 'NONE', #92, #94, #250, .T. ) ;
#84 = DIRECTION ( 'NONE',  ( 1.000000000000000000, 0.000000000000000000, 0.000000000000000000 ) ) ;
#85 = CARTESIAN_POINT ( 'NONE',  ( 0.000000000000000000, 0.000000000000000000, 500.0000000000000000 ) ) ;
#86 = PLANE ( 'NONE',  #7 ) ;
#87 = LOCAL_TIME ( 15, 52, 22.00000000000000000, #212 ) ;
#88 = DIRECTION ( 'NONE',  ( 1.000000000000000000, 0.000000000000000000, 0.000000000000000000 ) ) ;
#89 = DESIGN_CONTEXT ( 'detailed design', #91, 'design' ) ;
#90 = DIRECTION ( 'NONE',  ( 1.000000000000000000, 0.000000000000000000, -0.000000000000000000 ) ) ;
#91 = APPLICATION_CONTEXT ( 'configuration controlled 3d designs of mechanical parts and assemblies' ) ;
#92 = VERTEX_POINT ( 'NONE', #158 ) ;
#93 = APPROVAL_ROLE ( '' ) ;
#94 = VERTEX_POINT ( 'NONE', #120 ) ;
#95 = DIRECTION ( 'NONE',  ( -1.000000000000000000, 0.000000000000000000, 0.000000000000000000 ) ) ;
#96 = EDGE_LOOP ( 'NONE', ( #125, #109, #131, #145 ) ) ;
#97 = CARTESIAN_POINT ( 'NONE',  ( 0.000000000000000000, 0.000000000000000000, 0.000000000000000000 ) ) ;
#98 = DIRECTION ( 'NONE',  ( 1.000000000000000000, 0.000000000000000000, 0.000000000000000000 ) ) ;
#99 = PLANE ( 'NONE',  #216 ) ;
#100 = APPROVAL_STATUS ( 'not_yet_approved' ) ;
#101 = CC_DESIGN_APPROVAL ( #142, ( #117 ) ) ;
#102 = PRODUCT_RELATED_PRODUCT_CATEGORY ( 'detail', '', ( #15 ) ) ;
#103 = CALENDAR_DATE ( 2023, 13, 2 ) ;
#104 = CARTESIAN_POINT ( 'NONE',  ( -6.000000000000000888, 0.000000000000000000, 5.000000000000000000 ) ) ;
#105 = AXIS2_PLACEMENT_3D ( 'NONE', #2, #119, #84 ) ;
#106 = CC_DESIGN_PERSON_AND_ORGANIZATION_ASSIGNMENT ( #19, #239, ( #180 ) ) ;
#107 = CARTESIAN_POINT ( 'NONE',  ( 0.000000000000000000, 0.000000000000000000, 5.000000000000000000 ) ) ;
#108 = EDGE_CURVE ( 'NONE', #76, #94, #204, .T. ) ;
#109 = ORIENTED_EDGE ( 'NONE', *, *, #61, .F. ) ;
#110 = FACE_OUTER_BOUND ( 'NONE', #169, .T. ) ;
#111 = ORIENTED_EDGE ( 'NONE', *, *, #108, .F. ) ;
#112 = CARTESIAN_POINT ( 'NONE',  ( 0.000000000000000000, 0.000000000000000000, 5.000000000000000000 ) ) ;
#113 =( LENGTH_UNIT ( ) NAMED_UNIT ( * ) SI_UNIT ( .MILLI., .METRE. ) );
#114 = DIRECTION ( 'NONE',  ( -0.000000000000000000, -0.000000000000000000, -1.000000000000000000 ) ) ;
#115 = APPLICATION_PROTOCOL_DEFINITION ( 'international standard', 'config_control_design', 1994, #132 ) ;
#116 = PERSON_AND_ORGANIZATION ( #6, #62 ) ;
#117 = PRODUCT_DEFINITION ( 'NEZNÁMÝ', '', #180, #89 ) ;
#118 = CLOSED_SHELL ( 'NONE', ( #163, #12, #177, #210, #65, #254, #244 ) ) ;
#119 = DIRECTION ( 'NONE',  ( 0.000000000000000000, 0.000000000000000000, 1.000000000000000000 ) ) ;
#120 = CARTESIAN_POINT ( 'NONE',  ( -6.000000000000000888, 0.000000000000000000, 0.000000000000000000 ) ) ;
#121 = DIRECTION ( 'NONE',  ( 0.000000000000000000, 0.000000000000000000, 1.000000000000000000 ) ) ;
#122 = LINE ( 'NONE', #69, #205 ) ;
#123 = EDGE_CURVE ( 'NONE', #247, #229, #159, .T. ) ;
#124 = UNCERTAINTY_MEASURE_WITH_UNIT (LENGTH_MEASURE( 1.000000000000000082E-05 ), #113, 'distance_accuracy_value', 'NONE');
#125 = ORIENTED_EDGE ( 'NONE', *, *, #155, .F. ) ;
#126 = FACE_BOUND ( 'NONE', #232, .T. ) ;
#127 = ORIENTED_EDGE ( 'NONE', *, *, #45, .F. ) ;
#128 = PERSON_AND_ORGANIZATION ( #6, #62 ) ;
#129 = CC_DESIGN_APPROVAL ( #16, ( #50 ) ) ;
#130 = ORIENTED_EDGE ( 'NONE', *, *, #173, .F. ) ;
#131 = ORIENTED_EDGE ( 'NONE', *, *, #202, .T. ) ;
#132 = APPLICATION_CONTEXT ( 'configuration controlled 3d designs of mechanical parts and assemblies' ) ;
#133 = VERTEX_POINT ( 'NONE', #162 ) ;
#134 = CARTESIAN_POINT ( 'NONE',  ( 0.000000000000000000, 0.000000000000000000, 500.0000000000000000 ) ) ;
#135 = DIRECTION ( 'NONE',  ( 1.000000000000000000, 0.000000000000000000, 0.000000000000000000 ) ) ;
#136 = DATE_AND_TIME ( #150, #30 ) ;
#137 = CC_DESIGN_DATE_AND_TIME_ASSIGNMENT ( #136, #219, ( #117 ) ) ;
#138 = APPROVAL_DATE_TIME ( #17, #16 ) ;
#139 = AXIS2_PLACEMENT_3D ( 'NONE', #166, #121, #29 ) ;
#140 = ADVANCED_BREP_SHAPE_REPRESENTATION ( '6fb3', ( #168, #18 ), #223 ) ;
#141 = CARTESIAN_POINT ( 'NONE',  ( 0.000000000000000000, 0.000000000000000000, 5.000000000000000000 ) ) ;
#142 = APPROVAL ( #57, 'NEURÈENÝ' ) ;
#143 = LINE ( 'NONE', #191, #47 ) ;
#144 = CARTESIAN_POINT ( 'NONE',  ( -3.250000000000000444, 0.000000000000000000, 5.000000000000000000 ) ) ;
#145 = ORIENTED_EDGE ( 'NONE', *, *, #54, .T. ) ;
#146 = ORIENTED_EDGE ( 'NONE', *, *, #123, .T. ) ;
#147 = APPROVAL_DATE_TIME ( #73, #24 ) ;
#148 = AXIS2_PLACEMENT_3D ( 'NONE', #112, #114, #95 ) ;
#149 = ORIENTED_EDGE ( 'NONE', *, *, #173, .T. ) ;
#150 = CALENDAR_DATE ( 2023, 13, 2 ) ;
#151 = AXIS2_PLACEMENT_3D ( 'NONE', #167, #245, #207 ) ;
#152 = EDGE_CURVE ( 'NONE', #36, #92, #66, .T. ) ;
#153 = EDGE_LOOP ( 'NONE', ( #8, #146 ) ) ;
#154 = CARTESIAN_POINT ( 'NONE',  ( 0.000000000000000000, 0.000000000000000000, 500.0000000000000000 ) ) ;
#155 = EDGE_CURVE ( 'NONE', #247, #133, #143, .T. ) ;
#156 = CYLINDRICAL_SURFACE ( 'NONE', #190, 3.250000000000000444 ) ;
#157 = CIRCLE ( 'NONE', #243, 6.000000000000000888 ) ;
#158 = CARTESIAN_POINT ( 'NONE',  ( 6.000000000000000888, 7.347880794884120722E-16, 0.000000000000000000 ) ) ;
#159 = CIRCLE ( 'NONE', #48, 3.250000000000000444 ) ;
#160 = CARTESIAN_POINT ( 'NONE',  ( 0.000000000000000000, 0.000000000000000000, 500.0000000000000000 ) ) ;
#161 = DATE_TIME_ROLE ( 'classification_date' ) ;
#162 = CARTESIAN_POINT ( 'NONE',  ( 3.250000000000000444, 3.980102097228898231E-16, 5.000000000000000000 ) ) ;
#163 = ADVANCED_FACE ( 'NONE', ( #110 ), #226, .T. ) ;
#164 = AXIS2_PLACEMENT_3D ( 'NONE', #200, #181, #59 ) ;
#165 = CARTESIAN_POINT ( 'NONE',  ( 0.000000000000000000, 0.000000000000000000, 500.0000000000000000 ) ) ;
#166 = CARTESIAN_POINT ( 'NONE',  ( 0.000000000000000000, 0.000000000000000000, 0.000000000000000000 ) ) ;
#167 = CARTESIAN_POINT ( 'NONE',  ( 0.000000000000000000, 0.000000000000000000, 5.000000000000000000 ) ) ;
#168 = MANIFOLD_SOLID_BREP ( 'Pøidat vysunutím3', #118 ) ;
#169 = EDGE_LOOP ( 'NONE', ( #189, #31, #5, #234 ) ) ;
#170 = ORIENTED_EDGE ( 'NONE', *, *, #220, .T. ) ;
#171 = FACE_OUTER_BOUND ( 'NONE', #153, .T. ) ;
#172 = FACE_OUTER_BOUND ( 'NONE', #96, .T. ) ;
#173 = EDGE_CURVE ( 'NONE', #94, #92, #3, .T. ) ;
#174 = VECTOR ( 'NONE', #183, 1000.000000000000000 ) ;
#175 = FACE_OUTER_BOUND ( 'NONE', #211, .T. ) ;
#176 = MECHANICAL_CONTEXT ( 'NONE', #132, 'mechanical' ) ;
#177 = ADVANCED_FACE ( 'NONE', ( #187 ), #71, .T. ) ;
#178 = CALENDAR_DATE ( 2023, 13, 2 ) ;
#179 = DIRECTION ( 'NONE',  ( 0.000000000000000000, 0.000000000000000000, 1.000000000000000000 ) ) ;
#180 = PRODUCT_DEFINITION_FORMATION_WITH_SPECIFIED_SOURCE ( 'LIBOVOLNÝ', '', #15, .NOT_KNOWN. ) ;
#181 = DIRECTION ( 'NONE',  ( 0.000000000000000000, 0.000000000000000000, 1.000000000000000000 ) ) ;
#182 = SECURITY_CLASSIFICATION_LEVEL ( 'unclassified' ) ;
#183 = DIRECTION ( 'NONE',  ( -0.000000000000000000, -0.000000000000000000, -1.000000000000000000 ) ) ;
#184 = DIRECTION ( 'NONE',  ( -0.000000000000000000, -0.000000000000000000, -1.000000000000000000 ) ) ;
#185 = EDGE_CURVE ( 'NONE', #133, #214, #201, .T. ) ;
#186 = AXIS2_PLACEMENT_3D ( 'NONE', #85, #255, #135 ) ;
#187 = FACE_OUTER_BOUND ( 'NONE', #215, .T. ) ;
#188 = LOCAL_TIME ( 15, 52, 22.00000000000000000, #225 ) ;
#189 = ORIENTED_EDGE ( 'NONE', *, *, #123, .F. ) ;
#190 = AXIS2_PLACEMENT_3D ( 'NONE', #154, #235, #233 ) ;
#191 = CARTESIAN_POINT ( 'NONE',  ( 3.250000000000000444, 3.980102097228898231E-16, 500.0000000000000000 ) ) ;
#192 = CC_DESIGN_DATE_AND_TIME_ASSIGNMENT ( #64, #161, ( #50 ) ) ;
#193 = CYLINDRICAL_SURFACE ( 'NONE', #148, 6.000000000000000888 ) ;
#194 = COORDINATED_UNIVERSAL_TIME_OFFSET ( 1, 0, .AHEAD. ) ;
#195 = CARTESIAN_POINT ( 'NONE',  ( 3.250000000000000444, 3.980102097228898231E-16, 500.0000000000000000 ) ) ;
#196 = VECTOR ( 'NONE', #184, 1000.000000000000000 ) ;
#197 = PERSON_AND_ORGANIZATION ( #6, #62 ) ;
#198 = APPROVAL_DATE_TIME ( #253, #142 ) ;
#199 = PRODUCT_DEFINITION_SHAPE ( 'NONE', 'NONE',  #117 ) ;
#200 = CARTESIAN_POINT ( 'NONE',  ( 0.000000000000000000, 0.000000000000000000, 5.000000000000000000 ) ) ;
#201 = CIRCLE ( 'NONE', #151, 3.250000000000000444 ) ;
#202 = EDGE_CURVE ( 'NONE', #229, #214, #122, .T. ) ;
#203 = COORDINATED_UNIVERSAL_TIME_OFFSET ( 1, 0, .AHEAD. ) ;
#204 = LINE ( 'NONE', #104, #174 ) ;
#205 = VECTOR ( 'NONE', #230, 1000.000000000000000 ) ;
#206 = DIRECTION ( 'NONE',  ( -0.000000000000000000, -0.000000000000000000, -1.000000000000000000 ) ) ;
#207 = DIRECTION ( 'NONE',  ( 1.000000000000000000, 0.000000000000000000, 0.000000000000000000 ) ) ;
#208 = FACE_OUTER_BOUND ( 'NONE', #51, .T. ) ;
#209 = ORIENTED_EDGE ( 'NONE', *, *, #45, .T. ) ;
#210 = ADVANCED_FACE ( 'NONE', ( #126, #208 ), #86, .T. ) ;
#211 = EDGE_LOOP ( 'NONE', ( #127, #28, #56, #111 ) ) ;
#212 = COORDINATED_UNIVERSAL_TIME_OFFSET ( 1, 0, .AHEAD. ) ;
#213 = ORIENTED_EDGE ( 'NONE', *, *, #152, .F. ) ;
#214 = VERTEX_POINT ( 'NONE', #144 ) ;
#215 = EDGE_LOOP ( 'NONE', ( #213, #72, #52, #149 ) ) ;
#216 = AXIS2_PLACEMENT_3D ( 'NONE', #134, #11, #55 ) ;
#217 = DIRECTION ( 'NONE',  ( 1.000000000000000000, 0.000000000000000000, 0.000000000000000000 ) ) ;
#218 = FACE_OUTER_BOUND ( 'NONE', #70, .T. ) ;
#219 = DATE_TIME_ROLE ( 'creation_date' ) ;
#220 = EDGE_CURVE ( 'NONE', #76, #36, #157, .T. ) ;
#221 = CIRCLE ( 'NONE', #186, 3.250000000000000444 ) ;
#222 = DIRECTION ( 'NONE',  ( 1.000000000000000000, 0.000000000000000000, -0.000000000000000000 ) ) ;
#223 =( GEOMETRIC_REPRESENTATION_CONTEXT ( 3 ) GLOBAL_UNCERTAINTY_ASSIGNED_CONTEXT ( ( #124 ) ) GLOBAL_UNIT_ASSIGNED_CONTEXT ( ( #113, #32, #39 ) ) REPRESENTATION_CONTEXT ( 'NONE', 'WORKASPACE' ) );
#224 = CC_DESIGN_PERSON_AND_ORGANIZATION_ASSIGNMENT ( #43, #42, ( #50 ) ) ;
#225 = COORDINATED_UNIVERSAL_TIME_OFFSET ( 1, 0, .AHEAD. ) ;
#226 = CYLINDRICAL_SURFACE ( 'NONE', #68, 3.250000000000000444 ) ;
#227 = DIRECTION ( 'NONE',  ( -0.000000000000000000, -0.000000000000000000, -1.000000000000000000 ) ) ;
#228 = APPROVAL_PERSON_ORGANIZATION ( #116, #24, #93 ) ;
#229 = VERTEX_POINT ( 'NONE', #78 ) ;
#230 = DIRECTION ( 'NONE',  ( -0.000000000000000000, -0.000000000000000000, -1.000000000000000000 ) ) ;
#231 = PERSON_AND_ORGANIZATION ( #6, #62 ) ;
#232 = EDGE_LOOP ( 'NONE', ( #34, #33 ) ) ;
#233 = DIRECTION ( 'NONE',  ( -1.000000000000000000, 0.000000000000000000, 0.000000000000000000 ) ) ;
#234 = ORIENTED_EDGE ( 'NONE', *, *, #202, .F. ) ;
#235 = DIRECTION ( 'NONE',  ( -0.000000000000000000, -0.000000000000000000, -1.000000000000000000 ) ) ;
#236 = CC_DESIGN_SECURITY_CLASSIFICATION ( #50, ( #180 ) ) ;
#237 = CC_DESIGN_PERSON_AND_ORGANIZATION_ASSIGNMENT ( #231, #249, ( #180 ) ) ;
#238 = CARTESIAN_POINT ( 'NONE',  ( 0.000000000000000000, 0.000000000000000000, 0.000000000000000000 ) ) ;
#239 = PERSON_AND_ORGANIZATION_ROLE ( 'design_supplier' ) ;
#240 = DIRECTION ( 'NONE',  ( 0.000000000000000000, 0.000000000000000000, 1.000000000000000000 ) ) ;
#241 = PERSON_AND_ORGANIZATION ( #6, #62 ) ;
#242 = DIRECTION ( 'NONE',  ( 0.000000000000000000, 0.000000000000000000, 1.000000000000000000 ) ) ;
#243 = AXIS2_PLACEMENT_3D ( 'NONE', #67, #25, #88 ) ;
#244 = ADVANCED_FACE ( 'NONE', ( #171 ), #99, .T. ) ;
#245 = DIRECTION ( 'NONE',  ( 0.000000000000000000, 0.000000000000000000, 1.000000000000000000 ) ) ;
#246 = APPROVAL_PERSON_ORGANIZATION ( #241, #16, #21 ) ;
#247 = VERTEX_POINT ( 'NONE', #195 ) ;
#248 = CALENDAR_DATE ( 2023, 13, 2 ) ;
#249 = PERSON_AND_ORGANIZATION_ROLE ( 'creator' ) ;
#250 = CIRCLE ( 'NONE', #105, 6.000000000000000888 ) ;
#251 = CARTESIAN_POINT ( 'NONE',  ( 6.000000000000000888, 7.347880794884120722E-16, 5.000000000000000000 ) ) ;
#252 = APPLICATION_PROTOCOL_DEFINITION ( 'international standard', 'config_control_design', 1994, #91 ) ;
#253 = DATE_AND_TIME ( #178, #87 ) ;
#254 = ADVANCED_FACE ( 'NONE', ( #172 ), #156, .T. ) ;
#255 = DIRECTION ( 'NONE',  ( 0.000000000000000000, 0.000000000000000000, 1.000000000000000000 ) ) ;
ENDSEC;
END-ISO-10303-21;
