ISO-10303-21;
HEADER;
FILE_DESCRIPTION (( 'STEP AP203' ),
    '1' );
FILE_NAME ('3b56.STEP',
    '2023-02-13T14:22:23',
    ( '' ),
    ( '' ),
    'SwSTEP 2.0',
    'SolidWorks 2019',
    '' );
FILE_SCHEMA (( 'CONFIG_CONTROL_DESIGN' ));
ENDSEC;

DATA;
#1 = CARTESIAN_POINT ( 'NONE',  ( 0.000000000000000000, 0.000000000000000000, 0.000000000000000000 ) ) ;
#2 = EDGE_LOOP ( 'NONE', ( #119, #118 ) ) ;
#3 = PLANE ( 'NONE',  #33 ) ;
#4 = DATE_AND_TIME ( #186, #121 ) ;
#5 = ORIENTED_EDGE ( 'NONE', *, *, #13, .T. ) ;
#6 = FACE_OUTER_BOUND ( 'NONE', #196, .T. ) ;
#7 = CARTESIAN_POINT ( 'NONE',  ( 0.000000000000000000, 0.000000000000000000, 5.000000000000000000 ) ) ;
#8 = CC_DESIGN_APPROVAL ( #160, ( #84 ) ) ;
#9 = ORIENTED_EDGE ( 'NONE', *, *, #164, .T. ) ;
#10 = CIRCLE ( 'NONE', #85, 4.000000000000000000 ) ;
#11 =( NAMED_UNIT ( * ) SI_UNIT ( $, .STERADIAN. ) SOLID_ANGLE_UNIT ( ) );
#12 = CC_DESIGN_PERSON_AND_ORGANIZATION_ASSIGNMENT ( #162, #236, ( #88 ) ) ;
#13 = EDGE_CURVE ( 'NONE', #223, #82, #198, .T. ) ;
#14 = CYLINDRICAL_SURFACE ( 'NONE', #102, 7.000000000000000000 ) ;
#15 = EDGE_LOOP ( 'NONE', ( #245, #90, #9, #36 ) ) ;
#16 = DIRECTION ( 'NONE',  ( -0.000000000000000000, -0.000000000000000000, -1.000000000000000000 ) ) ;
#17 = AXIS2_PLACEMENT_3D ( 'NONE', #203, #22, #143 ) ;
#18 = VERTEX_POINT ( 'NONE', #154 ) ;
#19 = PERSON_AND_ORGANIZATION ( #244, #135 ) ;
#20 =( GEOMETRIC_REPRESENTATION_CONTEXT ( 3 ) GLOBAL_UNCERTAINTY_ASSIGNED_CONTEXT ( ( #92 ) ) GLOBAL_UNIT_ASSIGNED_CONTEXT ( ( #146, #70, #11 ) ) REPRESENTATION_CONTEXT ( 'NONE', 'WORKASPACE' ) );
#21 = CARTESIAN_POINT ( 'NONE',  ( -4.000000000000000000, 0.000000000000000000, 400.0000000000000000 ) ) ;
#22 = DIRECTION ( 'NONE',  ( -0.000000000000000000, -0.000000000000000000, -1.000000000000000000 ) ) ;
#23 = COORDINATED_UNIVERSAL_TIME_OFFSET ( 1, 0, .AHEAD. ) ;
#24 = ORIENTED_EDGE ( 'NONE', *, *, #235, .T. ) ;
#25 = DATE_AND_TIME ( #132, #41 ) ;
#26 = COORDINATED_UNIVERSAL_TIME_OFFSET ( 1, 0, .AHEAD. ) ;
#27 = APPROVAL_PERSON_ORGANIZATION ( #19, #213, #250 ) ;
#28 = EDGE_CURVE ( 'NONE', #71, #18, #187, .T. ) ;
#29 = ORIENTED_EDGE ( 'NONE', *, *, #174, .F. ) ;
#30 = CYLINDRICAL_SURFACE ( 'NONE', #211, 7.000000000000000000 ) ;
#31 = CARTESIAN_POINT ( 'NONE',  ( 0.000000000000000000, 0.000000000000000000, 400.0000000000000000 ) ) ;
#32 = ORIENTED_EDGE ( 'NONE', *, *, #57, .T. ) ;
#33 = AXIS2_PLACEMENT_3D ( 'NONE', #185, #145, #241 ) ;
#34 = CARTESIAN_POINT ( 'NONE',  ( -7.000000000000000000, 0.000000000000000000, 5.000000000000000000 ) ) ;
#35 = CARTESIAN_POINT ( 'NONE',  ( 0.000000000000000000, 0.000000000000000000, 400.0000000000000000 ) ) ;
#36 = ORIENTED_EDGE ( 'NONE', *, *, #57, .F. ) ;
#37 = CARTESIAN_POINT ( 'NONE',  ( 0.000000000000000000, 0.000000000000000000, 5.000000000000000000 ) ) ;
#38 = DATE_TIME_ROLE ( 'creation_date' ) ;
#39 = ADVANCED_FACE ( 'NONE', ( #222 ), #30, .T. ) ;
#40 = FACE_OUTER_BOUND ( 'NONE', #171, .T. ) ;
#41 = LOCAL_TIME ( 15, 22, 23.00000000000000000, #168 ) ;
#42 = EDGE_CURVE ( 'NONE', #45, #18, #134, .T. ) ;
#43 = APPLICATION_PROTOCOL_DEFINITION ( 'international standard', 'config_control_design', 1994, #247 ) ;
#44 = PERSON_AND_ORGANIZATION ( #244, #135 ) ;
#45 = VERTEX_POINT ( 'NONE', #246 ) ;
#46 = DIRECTION ( 'NONE',  ( 1.000000000000000000, 0.000000000000000000, 0.000000000000000000 ) ) ;
#47 = AXIS2_PLACEMENT_3D ( 'NONE', #59, #197, #137 ) ;
#48 = AXIS2_PLACEMENT_3D ( 'NONE', #182, #80, #167 ) ;
#49 = CLOSED_SHELL ( 'NONE', ( #52, #111, #39, #62, #67, #68, #149 ) ) ;
#50 = DIRECTION ( 'NONE',  ( 1.000000000000000000, 0.000000000000000000, 0.000000000000000000 ) ) ;
#51 = PERSON_AND_ORGANIZATION ( #244, #135 ) ;
#52 = ADVANCED_FACE ( 'NONE', ( #253 ), #234, .T. ) ;
#53 = PERSON_AND_ORGANIZATION_ROLE ( 'creator' ) ;
#54 = DATE_TIME_ROLE ( 'classification_date' ) ;
#55 = ORIENTED_EDGE ( 'NONE', *, *, #13, .F. ) ;
#56 = LOCAL_TIME ( 15, 22, 23.00000000000000000, #26 ) ;
#57 = EDGE_CURVE ( 'NONE', #165, #223, #179, .T. ) ;
#58 = DIRECTION ( 'NONE',  ( -0.000000000000000000, -0.000000000000000000, -1.000000000000000000 ) ) ;
#59 = CARTESIAN_POINT ( 'NONE',  ( 0.000000000000000000, 0.000000000000000000, 400.0000000000000000 ) ) ;
#60 = ORIENTED_EDGE ( 'NONE', *, *, #28, .T. ) ;
#61 = CALENDAR_DATE ( 2023, 13, 2 ) ;
#62 = ADVANCED_FACE ( 'NONE', ( #161, #66 ), #3, .T. ) ;
#63 = CALENDAR_DATE ( 2023, 13, 2 ) ;
#64 = CC_DESIGN_DATE_AND_TIME_ASSIGNMENT ( #110, #54, ( #151 ) ) ;
#65 = DATE_AND_TIME ( #63, #56 ) ;
#66 = FACE_OUTER_BOUND ( 'NONE', #217, .T. ) ;
#67 = ADVANCED_FACE ( 'NONE', ( #6 ), #144, .F. ) ;
#68 = ADVANCED_FACE ( 'NONE', ( #40 ), #122, .T. ) ;
#69 = AXIS2_PLACEMENT_3D ( 'NONE', #31, #94, #50 ) ;
#70 =( NAMED_UNIT ( * ) PLANE_ANGLE_UNIT ( ) SI_UNIT ( $, .RADIAN. ) );
#71 = VERTEX_POINT ( 'NONE', #227 ) ;
#72 = LOCAL_TIME ( 15, 22, 23.00000000000000000, #248 ) ;
#73 = CC_DESIGN_SECURITY_CLASSIFICATION ( #151, ( #238 ) ) ;
#74 = CIRCLE ( 'NONE', #129, 7.000000000000000000 ) ;
#75 = DIRECTION ( 'NONE',  ( 1.000000000000000000, 0.000000000000000000, 0.000000000000000000 ) ) ;
#76 = DIRECTION ( 'NONE',  ( -0.000000000000000000, -0.000000000000000000, -1.000000000000000000 ) ) ;
#77 = CARTESIAN_POINT ( 'NONE',  ( -7.000000000000000000, 0.000000000000000000, 0.000000000000000000 ) ) ;
#78 = ADVANCED_BREP_SHAPE_REPRESENTATION ( '3b56', ( #224, #141 ), #20 ) ;
#79 = CC_DESIGN_DATE_AND_TIME_ASSIGNMENT ( #65, #38, ( #84 ) ) ;
#80 = DIRECTION ( 'NONE',  ( 0.000000000000000000, 0.000000000000000000, 1.000000000000000000 ) ) ;
#81 = CARTESIAN_POINT ( 'NONE',  ( 0.000000000000000000, 0.000000000000000000, 0.000000000000000000 ) ) ;
#82 = VERTEX_POINT ( 'NONE', #206 ) ;
#83 = VECTOR ( 'NONE', #218, 1000.000000000000000 ) ;
#84 = PRODUCT_DEFINITION ( 'NEZNÁMÝ', '', #238, #89 ) ;
#85 = AXIS2_PLACEMENT_3D ( 'NONE', #7, #133, #190 ) ;
#86 = PRODUCT_RELATED_PRODUCT_CATEGORY ( 'detail', '', ( #88 ) ) ;
#87 = ORIENTED_EDGE ( 'NONE', *, *, #164, .F. ) ;
#88 = PRODUCT ( '3b56', '3b56', '', ( #183 ) ) ;
#89 = DESIGN_CONTEXT ( 'detailed design', #247, 'design' ) ;
#90 = ORIENTED_EDGE ( 'NONE', *, *, #174, .T. ) ;
#91 = CIRCLE ( 'NONE', #69, 4.000000000000000000 ) ;
#92 = UNCERTAINTY_MEASURE_WITH_UNIT (LENGTH_MEASURE( 1.000000000000000082E-05 ), #146, 'distance_accuracy_value', 'NONE');
#93 = ORIENTED_EDGE ( 'NONE', *, *, #215, .F. ) ;
#94 = DIRECTION ( 'NONE',  ( 0.000000000000000000, 0.000000000000000000, 1.000000000000000000 ) ) ;
#95 = CARTESIAN_POINT ( 'NONE',  ( 4.000000000000000000, 4.898587196589411843E-16, 400.0000000000000000 ) ) ;
#96 = CIRCLE ( 'NONE', #48, 7.000000000000000000 ) ;
#97 = DIRECTION ( 'NONE',  ( -1.000000000000000000, 0.000000000000000000, 0.000000000000000000 ) ) ;
#98 = ORIENTED_EDGE ( 'NONE', *, *, #136, .T. ) ;
#99 = PERSON_AND_ORGANIZATION_ROLE ( 'classification_officer' ) ;
#100 = EDGE_CURVE ( 'NONE', #153, #165, #202, .T. ) ;
#101 = EDGE_LOOP ( 'NONE', ( #108, #157 ) ) ;
#102 = AXIS2_PLACEMENT_3D ( 'NONE', #178, #58, #97 ) ;
#103 = ORIENTED_EDGE ( 'NONE', *, *, #117, .T. ) ;
#104 = VECTOR ( 'NONE', #210, 1000.000000000000000 ) ;
#105 = APPROVAL_STATUS ( 'not_yet_approved' ) ;
#106 = ORIENTED_EDGE ( 'NONE', *, *, #230, .F. ) ;
#107 = LINE ( 'NONE', #180, #104 ) ;
#108 = ORIENTED_EDGE ( 'NONE', *, *, #28, .F. ) ;
#109 = CARTESIAN_POINT ( 'NONE',  ( 0.000000000000000000, 0.000000000000000000, 5.000000000000000000 ) ) ;
#110 = DATE_AND_TIME ( #61, #72 ) ;
#111 = ADVANCED_FACE ( 'NONE', ( #173 ), #14, .T. ) ;
#112 = PERSON_AND_ORGANIZATION ( #244, #135 ) ;
#113 = APPROVAL_DATE_TIME ( #25, #229 ) ;
#114 = APPROVAL_PERSON_ORGANIZATION ( #205, #160, #254 ) ;
#115 = ORIENTED_EDGE ( 'NONE', *, *, #42, .T. ) ;
#116 = DIRECTION ( 'NONE',  ( 1.000000000000000000, 0.000000000000000000, 0.000000000000000000 ) ) ;
#117 = EDGE_CURVE ( 'NONE', #165, #153, #74, .T. ) ;
#118 = ORIENTED_EDGE ( 'NONE', *, *, #230, .T. ) ;
#119 = ORIENTED_EDGE ( 'NONE', *, *, #215, .T. ) ;
#120 = APPROVAL_STATUS ( 'not_yet_approved' ) ;
#121 = LOCAL_TIME ( 15, 22, 23.00000000000000000, #159 ) ;
#122 = CYLINDRICAL_SURFACE ( 'NONE', #17, 4.000000000000000000 ) ;
#123 = VERTEX_POINT ( 'NONE', #21 ) ;
#124 = DIRECTION ( 'NONE',  ( 0.000000000000000000, 0.000000000000000000, 1.000000000000000000 ) ) ;
#125 = PRODUCT_DEFINITION_SHAPE ( 'NONE', 'NONE',  #84 ) ;
#126 = PERSON_AND_ORGANIZATION_ROLE ( 'design_supplier' ) ;
#127 = CARTESIAN_POINT ( 'NONE',  ( 7.000000000000000000, 8.572527594031473190E-16, 5.000000000000000000 ) ) ;
#128 = PLANE ( 'NONE',  #188 ) ;
#129 = AXIS2_PLACEMENT_3D ( 'NONE', #158, #242, #46 ) ;
#130 = AXIS2_PLACEMENT_3D ( 'NONE', #37, #177, #200 ) ;
#131 = LOCAL_TIME ( 15, 22, 23.00000000000000000, #23 ) ;
#132 = CALENDAR_DATE ( 2023, 13, 2 ) ;
#133 = DIRECTION ( 'NONE',  ( 0.000000000000000000, 0.000000000000000000, 1.000000000000000000 ) ) ;
#134 = LINE ( 'NONE', #95, #83 ) ;
#135 = ORGANIZATION ( 'NEURÈENÝ', 'NEURÈENÝ', '' ) ;
#136 = EDGE_CURVE ( 'NONE', #123, #71, #107, .T. ) ;
#137 = DIRECTION ( 'NONE',  ( -1.000000000000000000, 0.000000000000000000, 0.000000000000000000 ) ) ;
#138 = ORIENTED_EDGE ( 'NONE', *, *, #117, .F. ) ;
#139 = APPLICATION_PROTOCOL_DEFINITION ( 'international standard', 'config_control_design', 1994, #237 ) ;
#140 = CC_DESIGN_PERSON_AND_ORGANIZATION_ASSIGNMENT ( #192, #53, ( #84 ) ) ;
#141 = AXIS2_PLACEMENT_3D ( 'NONE', #1, #228, #75 ) ;
#142 = FACE_OUTER_BOUND ( 'NONE', #2, .T. ) ;
#143 = DIRECTION ( 'NONE',  ( -1.000000000000000000, 0.000000000000000000, 0.000000000000000000 ) ) ;
#144 = PLANE ( 'NONE',  #163 ) ;
#145 = DIRECTION ( 'NONE',  ( 0.000000000000000000, 0.000000000000000000, 1.000000000000000000 ) ) ;
#146 =( LENGTH_UNIT ( ) NAMED_UNIT ( * ) SI_UNIT ( .MILLI., .METRE. ) );
#147 = APPROVAL_DATE_TIME ( #231, #213 ) ;
#148 = CC_DESIGN_PERSON_AND_ORGANIZATION_ASSIGNMENT ( #208, #99, ( #151 ) ) ;
#149 = ADVANCED_FACE ( 'NONE', ( #142 ), #128, .T. ) ;
#150 = AXIS2_PLACEMENT_3D ( 'NONE', #81, #255, #249 ) ;
#151 = SECURITY_CLASSIFICATION ( '', '', #240 ) ;
#152 = PERSON_AND_ORGANIZATION_ROLE ( 'creator' ) ;
#153 = VERTEX_POINT ( 'NONE', #127 ) ;
#154 = CARTESIAN_POINT ( 'NONE',  ( 4.000000000000000000, 4.898587196589411843E-16, 5.000000000000000000 ) ) ;
#155 = APPROVAL_PERSON_ORGANIZATION ( #51, #229, #216 ) ;
#156 = ORIENTED_EDGE ( 'NONE', *, *, #100, .T. ) ;
#157 = ORIENTED_EDGE ( 'NONE', *, *, #235, .F. ) ;
#158 = CARTESIAN_POINT ( 'NONE',  ( 0.000000000000000000, 0.000000000000000000, 5.000000000000000000 ) ) ;
#159 = COORDINATED_UNIVERSAL_TIME_OFFSET ( 1, 0, .AHEAD. ) ;
#160 = APPROVAL ( #120, 'NEURÈENÝ' ) ;
#161 = FACE_BOUND ( 'NONE', #101, .T. ) ;
#162 = PERSON_AND_ORGANIZATION ( #244, #135 ) ;
#163 = AXIS2_PLACEMENT_3D ( 'NONE', #166, #184, #225 ) ;
#164 = EDGE_CURVE ( 'NONE', #82, #223, #96, .T. ) ;
#165 = VERTEX_POINT ( 'NONE', #212 ) ;
#166 = CARTESIAN_POINT ( 'NONE',  ( 0.000000000000000000, 0.000000000000000000, 0.000000000000000000 ) ) ;
#167 = DIRECTION ( 'NONE',  ( 1.000000000000000000, 0.000000000000000000, 0.000000000000000000 ) ) ;
#168 = COORDINATED_UNIVERSAL_TIME_OFFSET ( 1, 0, .AHEAD. ) ;
#169 = LINE ( 'NONE', #195, #214 ) ;
#170 = DIRECTION ( 'NONE',  ( -0.000000000000000000, -0.000000000000000000, -1.000000000000000000 ) ) ;
#171 = EDGE_LOOP ( 'NONE', ( #176, #93, #98, #60 ) ) ;
#172 = AXIS2_PLACEMENT_3D ( 'NONE', #109, #239, #116 ) ;
#173 = FACE_OUTER_BOUND ( 'NONE', #15, .T. ) ;
#174 = EDGE_CURVE ( 'NONE', #153, #82, #169, .T. ) ;
#175 = SHAPE_DEFINITION_REPRESENTATION ( #125, #78 ) ;
#176 = ORIENTED_EDGE ( 'NONE', *, *, #42, .F. ) ;
#177 = DIRECTION ( 'NONE',  ( 0.000000000000000000, 0.000000000000000000, 1.000000000000000000 ) ) ;
#178 = CARTESIAN_POINT ( 'NONE',  ( 0.000000000000000000, 0.000000000000000000, 5.000000000000000000 ) ) ;
#179 = LINE ( 'NONE', #34, #193 ) ;
#180 = CARTESIAN_POINT ( 'NONE',  ( -4.000000000000000000, 0.000000000000000000, 400.0000000000000000 ) ) ;
#181 = CALENDAR_DATE ( 2023, 13, 2 ) ;
#182 = CARTESIAN_POINT ( 'NONE',  ( 0.000000000000000000, 0.000000000000000000, 0.000000000000000000 ) ) ;
#183 = MECHANICAL_CONTEXT ( 'NONE', #237, 'mechanical' ) ;
#184 = DIRECTION ( 'NONE',  ( 0.000000000000000000, 0.000000000000000000, 1.000000000000000000 ) ) ;
#185 = CARTESIAN_POINT ( 'NONE',  ( 0.000000000000000000, 0.000000000000000000, 5.000000000000000000 ) ) ;
#186 = CALENDAR_DATE ( 2023, 13, 2 ) ;
#187 = CIRCLE ( 'NONE', #130, 4.000000000000000000 ) ;
#188 = AXIS2_PLACEMENT_3D ( 'NONE', #226, #124, #204 ) ;
#189 = CC_DESIGN_APPROVAL ( #229, ( #151 ) ) ;
#190 = DIRECTION ( 'NONE',  ( 1.000000000000000000, 0.000000000000000000, 0.000000000000000000 ) ) ;
#191 = APPROVAL_STATUS ( 'not_yet_approved' ) ;
#192 = PERSON_AND_ORGANIZATION ( #244, #135 ) ;
#193 = VECTOR ( 'NONE', #76, 1000.000000000000000 ) ;
#194 = CIRCLE ( 'NONE', #219, 4.000000000000000000 ) ;
#195 = CARTESIAN_POINT ( 'NONE',  ( 7.000000000000000000, 8.572527594031473190E-16, 5.000000000000000000 ) ) ;
#196 = EDGE_LOOP ( 'NONE', ( #55, #87 ) ) ;
#197 = DIRECTION ( 'NONE',  ( -0.000000000000000000, -0.000000000000000000, -1.000000000000000000 ) ) ;
#198 = CIRCLE ( 'NONE', #150, 7.000000000000000000 ) ;
#199 = DIRECTION ( 'NONE',  ( 0.000000000000000000, 0.000000000000000000, 1.000000000000000000 ) ) ;
#200 = DIRECTION ( 'NONE',  ( 1.000000000000000000, 0.000000000000000000, 0.000000000000000000 ) ) ;
#201 = CC_DESIGN_PERSON_AND_ORGANIZATION_ASSIGNMENT ( #44, #126, ( #238 ) ) ;
#202 = CIRCLE ( 'NONE', #172, 7.000000000000000000 ) ;
#203 = CARTESIAN_POINT ( 'NONE',  ( 0.000000000000000000, 0.000000000000000000, 400.0000000000000000 ) ) ;
#204 = DIRECTION ( 'NONE',  ( 1.000000000000000000, 0.000000000000000000, -0.000000000000000000 ) ) ;
#205 = PERSON_AND_ORGANIZATION ( #244, #135 ) ;
#206 = CARTESIAN_POINT ( 'NONE',  ( 7.000000000000000000, 8.572527594031473190E-16, 0.000000000000000000 ) ) ;
#207 = APPROVAL_DATE_TIME ( #4, #160 ) ;
#208 = PERSON_AND_ORGANIZATION ( #244, #135 ) ;
#209 = CC_DESIGN_PERSON_AND_ORGANIZATION_ASSIGNMENT ( #112, #152, ( #238 ) ) ;
#210 = DIRECTION ( 'NONE',  ( -0.000000000000000000, -0.000000000000000000, -1.000000000000000000 ) ) ;
#211 = AXIS2_PLACEMENT_3D ( 'NONE', #220, #16, #232 ) ;
#212 = CARTESIAN_POINT ( 'NONE',  ( -7.000000000000000000, 0.000000000000000000, 5.000000000000000000 ) ) ;
#213 = APPROVAL ( #105, 'NEURÈENÝ' ) ;
#214 = VECTOR ( 'NONE', #170, 1000.000000000000000 ) ;
#215 = EDGE_CURVE ( 'NONE', #123, #45, #91, .T. ) ;
#216 = APPROVAL_ROLE ( '' ) ;
#217 = EDGE_LOOP ( 'NONE', ( #103, #156 ) ) ;
#218 = DIRECTION ( 'NONE',  ( -0.000000000000000000, -0.000000000000000000, -1.000000000000000000 ) ) ;
#219 = AXIS2_PLACEMENT_3D ( 'NONE', #35, #199, #251 ) ;
#220 = CARTESIAN_POINT ( 'NONE',  ( 0.000000000000000000, 0.000000000000000000, 5.000000000000000000 ) ) ;
#221 = EDGE_LOOP ( 'NONE', ( #29, #138, #32, #5 ) ) ;
#222 = FACE_OUTER_BOUND ( 'NONE', #221, .T. ) ;
#223 = VERTEX_POINT ( 'NONE', #77 ) ;
#224 = MANIFOLD_SOLID_BREP ( 'Pøidat vysunutím3', #49 ) ;
#225 = DIRECTION ( 'NONE',  ( 1.000000000000000000, 0.000000000000000000, -0.000000000000000000 ) ) ;
#226 = CARTESIAN_POINT ( 'NONE',  ( 0.000000000000000000, 0.000000000000000000, 400.0000000000000000 ) ) ;
#227 = CARTESIAN_POINT ( 'NONE',  ( -4.000000000000000000, 0.000000000000000000, 5.000000000000000000 ) ) ;
#228 = DIRECTION ( 'NONE',  ( 0.000000000000000000, 0.000000000000000000, 1.000000000000000000 ) ) ;
#229 = APPROVAL ( #191, 'NEURÈENÝ' ) ;
#230 = EDGE_CURVE ( 'NONE', #45, #123, #194, .T. ) ;
#231 = DATE_AND_TIME ( #181, #131 ) ;
#232 = DIRECTION ( 'NONE',  ( -1.000000000000000000, 0.000000000000000000, 0.000000000000000000 ) ) ;
#233 = EDGE_LOOP ( 'NONE', ( #106, #115, #24, #252 ) ) ;
#234 = CYLINDRICAL_SURFACE ( 'NONE', #47, 4.000000000000000000 ) ;
#235 = EDGE_CURVE ( 'NONE', #18, #71, #10, .T. ) ;
#236 = PERSON_AND_ORGANIZATION_ROLE ( 'design_owner' ) ;
#237 = APPLICATION_CONTEXT ( 'configuration controlled 3d designs of mechanical parts and assemblies' ) ;
#238 = PRODUCT_DEFINITION_FORMATION_WITH_SPECIFIED_SOURCE ( 'LIBOVOLNÝ', '', #88, .NOT_KNOWN. ) ;
#239 = DIRECTION ( 'NONE',  ( 0.000000000000000000, 0.000000000000000000, 1.000000000000000000 ) ) ;
#240 = SECURITY_CLASSIFICATION_LEVEL ( 'unclassified' ) ;
#241 = DIRECTION ( 'NONE',  ( 1.000000000000000000, 0.000000000000000000, -0.000000000000000000 ) ) ;
#242 = DIRECTION ( 'NONE',  ( 0.000000000000000000, 0.000000000000000000, 1.000000000000000000 ) ) ;
#243 = CC_DESIGN_APPROVAL ( #213, ( #238 ) ) ;
#244 = PERSON ( 'NEURÈENÝ', 'NEURÈENÝ', 'NEURÈENÝ', ('NEURÈENÝ'), ('NEURÈENÝ'), ('NEURÈENÝ') ) ;
#245 = ORIENTED_EDGE ( 'NONE', *, *, #100, .F. ) ;
#246 = CARTESIAN_POINT ( 'NONE',  ( 4.000000000000000000, 4.898587196589411843E-16, 400.0000000000000000 ) ) ;
#247 = APPLICATION_CONTEXT ( 'configuration controlled 3d designs of mechanical parts and assemblies' ) ;
#248 = COORDINATED_UNIVERSAL_TIME_OFFSET ( 1, 0, .AHEAD. ) ;
#249 = DIRECTION ( 'NONE',  ( 1.000000000000000000, 0.000000000000000000, 0.000000000000000000 ) ) ;
#250 = APPROVAL_ROLE ( '' ) ;
#251 = DIRECTION ( 'NONE',  ( 1.000000000000000000, 0.000000000000000000, 0.000000000000000000 ) ) ;
#252 = ORIENTED_EDGE ( 'NONE', *, *, #136, .F. ) ;
#253 = FACE_OUTER_BOUND ( 'NONE', #233, .T. ) ;
#254 = APPROVAL_ROLE ( '' ) ;
#255 = DIRECTION ( 'NONE',  ( 0.000000000000000000, 0.000000000000000000, 1.000000000000000000 ) ) ;
ENDSEC;
END-ISO-10303-21;
